Vous êtes sur la page 1sur 463

<< Mensagem Anterior | Prxima Mensagem >> Voltar ao ndice

FIRST LESSON QUE ALGUM APAGOU AQUI DE NOVO


August 16 2007 at 7:28 PM
Sem pontuao para esta mensagem
ALAIN/df (Login alainsomeimagem)
do endereo IP 201.11.131.126
-------------------------------------------------------------------------------CAMINHO DAS PEDRAS II REORGANIZADO PELO SERGIO VAZ
July 29 2007 at 8:42 PM
Sem pontuao para esta mensagem
ALAIN/DF (Login alainsomeimagem)
Conselheiro
-------------------------------------------------------------------------------roibido postar aqui ROGEBOSTA, RAPIDSHATO e seus genericos.
Um grande abrao a todos, aproveitem e se possivel postem seus esquemas aqui tb.
--------------------------------------------------------------------------------------------------Para facilitar a localizao de um esquema pressione CTRL + F e digite na caixa de b
usca os numeros do modelo. EX: 29PT4631 digite apenas 4631 fazendo isto facilita
r a busca do esquema desejado.
---------------------------------------------------------------------------------------------------

Esquemas do forum
http://sergiojsv.50webs.com/vip.htm>
senha para entrar= membrosvip
--------------------------------------------------------------------------------------------------DISCO VIRTUAL DO PEREIRA
http://www.4shared.com/dir/978000/2eba3470/sharing.html>
senha para entrar= vip
--------------------------------------------------------------------------------------------------esquemas da cce aiwa britania gradiente sony etc.
http://www.4shared.com/dir/1061141/9f3f2c57/sharing.html>
--------------------------------------------------------------------------------------------------ciclotron_tip5000h
http://www.4shared.com/file/6942452/a4ce082b/ciclotron_tip5000h.html?s=1>
--------------------------------------------------------------------------------------------------ciclotron-PR200
http://www.4shared.com/file/8737135/85f0ceea/PR200-todos.html>
--------------------------------------------------------------------------------------------------ciclotron_dbs3000
http://www.4shared.com/file/8736959/6cb3139a/ciclotron_dbs3000.html>
---------------------------------------------------------------------------------------------------

CD DA BRASTEMP
http://hosted.filefront.com/sergiovaz/>
--------------------------------------------------------------------------------------------------ciclotron_ic_placa_dissipador
http://www.4shared.com/file/8736968/309970cf/ciclotron_ic_placa_dissipador.html>
--------------------------------------------------------------------------------------------------Ciclotron_Ctpr_420_a
http://www.4shared.com/file/8736948/2af124d/Ciclotron_Ctpr_420_a.html>
--------------------------------------------------------------------------------------------------amplificador_ciclotom_-dbk3000
http://www.4shared.com/file/8736898/b6c30637/amplificador_ciclotom_-dbk3000.html
>
--------------------------------------------------------------------------------------------------staner_mp700
http://www.4shared.com/file/6942803/a7a4359c/staner_mp700.html?s=1>
--------------------------------------------------------------------------------------------------staner_1600t
http://www.4shared.com/file/6942788/f3f32121/staner_1600t.html?s=1>
--------------------------------------------------------------------------------------------------staner_800s
http://www.4shared.com/file/6942775/ada4153/staner_800s.html?s=1>
--------------------------------------------------------------------------------------------------Sharp14BSC_20BSC
http://www.4shared.com/file/8679005/711cf548/Sharp14BSC_20BSC.html?s=1>
--------------------------------------------------------------------------------------------------Sharp-c-1420
http://www.4shared.com/file/8678891/111cbcc5/Sharp1420.html?s=1>
--------------------------------------------------------------------------------------------------sharp_c14-2017
http://www.4shared.com/file/8617569/47a45e9d/sharp_c14-2017.html?s=1>
--------------------------------------------------------------------------------------------------sharp_c-29st58b
http://www.4shared.com/file/4858173/e92a938c/sharp_c-29st58b.html?s=1>
--------------------------------------------------------------------------------------------------sharp_c2999b
http://www.4shared.com/file/6054418/1f730395/sharp_2999b.html?s=1>
--------------------------------------------------------------------------------------------------sharp-29ST98B
http://www.4shared.com/file/8123867/7d033df6/sharp-29ST98B.html?s=1>
--------------------------------------------------------------------------------------------------Sharp-C1432B_C1632B_C1492B_C1692B_C2092B
http://www.4shared.com/file/5016850/12bfc311/Sharp-C1432B_C1632B_C1492B_C1692B_C
2092B.html?s=1>
--------------------------------------------------------------------------------------------------sharp_c1485
http://www.4shared.com/file/6062812/947736e3/sharp_1485.html?s=1>

--------------------------------------------------------------------------------------------------Sharp-1482B
http://www.4shared.com/file/5017040/bd0bc48d/Sharp-1482B.html?s=1>
--------------------------------------------------------------------------------------------------Sharp-C1484A
http://www.4shared.com/file/5017228/e60e3f57/Sharp-C1484A.html?s=1>
--------------------------------------------------------------------------------------------------C_SHARP_Video
http://www.4shared.com/file/7913810/f19db6c6/C_SHARP_Video.html?s=1>
--------------------------------------------------------------------------------------------------sharp-C-2188B
http://www.4shared.com/file/7726089/1de40f01/sharp-C-2188B.html?s=1>
--------------------------------------------------------------------------------------------------Sharp-TVC1425
http://www.4shared.com/file/5018890/5ed5fb2e/Sharp-TVC1425.html?s=1>
--------------------------------------------------------------------------------------------------Sharp-TVC20S01_e_20R11
http://www.4shared.com/file/5019643/c0509eb6/Sharp-TVC20S01_e_20R11.html?s=1>
--------------------------------------------------------------------------------------------------Sharp-TVC-1465B
http://www.4shared.com/file/5019287/6c81bd7f/Sharp-TVC-1465B.html?s=1>
--------------------------------------------------------------------------------------------------Sharp-C2053
http://www.4shared.com/file/5017932/139508e9/Sharp-C2053.html?s=1>
--------------------------------------------------------------------------------------------------Sharp-C21ST54B
http://www.4shared.com/file/5019860/61f18084/Sharp-C21ST54B.html?s=1>
--------------------------------------------------------------------------------------------------Sharp-C2038
http://www.4shared.com/file/5017569/f02adc40/Sharp-C2038.html?s=1>
--------------------------------------------------------------------------------------------------Sharp-C1457B_2057B_14ST57B_20ST57B
http://www.4shared.com/file/5017140/bcc9aeba/Sharp-C1457B_2057B_14ST57B_20ST57B.
html?s=1>
--------------------------------------------------------------------------------------------------Sharp-TVC1452B-2052B
http://www.4shared.com/file/5019535/6434131d/Sharp-TVC1452B-2052B.html?s=1>
--------------------------------------------------------------------------------------------------sharp_tvc-_29st54
http://www.4shared.com/file/2939950/d3768556/sharp_tvc-_29st54.html?s=1>
--------------------------------------------------------------------------------------------------sharp-DV-1416SN
http://zedub.com/tvs/sharp-DV-1416SN.zip>
--------------------------------------------------------------------------------------------------sharp-C1496Y

http://zedub.com/tvs/sharp-C1496Y.zip>
--------------------------------------------------------------------------------------------------sharp-C1407fp
http://zedub.com/tvs/sharp%20C1407fp.zip>
--------------------------------------------------------------------------------------------------sharp-14b
http://zedub.com/tvs/sharp-14b.zip>
--------------------------------------------------------------------------------------------------sharp-c1413-2013
http://zedub.com/tvs/sharp-c1413-2013.zip>
--------------------------------------------------------------------------------------------------grundig-cuc2130
http://www.4shared.com/file/4661313/bc56b44e/grundig-cuc2130.html>
--------------------------------------------------------------------------------------------------grundig_tv_13722
http://zedub.com/tvs/grundig_tv_13722.zip>
--------------------------------------------------------------------------------------------------cce_hps33r
http://zedub.com/tvs/cce_hps33r.zip>
--------------------------------------------------------------------------------------------------cce_hps21e
http://zedub.com/tvs/cce_hps21e.zip>
--------------------------------------------------------------------------------------------------goldstar_tv_wf28a10tm
http://zedub.com/tvs/goldstar_tv_wf28a10tm_nm.zip>
--------------------------------------------------------------------------------------------------goldstar_tv_mc84a
http://zedub.com/tvs/goldstar_tv_mc84a.zip>
--------------------------------------------------------------------------------------------------goldstar_tv_CF-14B10B_14D60B_20D60B_21D60B_14E20B_20E20B
http://zedub.com/tvs/goldstar_tv_LG%20CF-14B10B_14D60B_20D60B_21D60B_14E20B_20E2
0B.zip>
--------------------------------------------------------------------------------------------------goldstar_tv_cf2544
http://zedub.com/tvs/goldstar_tv_cf2544.zip>
--------------------------------------------------------------------------------------------------goldstar_tv_cf14a40_cf20a40
http://zedub.com/tvs/goldstar_tv_cf14a40_cf20a40.zip>
--------------------------------------------------------------------------------------------------goldstar_tv_20PC04%20BCctDm
http://zedub.com/tvs/goldstar_tv_%20PC04%20BCctDm.zip>
--------------------------------------------------------------------------------------------------daewoo-tv-cp330
http://zedub.com/tvs/daewoo-tv-cp330.zip>
---------------------------------------------------------------------------------------------------

sansung_ck5339
http://zedub.com/tvs/sansung_ck5339.zip>
--------------------------------------------------------------------------------------------------sansung_ck5073
http://zedub.com/tvs/sansung_ck5073.zip>
--------------------------------------------------------------------------------------------------sansung_ck5051
http://zedub.com/tvs/sansung_ck5051.zip>
--------------------------------------------------------------------------------------------------sansung_ck3385tr
http://zedub.com/tvs/sansung_ck3385tr.zip>
--------------------------------------------------------------------------------------------------samsung-CK20H1VR5X
http://zedub.com/tvs/samsung-CK20H1VR5X.zip>
--------------------------------------------------------------------------------------------------mitsubishi_tv_25_28av1bd
http://zedub.com/tvs/mitsubishi_tv_25_28av1bd.zip>
--------------------------------------------------------------------------------------------------lg_WF-28A10TM_NM
http://zedub.com/tvs/lg_WF-28A10TM_NM.zip>
--------------------------------------------------------------------------------------------------lg_mc994a_CF-20_21K49E
http://zedub.com/tvs/lg_mc994a_CF-20_21K49E.zip>
--------------------------------------------------------------------------------------------------lg_LC21F80
http://zedub.com/tvs/lg_LC21F80.zip>
--------------------------------------------------------------------------------------------------lg_KF-142021U70
http://zedub.com/tvs/lg_KF-142021U70.zip>
--------------------------------------------------------------------------------------------------lg_CT-29Q12IP
http://zedub.com/tvs/lg_CT-29Q12IP.zip>
--------------------------------------------------------------------------------------------------lg_CT-29Q10ET
http://zedub.com/tvs/lg_CT-29Q10ET.zip>
--------------------------------------------------------------------------------------------------lg_CF-29K40N
http://zedub.com/tvs/lg_CF-29K40N.zip>
--------------------------------------------------------------------------------------------------lg_CF-29H90TM_mc71
http://zedub.com/tvs/lg_CF-29H90TM_mc71.zip>
--------------------------------------------------------------------------------------------------lg_CF-29H30_mc74a
http://zedub.com/tvs/lg_CF-29H30_mc74a.zip>
---------------------------------------------------------------------------------------------------

lg_CF-25C44_c60_c60_c80
http://zedub.com/tvs/lg_CF-25C44_c60_c60_c80.zip>
--------------------------------------------------------------------------------------------------lg_CF-21D73_mc84
http://zedub.com/tvs/lg_CF-21D73_mc84.zip>
--------------------------------------------------------------------------------------------------lg_cf21d30-mc64b
http://zedub.com/tvs/lg_cf21d30-mc64b.zip>
--------------------------------------------------------------------------------------------------lg_cf21d30-mc64b
http://zedub.com/tvs/lg_cf21d30-mc64b.zip>
--------------------------------------------------------------------------------------------------lg_CF-28A50F
http://zedub.com/tvs/lg_CF-28A50F.zip>
--------------------------------------------------------------------------------------------------lg_CF14A40_CF20A40
http://zedub.com/tvs/lg_CF14A40_CF20A40.zip>
--------------------------------------------------------------------------------------------------jvc_tv_14
http://zedub.com/tvs/jvc_tv_14.zip>
--------------------------------------------------------------------------------------------------lg_CB-20A86_pc53a
http://zedub.com/tvs/lg_CB-20A86_pc53a.zip>
--------------------------------------------------------------------------------------------------lg_CA-14F33_mc84a
http://zedub.com/tvs/lg_CA-14F33_mc84a.zip>
--------------------------------------------------------------------------------------------------jvc_tv_c211ed
http://zedub.com/tvs/jvc_tv_c211ed.zip>
--------------------------------------------------------------------------------------------------jvc_tv_c210ee
http://zedub.com/tvs/jvc_tv_c210ee.zip>
--------------------------------------------------------------------------------------------------JVC_tv_C140MU
http://zedub.com/tvs/JVC_tv_C140MU.zip>
--------------------------------------------------------------------------------------------------jvc_tv_av25f1_av28f1
http://zedub.com/tvs/jvc_tv_av25f1_av28f1.zip>
--------------------------------------------------------------------------------------------------jvc_tv_20av21te
http://zedub.com/tvs/jvc_tv_%20av21te.zip>
--------------------------------------------------------------------------------------------------JVC_tv_211ED
http://zedub.com/tvs/JVC_tv_211ED.zip>
---------------------------------------------------------------------------------------------------

JVC_tv_210EE
http://zedub.com/tvs/JVC_tv_210EE.zip>
--------------------------------------------------------------------------------------------------aiwa_vx-t2020
http://zedub.com/tvs/aiwa_vx-t2020.zip>
--------------------------------------------------------------------------------------------------aiwa_VX-T147
http://zedub.com/tvs/aiwa_VX-T147.zip>
--------------------------------------------------------------------------------------------------aiwa_VX-G142
http://zedub.com/tvs/aiwa_VX-G142.zip>
--------------------------------------------------------------------------------------------------aiwa_VX147
http://zedub.com/tvs/aiwa_VX147.zip>
--------------------------------------------------------------------------------------------------aiwa_TV-SE211
http://zedub.com/tvs/aiwa_TV-SE211.zip>
--------------------------------------------------------------------------------------------------aiwa_TV-SE141
http://zedub.com/tvs/aiwa_TV-SE141.zip>
--------------------------------------------------------------------------------------------------aiwa_TV141
http://zedub.com/tvs/aiwa_TV141.zip>
--------------------------------------------------------------------------------------------------aiwa_1402
http://zedub.com/tvs/aiwa_1402.ZIP>
--------------------------------------------------------------------------------------------------aiwa_145
http://zedub.com/tvs/aiwa_145.ZIP>
--------------------------------------------------------------------------------------------------aiwa_tva149_209_219
http://zedub.com/tvs/aiwa_tva149_209_219.zip>
--------------------------------------------------------------------------------------------------sanyo-6756
http://zedub.com/tvs/tv-sanyo-6756.zip>
--------------------------------------------------------------------------------------------------sanyo-dicas tv
http://www.4shared.com/file/7625330/5c63ac7c/SANYO.html?s=1>
--------------------------------------------------------------------------------------------------Sanyo-CTP6791P
http://www.4shared.com/file/5542223/de2f082e/Sanyo-CTP6791P.html?s=1>
--------------------------------------------------------------------------------------------------Sanyo-CTP6755U
http://www.4shared.com/file/5542862/c0d3786a/Sanyo-CTP6755U.html?s=1>
---------------------------------------------------------------------------------------------------

Sanyo-CTP6703
http://www.4shared.com/file/4899279/76f54eaf/Sanyo-CTP6703_parte_1.html?s=1>
--------------------------------------------------------------------------------------------------sanyo_ctp_6796
http://www.4shared.com/file/4663790/40860fab/sanyo_ctp_6796.html?s=1>
--------------------------------------------------------------------------------------------------Sanyo_PDP42WV1
http://www.4shared.com/file/4903649/f320e400/Sanyo_PDP42WV1.html?s=1>
--------------------------------------------------------------------------------------------------Sanyo-CTP3722
http://www.4shared.com/file/4898948/9e36a57e/Sanyo-CTP3722.html?s=1>
--------------------------------------------------------------------------------------------------Sanyo_CTP6718
http://www.4shared.com/file/4903339/baaab02c/Sanyo_CTP6718.html?s=1>
--------------------------------------------------------------------------------------------------Sanyo-CTP2796
http://www.4shared.com/file/4897490/75f8d004/Sanyo-CTP2796.html?s=1>
--------------------------------------------------------------------------------------------------Sanyo-CTP3791P
http://www.4shared.com/file/4902805/2cd82740/Sanyo-CTP3791P.html?s=1>
--------------------------------------------------------------------------------------------------Sanyo-CTP3781
http://www.4shared.com/file/4901572/e7901899/Sanyo-CTP3781.html?s=1>
--------------------------------------------------------------------------------------------------Sanyo-CTP29LH43_e_HTM29LH43
http://www.4shared.com/file/4898268/a055281d/Sanyo-CTP29LH43_e_HTM29LH43.html?s=
1>
--------------------------------------------------------------------------------------------------Esquema PC 1442
http://www.eserviceinfo.com/downloadsm/4256/philco_cph04%20%20chassi.html>
--------------------------------------------------------------------------------------------------Sony Mod. MHC-GRX9900
http://www.promelec.ru/scheme/HCD-GRX9900_RXD9.pdf>
--------------------------------------------------------------------------------------------------CCE_tda8361_tutorial
http://www.4shared.com/file/8371742/1b220a36/CCE_tda8361_tutorial.html?s=1>
--------------------------------------------------------------------------------------------------Guia_fonte__cce
http://www.4shared.com/file/8400688/41194dde/Guia_fonte__cce.html?s=1>
--------------------------------------------------------------------------------------------------Desbloqueio_CCE
http://www.4shared.com/file/7620666/f962cfd5/Desbloqueio_CCE.html?s=1>
--------------------------------------------------------------------------------------------------bdvd_-_bsvcd_ntsc-pal_template_-_cce_sp_267
http://www.4shared.com/file/4871634/11a5c944/bdvd_-_bsvcd_ntsc-pal_template_-_cc
e_sp_267.html?s=1>

--------------------------------------------------------------------------------------------------manual_rebuilder-cce
http://www.4shared.com/file/4074161/c27aad54/manual_rebuilder-cce.html?s=1>
--------------------------------------------------------------------------------------------------tutorial_bsvcd_cce_by_bj
http://www.4shared.com/file/4871631/61cf3dcb/tutorial_bsvcd_cce_by_bj.html?s=1>
--------------------------------------------------------------------------------------------------cce-hps-2080d
http://www.4shared.com/file/5640358/2be39773/cce2080d.html?s=1>
--------------------------------------------------------------------------------------------------cce_hps-2981_queima_saida_horizontal
http://www.4shared.com/file/4843058/a76dec00/cce_2981_queima_saida_horizontal.ht
ml?s=1>
--------------------------------------------------------------------------------------------------Toshiba-U17
http://www.4shared.com/file/4907598/bcad83d5/Semp-Toshiba-U17.html?s=1>
--------------------------------------------------------------------------------------------------Toshiba-U16
http://www.4shared.com/file/4930987/e6641408/Semp-Toshiba-U16.html?s=1>
--------------------------------------------------------------------------------------------------Toshiba-U15
http://www.4shared.com/file/4941379/814f1b63/Semp-Toshiba-U15.html?s=1>
--------------------------------------------------------------------------------------------------Toshiba-U14R
http://www.4shared.com/file/5265435/d0c8bb89/Semp-Toshiba-U14R.html?s=1>
--------------------------------------------------------------------------------------------------Toshiba-U14
http://www.4shared.com/file/4940627/a5f767af/Semp-Toshiba-U14.html?s=1>
--------------------------------------------------------------------------------------------------Toshiba-U13
http://www.4shared.com/file/4940526/d0b6e960/Semp-Toshiba-U13.html?s=1>
--------------------------------------------------------------------------------------------------Toshiba-U12
http://www.4shared.com/file/4940290/df6e831b/Semp-Toshiba-U12.html?s=1>
--------------------------------------------------------------------------------------------------Toshiba-U11
http://www.4shared.com/file/4929466/4750fc79/Semp-Toshiba-U11.html?s=1>
--------------------------------------------------------------------------------------------------Toshiba-U10-LEM
http://www.4shared.com/file/5295049/13665e68/Semp-Toshiba-U10-LEM.html?s=1>
--------------------------------------------------------------------------------------------------Toshiba-U09
http://www.4shared.com/file/4929081/40beec88/Semp-Toshiba-U09.html?s=1>
--------------------------------------------------------------------------------------------------Toshiba-U08

http://www.4shared.com/file/4928848/23782dfd/Semp-Toshiba-U08.html?s=1>
--------------------------------------------------------------------------------------------------Toshiba-U07
http://www.4shared.com/file/4927233/ae1ff732/Semp-Toshiba-U07.html?s=1>
--------------------------------------------------------------------------------------------------Toshiba-U06B_-1482-2082EAV-1480-2080EAV
http://www.4shared.com/file/4954475/8708984f/Semp-Toshiba-U06B_-1482-2082EAV-148
0-2080EAV.html?s=1>
--------------------------------------------------------------------------------------------------Toshiba-TV2957EFS-CH-LEM-FS1
http://www.4shared.com/file/8372465/a783eca0/Semp-Toshiba-TV2957EFS-CH-LEM-FS1.h
tml?s=1>
--------------------------------------------------------------------------------------------------TOSHIBA_RG8155__RG8158CD
http://www.4shared.com/file/6966965/ecfd992f/TOSHIBA_RG8155__RG8158CD.html?s=1>
--------------------------------------------------------------------------------------------------dvd_toshiba_sd__4034_a4
http://www.4shared.com/file/5265375/b1eb6808/semp_toshiba_dvd_toshiba_sd__4034_a
4.html?s=1>
--------------------------------------------------------------------------------------------------Modoficao_toshiba_U14
http://www.4shared.com/file/7622898/39d51b9c/Modoficao_toshiba_U14.html?s=1>
--------------------------------------------------------------------------------------------------Dica_Tcnicas_Toshiba2303_06
http://www.4shared.com/file/7620711/2985a686/Dica_Tcnicas_Toshiba2303_06.html?s=
1>
--------------------------------------------------------------------------------------------------Toshiba-TS289ST_pip
http://www.4shared.com/file/4952212/6ed08904/Semp-Toshiba-TS289ST_pip.html?s=1>
--------------------------------------------------------------------------------------------------toshiba-MS8299
http://www.4shared.com/file/8354372/7a18527b/semp-toshiba-MS8299.html?s=1>
--------------------------------------------------------------------------------------------------chassis-lem6-p todos
http://www.4shared.com/file/4974435/99a40e2b/Semp-Toshiba-LEM6.html?s=1>
--------------------------------------------------------------------------------------------------reset -toshiba
http://www.4shared.com/file/6671255/9a6486d1/resettoshiba.html?s=1>
--------------------------------------------------------------------------------------------------toshiba_tv_1480_eav
http://www.4shared.com/file/3067147/f35dd233/toshiba_tv_1480_eav.html?s=1>
--------------------------------------------------------------------------------------------------Toshiba-TV-1458S_e_2058S
http://www.4shared.com/file/4953340/44d7113f/Semp-Toshiba-TV-1458S_e_2058S.html?
s=1>
---------------------------------------------------------------------------------------------------

toshiba-byb472114
http://www.4shared.com/file/3794566/3c85207c/toshibabyb472114.html?s=1>
--------------------------------------------------------------------------------------------------Toshiba-tv-1470_2070
http://www.4shared.com/file/4953197/6c992ebf/Semp-Toshiba-1470_2070.html?s=1>
--------------------------------------------------------------------------------------------------Toshiba-LEM-FS4-p todos
http://www.4shared.com/file/5347562/298cf816/Semp-Toshiba-LEM-FS4.html?s=1>
--------------------------------------------------------------------------------------------------toshiba-tv-TV-1480E-2080E-2080M
http://www.4shared.com/file/4971889/4d22929d/Semp-Toshiba-TV-1480E-2080E-2080M.h
tml?s=1>
--------------------------------------------------------------------------------------------------chassis-lem2
http://www.4shared.com/file/6671250/ea0e725e/TV_TOSHIBA_2998EMS_2987EMS_3488EMS_
LEM2.html?s=1>
--------------------------------------------------------------------------------------------------toshiba-som-cm-7235cd
http://www.4shared.com/file/4976017/e89c6dd2/semp_toshiba_cm7235cd.html?s=1>
--------------------------------------------------------------------------------------------------toshiba-som-cdp-5151
http://www.4shared.com/file/4974811/a5e551d4/SEMP_TOSHIBA_cdp5151.html?s=1>
--------------------------------------------------------------------------------------------------toshiba-chassis-lem-fs3
http://www.4shared.com/file/5344932/4f545ad9/Semp-Toshiba-LEM-FS3.html?s=1>
--------------------------------------------------------------------------------------------------toshiba-lem7-fs2a
http://www.4shared.com/file/5342175/9e24041a/Semp-Toshiba-LEM7-FS2A.html?s=1>
--------------------------------------------------------------------------------------------------toshiba-som-rg-9122
http://www.4shared.com/file/4976293/24acf7ad/SEMP_TOSHIBA_rg9122.html?s=1>
--------------------------------------------------------------------------------------------------toshiba-som-cdp-4147
http://www.4shared.com/file/4974626/1a32babe/SEMP_TOSHIBA_cdp4147_70.html?s=1>
--------------------------------------------------------------------------------------------------Atualizao de Software D-203 verso 060210 1 0
http://www.gradiente.com/site/gbs2002/downloads/763.zip>
--------------------------------------------------------------------------------------------------SOFTWARE DE ATUALIZAO KAS-520 (PCI DVD 692): TROCA DE MEC COMPLETO VERSO 1200W Proc
edimentos de atualizao do software esto disponveis nos Boletins Tcnicos TEC372 e TEC4
64.
http://www.gradiente.com/site/gbs2002/downloads/757.zip>
--------------------------------------------------------------------------------------------------Software de atualizao PLT-4230.
http://www.gradiente.com/site/gbs2002/downloads/756.zip>
---------------------------------------------------------------------------------------------------

SOFTWARE DE ATUALIZAO D-202 (plataforma ESS )


http://www.gradiente.com/site/gbs2002/downloads/744.zip>
--------------------------------------------------------------------------------------------------ATUALIZAO SOFTWARE DVD DV-570 -VERIFICAR PROCEDIMENTOS BOLETIM TCNICO TEC 452
http://www.gradiente.com/site/gbs2002/downloads/742.ZIP>
--------------------------------------------------------------------------------------------------Atualizao de Software do mdulo DVD do TV TVD-2951, para PCI DVD 639.
http://www.gradiente.com/site/gbs2002/downloads/706.zip>
--------------------------------------------------------------------------------------------------Atualizao de Software do mdulo DVD do TV TVD-2951, para PCI DVD 688.
http://www.gradiente.com/site/gbs2002/downloads/707.zip>
--------------------------------------------------------------------------------------------------SOFTWARE DE ATUALIZAO PARA O MDULO DE DVD PARA TFD2160 e TVD2951/TROCA DE MECANISMO
COMPLETO VERSO 1200W. Procedimentos de atualizao do software esto disponveis nos Bol
etins Tcnicos TEC372 e TEC452.
http://www.gradiente.com/site/gbs2002/downloads/702.zip>
--------------------------------------------------------------------------------------------------SOFTWARE DE ATUALIZAO PARA O MDULO DE DVD PARA TFD2160 e TVD2951/TROCA DE MECANISMO
COMPLETO VERSO 1200S. Procedimentos de atualizao do software esto disponveis nos Bol
etins Tcnicos TEC372 e TEC452.
http://www.gradiente.com/site/gbs2002/downloads/701.zip>
--------------------------------------------------------------------------------------------------SOFTWARE DE ATUALIZAO HTS-521 - Correo de anormalidades de reproduo de mdias e perform
nce de udio.
http://www.gradiente.com/site/gbs2002/downloads/689.zip>
--------------------------------------------------------------------------------------------------Software de correo problemas de recepo (Regio Sul / TV BAND).
http://www.gradiente.com/site/gbs2002/downloads/683.zip>
--------------------------------------------------------------------------------------------------SOFTWARE DE ATUALIZAO K-340 e KAS-520 (PCI DVD 660):TROCA DE MEC COMPLETO VERSO 120
0S Procedimentos de atualizao do software esto disponveis nos Boletins Tcnicos TEC372
, TEC462 e TEC463.
http://www.gradiente.com/site/gbs2002/downloads/672.zip>
--------------------------------------------------------------------------------------------------SOFTWARE DE ATUALIZAO K-340 e KAS-520 (PCI DVD 660):TROCA DE MEC COMPLETO VERSO 120
0W Procedimentos de atualizao do software esto disponveis nos Boletins Tcnicos TEC372
, TEC462 e TEC463.
http://www.gradiente.com/site/gbs2002/downloads/674.zip>
--------------------------------------------------------------------------------------------------SOFTWARE DE ATUALIZAO HTS-520 (mecanismo 1200W). Problema relacionado a queima do
IC601 e IC602. Procedimentos de atualizao do software esto disponveis no Boletim Tcni
co TEC372 e TEC446.
http://www.gradiente.com/site/gbs2002/downloads/656.zip>
--------------------------------------------------------------------------------------------------SOFTWARE DE ATUALIZAO HTS-520 (mecanismo 1200S). Problema relacionado a queima do
IC601 e IC602. Procedimentos de atualizao do software esto disponveis no Boletim Tcni
co TEC372 e TEC446
http://www.gradiente.com/site/gbs2002/downloads/655.zip>
--------------------------------------------------------------------------------

-------------------PACOTE DOS ARQUIVOS PARA ATUALIZAO DOS TVS. FAVOR CONSULTAR BOLETIM TCNICO N. 449 PAR
A MAIORES INFORMAES.
http://www.gradiente.com/site/gbs2002/downloads/643.zip>
--------------------------------------------------------------------------------------------------SOFTWARE DE ATUALIZAO D-680(Aplicao utilizar no caso de qualquer problema relacionad
o a reproduo, interrupo de leitura de mdias ou operao das funes): Baixar o arquivo e
ompactar.Gravar o mesmo em um Cdr ou Cdrw em velocidade de 4x e finalizar o disc
o( Conforme Boletim Tcnico Inf Tec 440 ).Detalhe importante: Colocar o disco com
o software na bandeja do aparelho, o mesmo ser automaticamente reconhecido e o D680 entrar em rotina de atualizao de software (O APARELHO NO DEVE SER DESLIGADO DURA
NTE ESTE PROCESSO); Aps o D-680 ir abrir a gaveta automaticamente e, em seguida, d
eve-se retirar o disco, aguardar a gaveta fechar e o aparelho se desligar automa
ticamente ; A carga do SW estar finalizada. Desligar o aparelho da tomada e aps li
ga-lo novamente.
http://www.gradiente.com/site/gbs2002/downloads/637.zip>
--------------------------------------------------------------------------------------------------Atualizao de Software D-203 verso 050315 1 0
http://www.gradiente.com/site/gbs2002/downloads/628.zip>
--------------------------------------------------------------------------------------------------Atualizao de software DR-660
http://www.gradiente.com/site/gbs2002/downloads/610.zip>
--------------------------------------------------------------------------------------------------SOFTWARE DE ATUALIZAO D-202- ( CHEERTEK )
http://www.gradiente.com/site/gbs2002/downloads/604.zip>
--------------------------------------------------------------------------------------------------Softwares de atualizao D-461 TYPE C :Utilizao : Dificuldades de Reproduo de Mdias: For
ato de disco errado, congelamento de imagem, no reproduo de segunda camada. Favor v
erificar o tipo de software que ir ser utilizado : Type A, B, C, D, E ou F, confo
rme boletim TEC414, dezipar e gravar os arquivos em um CD-R ou CD-RW, conforme b
oletim Tcnico TEC372 e efetuar a atualizao conforme boletim Tcnico TEC 412.
http://www.gradiente.com/site/gbs2002/downloads/594.zip>
--------------------------------------------------------------------------------------------------Softwares de atualizao D-461 TYPE D :Utilizao : Dificuldades de Reproduo de Mdias: For
ato de disco errado, congelamento de imagem, no reproduo de segunda camada. Favor v
erificar o tipo de software que ir ser utilizado : Type A, B, C, D, E ou F, confo
rme boletim TEC414, dezipar e gravar os arquivos em um CD-R ou CD-RW, conforme b
oletim Tcnico TEC372 e efetuar a atualizao conforme boletim Tcnico TEC 412.
http://www.gradiente.com/site/gbs2002/downloads/595.zip>
--------------------------------------------------------------------------------------------------Softwares de atualizao D-461 TYPE A :Utilizao : Dificuldades de Reproduo de Mdias: For
ato de disco errado, congelamento de imagem, no reproduo de segunda camada. Favor v
erificar o tipo de software que ir ser utilizado : Type A, B, C, D, E ou F, confo
rme boletim TEC414, dezipar e gravar os arquivos em um CD-R ou CD-RW, conforme b
oletim Tcnico TEC372 e efetuar a atualizao conforme boletim Tcnico TEC 412.
http://www.gradiente.com/site/gbs2002/downloads/592.zip>
--------------------------------------------------------------------------------------------------Softwares de atualizao D-461 TYPE B :Utilizao : Dificuldades de Reproduo de Mdias: For
ato de disco errado, congelamento de imagem, no reproduo de segunda camada. Favor v
erificar o tipo de software que ir ser utilizado : Type A, B, C, D, E ou F, confo
rme boletim TEC414, dezipar e gravar os arquivos em um CD-R ou CD-RW, conforme b
oletim Tcnico TEC372 e efetuar a atualizao conforme boletim Tcnico TEC 412.

http://www.gradiente.com/site/gbs2002/downloads/593.zip>
--------------------------------------------------------------------------------------------------SOFTWARES DE ATUALIZAO D-461 TYPE E :Utilizao : Dificuldades de Reproduo de Mdias: For
ato de disco errado, congelamento de imagem, no reproduo de segunda camada. Favor v
erificar o tipo de software que ir ser utilizado : Type A, B, C, D, E ou F, confo
rme boletim TEC414, dezipar e gravar os arquivos em um CD-R ou CD-RW, conforme b
oletim Tcnico TEC372 e efetuar a atualizao conforme boletim Tcnico TEC 412.
http://www.gradiente.com/site/gbs2002/downloads/596.zip>
--------------------------------------------------------------------------------------------------Softwares de atualizao D-461 TYPE F :Utilizao : Dificuldades de Reproduo de Mdias: For
ato de disco errado, congelamento de imagem, no reproduo de segunda camada. Favor v
erificar o tipo de software que ir ser utilizado : Type A, B, C, D, E ou F, confo
rme boletim TEC414, dezipar e gravar os arquivos em um CD-R ou CD-RW, conforme b
oletim Tcnico TEC372 e efetuar a atualizao conforme boletim Tcnico TEC 412.
http://www.gradiente.com/site/gbs2002/downloads/597.zip>
--------------------------------------------------------------------------------------------------SOFTWARE PARA ATUALIZAO DE TVS. Favor dezipar , criar uma pasta e copiar no comput
ador. ( Referente a utilizao somente dos arquivos : TF2150_D2_v207, TF2160_D2_v208
, TF2952_C7_V302.bin, TF2952_D2_V03.bin, TV29C7/D2_SAT_V104.bin, VCT49C7_14_20_V
202.bin, TVs_1421_2021_D2_13_05_05_V307_MASK.bin, mints_TVD2951_PRODUCAO_20_01_0
5.bin, favor dezipar os mesmos, copia-los na pasta download do VCT49xyi, atravs d
o seguinte caminho: C: arquivos de programas, micronas, visual I2C, ic, vct49xyi
,download. Escolher o arquivo correspondente ao modelo da TV e descrio do microna
s C7 ou D2, no terceiro item da ltima tela do programa Gravador VCT e executar a
atualizao do software ). Para as TVs 2922/GBT-2911, TV-1421/2021 e GBT-2011, o sof
tware solucionar tambm a qualidade de cor, para reclamaes de imagem "acinzentada".
http://www.gradiente.com/site/gbs2002/downloads/591.zip>
--------------------------------------------------------------------------------------------------SOFTWARE DE ATUALIZAO D-470(Aplicao: utilizar no caso de qualquer problema relaciona
do a reproduo, interrupo de leitura de mdias ou operao das funes) Procedimentos de g
atualizao, verificar o boletim tcnico TEC412.
http://www.gradiente.com/site/gbs2002/downloads/590.zip>
--------------------------------------------------------------------------------------------------SOFTWARE DE ATUALIZAO DT-350(Aplicao utilizar no caso de qualquer problema relaciona
do a reproduo, interrupo de leitura de mdias ou operao das funes): Baixar o arquivo
compactar.Gravar o mesmo em um Cdr ou Cdrw em velocidade de 2x e finalizar o dis
co( Conforme Boletim Tcnico TEC372 ).Detalhe importante: Colocar o disco com o so
ftware na bandeja do aparelho, o mesmo ser automaticamente reconhecido e o DT-350
entrar em rotina de atualizao de software (O APARELHO NO DEVE SER DESLIGADO DURANTE
ESTE PROCESSO); Aps o DT-350 ir abrir a gaveta automaticamente e, em seguida, dev
e-se retirar o disco, aguardar a gaveta fechar e o aparelho se desligar automati
camente ; A carga do SW estar finalizada. Desligar o aparelho da tomada e aps liga
-lo novamente.
http://www.gradiente.com/site/gbs2002/downloads/588.zip>
--------------------------------------------------------------------------------------------------SOFTWARE DE ATUALIZAO D-201 / GBD-120 (SUNPLUS). (Aplicao de atualizao de software, pa
ra os modelos D-201 / GBD-120 SUNPLUS, para correo do 3D e correo nas faixas de CD.P
ara gravar o software, seguir o procedimento do Boletim Tcnico TEC 384. O arquivo
deve ter o nome dvdrom.bin, caso seja copiado com outro nome, o mesmo deve ser
renomedo.
http://www.gradiente.com/site/gbs2002/downloads/535.zip>
--------------------------------------------------------------------------------------------------SOFTWARE DE ATUALIZAO HTS-760 (Aplicao utilizar no caso de qualquer problema relacio

nado a reproduo, interrupo de leitura de mdias ou operao das funes): Baixar o arquiv
escompactar.Gravar o mesmo em um Cdr ou Cdrw em velocidade de 2x e finalizar o d
isco.Detalhe importante: Colocar o disco com o software na bandeja do HTS-760, O
disco ser automaticamente reconhecido e o HTS-760 entrar em rotina de atualizao de
software (O APARELHO NO DEVE SER DESLIGADO DURANTE ESTE PROCESSO); Aps alguns segu
ndos o HTS-760 ir desligar automaticamente e, logo em seguida, ligar novamente eje
tando o disco (processo automtico); A carga do SW estar finalizada.
http://www.gradiente.com/site/gbs2002/downloads/524.zip>
--------------------------------------------------------------------------------------------------SOFTWARE DE ATUALIZAO D-460 (Aplicao utilizar no caso de qualquer problema relaciona
do a reproduo, interrupo de leitura de mdias ou operao das funes): Gravar o mesmo em
dr ou Cdrw em velocidade de 2x e finalizar o disco.Para carregar o software, seg
uir o procedimento do Boletim Tcnico TEC395.
http://www.gradiente.com/site/gbs2002/downloads/490.zip>
--------------------------------------------------------------------------------------------------SOFTWARE DE ATUALIZAO D-30/3C(Verso: 3.5.0(31/08/04)) )(Aplicao recomendada problemas
de reproduo em Slide Show e Reproduo de discos regio Livre (ex: Paris Filmes) Obs: P
ara este Novo Procedimento de Atualizao de Software, ser utilizado somente 01 (Uma)
Verso de Software citada acima. Detalhe importante: Para os Produtos que esto com
a Verso correspondente a "94MHz", tambm dever ser utilizado o Novo Software "108MH
z", porm, necessrio uma Modificao: - Na PCI Principal, o Resistor da Posio R42 dever
r retirado, e, colocado (inserido) na Posio R25.
http://www.gradiente.com/site/gbs2002/downloads/399.zip>
--------------------------------------------------------------------------------------------------Driver Placa de TV - OZ 10D L
http://www.gradiente.com/site/gbs2002/downloads/281.zip>
--------------------------------------------------------------------------------------------------Driver Audio - OZ 10D L
http://www.gradiente.com/site/gbs2002/downloads/282.zip>
--------------------------------------------------------------------------------------------------Driver Modem - OZ 11D
http://www.gradiente.com/site/gbs2002/downloads/283.zip>
--------------------------------------------------------------------------------------------------Driver Placa de TV - OZ 11D
http://www.gradiente.com/site/gbs2002/downloads/284.zip>
--------------------------------------------------------------------------------------------------Driver Rede - OZ 11D
http://www.gradiente.com/site/gbs2002/downloads/285.zip>
--------------------------------------------------------------------------------------------------Driver udio - OZ 11D
http://www.gradiente.com/site/gbs2002/downloads/286.zip>
--------------------------------------------------------------------------------------------------Driver Modem - OZ 22M
http://www.gradiente.com/site/gbs2002/downloads/287.zip>
--------------------------------------------------------------------------------------------------Driver Placa de TV - OZ 22M
http://www.gradiente.com/site/gbs2002/downloads/288.zip>
--------------------------------------------------------------------------------------------------Driver Placa de Vdeo - OZ 22M

http://www.gradiente.com/site/gbs2002/downloads/289.zip>
--------------------------------------------------------------------------------------------------Driver de udio - OZ 22M
http://www.gradiente.com/site/gbs2002/downloads/290.zip>
--------------------------------------------------------------------------------------------------Driver Modem OZ 10D - L
http://www.gradiente.com/site/gbs2002/downloads/280.zip>
--------------------------------------------------------------------------------------------------Bios Placa FR33E
http://www.gradiente.com/site/gbs2002/downloads/266.ZIP>
--------------------------------------------------------------------------------------------------SOFTWARE DE ATUALIZAO K-40/3 (Verso: 3.4.0) (Aplicao melhoria das funes Program / Suff
e e soluo para problemas de reproduo de discos CDr e CDrw (MP3/VCD)) e melhorias na
funo competioObs: Gravar o mesmo em um Cdr ou Cdrw em velocidade de 2x e finalizar o
disco.
http://www.gradiente.com/site/gbs2002/downloads/254.zip>
--------------------------------------------------------------------------------------------------SOFTWARE DE ATUALIZAO MSD-700 / MSD-730 (Aplicao em caso de no reproduo de discos regi
Livre ex: Paris Filmes) Obs: Gravar o mesmo em um Cdr ou Cdrw em velocidade de 2
x e finalizar o disco.
http://www.gradiente.com/site/gbs2002/downloads/255.zip>
--------------------------------------------------------------------------------------------------SOFTWARE DE ATUALIZAO TVD-2950 (Aplicao em caso de no reproduo de discos regio Livre
: Paris Filmes) Obs: Gravar o mesmo em um Cdr ou Cdrw em velocidade de 2x e fina
lizar o disco.
http://www.gradiente.com/site/gbs2002/downloads/256.rom>
--------------------------------------------------------------------------------------------------SOFTWARE DE ATUALIZAO D-10 (Atraso de udio em relao ao vdeo)
http://www.gradiente.com/site/gbs2002/downloads/234.zip>
--------------------------------------------------------------------------------------------------SOFTWARE DE ATUALIZAO K-50/3C (Verso 3.4.0)(Recomendada para problemas de reproduo em
Slide Show e discos regio Livre (ex: Paris Filmes) e melhorias na funo competio Obs:
Gravar o mesmo em um Cdr ou Cdrw em velocidade de 2x e finalizar o disco.
http://www.gradiente.com/site/gbs2002/downloads/226.zip>
--------------------------------------------------------------------------------------------------SOFTWARE DE ATUALIZAO D-400(CKS: 1.3.0) OBS: Copiar o arquivo e Descompaquitar, fa
zer a gravao em CDr na velocidade 1x ou 2x finalizando o CD
http://www.gradiente.com/site/gbs2002/downloads/208.zip>
--------------------------------------------------------------------------------------------------SOFTWARE DE ATUALIZAO D-200 (CKS: 1.3.2np) OBS: Copiar o arquivo e Descompaquitar,
fazer a gravao em CDr na velocidade 1x ou 2x finalizando o CD.
http://www.gradiente.com/site/gbs2002/downloads/207.zip>
--------------------------------------------------------------------------------------------------Anti - Vrus contra LoveSan e MSBlast
http://www.gradiente.com/site/gbs2002/downloads/194.exe>
--------------------------------------------------------------------------------------------------SOFTWARE DE ATUALIZAO HTS-150D (v 3.2.6) - (Aplicao: Problemas de reproduo de determin
ads mdias ou imagem distorcida na funo closed cption) Para a gravo seguir o procedime

nto do Boletim Tcnico TEC 372. O arquivo deve ter o nome bank30.rom, caso seja co
piado com outro nome, o mesmo deve ser renomedo.
http://www.gradiente.com/site/gbs2002/downloads/170.zip>
--------------------------------------------------------------------------------------------------Driver para som OZ-21M - 7,8 MB
http://www.gradiente.com/site/gbs2002/downloads/159.zip>
--------------------------------------------------------------------------------------------------Driver para video AGP OZ-21M - 6 MB
http://www.gradiente.com/site/gbs2002/downloads/162.ZIP>
--------------------------------------------------------------------------------------------------Driver para som OZ-C900T, OZ-C1000TC e OZ-10D - 2,3 MB
http://www.gradiente.com/site/gbs2002/downloads/164.ZIP>
--------------------------------------------------------------------------------------------------Driver para placa de TV
http://www.gradiente.com/site/gbs2002/downloads/160.zip>
--------------------------------------------------------------------------------------------------Driver para modem OZ-21M - 872 KB
http://www.gradiente.com/site/gbs2002/downloads/161.zip>
--------------------------------------------------------------------------------------------------Driver para modem OZ-C900T, OZ-C1000TC e OZ-10D - 790 KB
http://www.gradiente.com/site/gbs2002/downloads/163.zip>
--------------------------------------------------------------------------------------------------BIOS para OZ-11D. Formate um disquete no windows98 marcando a opo: copiar apenas
s arquivos de sistema. Depois, descompacte o arquivo "151.zip" e transfira-o par
a o disquete. Na tela de SETUP, faa a mquina iniciar pelo floppy disk e restaure
BIOS.
http://www.gradiente.com/site/gbs2002/downloads/151.zip>
--------------------------------------------------------------------------------------------------BIOS para OZ-21M. Formate um disquete no windows98 marcando a opo: copiar apenas
s arquivos de sistema. Depois, descompacte o arquivo "152.zip" e transfira-o par
a o disquete. Na tela de SETUP, faa a mquina iniciar pelo floppy disk e restaure
BIOS.
http://www.gradiente.com/site/gbs2002/downloads/152.zip>
--------------------------------------------------------------------------------------------------Manual de Servio Completo DVDok K-341
http://www.gradiente.com/site/gbs2002/downloads/766.zip>
--------------------------------------------------------------------------------------------------Manual Tcnico Televisor Plasma PLT-4230
http://www.gradiente.com/site/gbs2002/downloads/712.pdf>
--------------------------------------------------------------------------------------------------MANUAL TCNICO AS-M550
http://www.gradiente.com/site/gbs2002/downloads/687.zip>
--------------------------------------------------------------------------------------------------Manual Tcnico AS-400
http://www.gradiente.com/site/gbs2002/downloads/684.zip>
--------------------------------------------------------------------------------------------------Manual Tcnico AS-M410

o
o

o
o

http://www.gradiente.com/site/gbs2002/downloads/685.zip>
--------------------------------------------------------------------------------------------------MANUAL TCNICO AS-M430
http://www.gradiente.com/site/gbs2002/downloads/686.zip>
--------------------------------------------------------------------------------------------------MANUAL TCNICO AS-M570
http://www.gradiente.com/site/gbs2002/downloads/688.zip>
--------------------------------------------------------------------------------------------------Manual Tcnico DVD Players D-201 e GBD-120 (MEDIATEK)
http://www.gradiente.com/site/gbs2002/downloads/645.zip>
--------------------------------------------------------------------------------------------------Manual Tcnico DVD Player D-470
http://www.gradiente.com/site/gbs2002/downloads/648.zip>
--------------------------------------------------------------------------------------------------Manual Tcnico DVD Player D-461
http://www.gradiente.com/site/gbs2002/downloads/647.zip>
--------------------------------------------------------------------------------------------------Manual Tcnico DVD Player D-680
http://www.gradiente.com/site/gbs2002/downloads/649.zip>
--------------------------------------------------------------------------------------------------Manual Tcnico DVD Players D-201 e GBD-120 (SUNPLUS
http://www.gradiente.com/site/gbs2002/downloads/646.zip>
--------------------------------------------------------------------------------------------------Manual Tcnico DVD Player DT-350
http://www.gradiente.com/site/gbs2002/downloads/650.zip>
--------------------------------------------------------------------------------------------------MANUAL TCNICO BX-M700
http://www.gradiente.com/site/gbs2002/downloads/577.zip>
--------------------------------------------------------------------------------------------------Manual Tcnico D-30/3C / D-560 / K-40/3 / K-50/3C (parte 3 e 4)
http://www.gradiente.com/site/gbs2002/downloads/321.zip>
--------------------------------------------------------------------------------------------------Manual Tcnico D-30/3C / D-560 / K-40/3 / K-50/3C (parte 5)
http://www.gradiente.com/site/gbs2002/downloads/322.zip>
--------------------------------------------------------------------------------------------------Manual Tcnico D-30/3C / D-560 / K-40/3 / K-50/3C (parte 1 e 2)
http://www.gradiente.com/site/gbs2002/downloads/320.zip>
--------------------------------------------------------------------------------------------------Manual Tcnico AS-580
http://www.gradiente.com/site/gbs2002/downloads/307.zip>
--------------------------------------------------------------------------------------------------Manual Tcnico HTS-760
http://www.gradiente.com/site/gbs2002/downloads/293.zip>
--------------------------------------------------------------------------------------------------Manual Tcnico MS-600 / MS-630 (parte 1)

http://www.gradiente.com/site/gbs2002/downloads/238.zip>
--------------------------------------------------------------------------------------------------Manual Tcnico MS-600 / MS-630 (parte 2)
http://www.gradiente.com/site/gbs2002/downloads/239.zip>
--------------------------------------------------------------------------------------------------Manual Tcnico MS-600 / MS-630 (parte 3)
http://www.gradiente.com/site/gbs2002/downloads/240.zip>
--------------------------------------------------------------------------------------------------Manual Tcnico MS-600 / MS-630 (parte 4)
http://www.gradiente.com/site/gbs2002/downloads/241.zip>
--------------------------------------------------------------------------------------------------Manual Tcnico MS-600 / MS-630 (parte 5)
http://www.gradiente.com/site/gbs2002/downloads/242.zip>
--------------------------------------------------------------------------------------------------Manual Tcnico V-250
http://www.gradiente.com/site/gbs2002/downloads/235.zip>
--------------------------------------------------------------------------------------------------Manual Tcnico D-460 (parte 1)
http://www.gradiente.com/site/gbs2002/downloads/217.zip>
--------------------------------------------------------------------------------------------------Manual Tcnico D-460 (parte 2)
http://www.gradiente.com/site/gbs2002/downloads/218.zip>
--------------------------------------------------------------------------------------------------Manual Tcnico D-460 (parte 3)
http://www.gradiente.com/site/gbs2002/downloads/219.zip>
--------------------------------------------------------------------------------------------------Esquema Eltrico Monitor OZ-15MS
http://www.gradiente.com/site/gbs2002/downloads/209.PDF>
--------------------------------------------------------------------------------------------------Manual de Servio OZ-15MS (Parte 1)
http://www.gradiente.com/site/gbs2002/downloads/210.zip>
--------------------------------------------------------------------------------------------------Manual de Servio OZ-15MS (Parte 2)
http://www.gradiente.com/site/gbs2002/downloads/211.zip>
--------------------------------------------------------------------------------------------------Manual de Servio OZ-15MS (Parte 3)
http://www.gradiente.com/site/gbs2002/downloads/212.zip>
--------------------------------------------------------------------------------------------------Manual de Servio OZ-15MS (Parte 4)
http://www.gradiente.com/site/gbs2002/downloads/213.zip>
--------------------------------------------------------------------------------------------------Manual de Servio OZ-15MS (Parte 5)
http://www.gradiente.com/site/gbs2002/downloads/214.zip>
--------------------------------------------------------------------------------------------------Manual de Servio OZ-15MS (Parte 6)

http://www.gradiente.com/site/gbs2002/downloads/215.zip>
--------------------------------------------------------------------------------------------------Manual Tcnico VS-20/3
http://www.gradiente.com/site/gbs2002/downloads/191.zip>
--------------------------------------------------------------------------------------------------Manual Tcnico TV-1420 / TV-2020
http://www.gradiente.com/site/gbs2002/downloads/184.zip>
--------------------------------------------------------------------------------------------------Manual Tcnico SM-14A / SM-20A / SM-14S / SM-20S
http://www.gradiente.com/site/gbs2002/downloads/185.zip>
--------------------------------------------------------------------------------------------------Manual Tcnico MS-600 / MS-630
http://www.gradiente.com/site/gbs2002/downloads/155.zip>
--------------------------------------------------------------------------------------------------Manual Tcnico D-15/3 / D-25/3
http://www.gradiente.com/site/gbs2002/downloads/147.pdf>
--------------------------------------------------------------------------------------------------Manual Tcnico VS-20/3 (parcial)
http://www.gradiente.com/site/gbs2002/downloads/142.pdf>
--------------------------------------------------------------------------------------------------Manual Tcnico K-35
http://www.gradiente.com/site/gbs2002/downloads/139.pdf>
--------------------------------------------------------------------------------------------------Manual Tcnico AS-140/3
http://www.gradiente.com/site/gbs2002/downloads/132.pdf>
--------------------------------------------------------------------------------------------------Manual Tcnico GSD-1000
http://www.gradiente.com/site/gbs2002/downloads/113.pdf>
--------------------------------------------------------------------------------------------------Manual Tcnico D-12/2 (Advanced DVD) / D-20/3
http://www.gradiente.com/site/gbs2002/downloads/112.pdf>
--------------------------------------------------------------------------------------------------Manual Tcnico AS 60/3
http://www.gradiente.com/site/gbs2002/downloads/111.pdf>
--------------------------------------------------------------------------------------------------Manual Tcnico D-10/2 (Compact DVD)
http://www.gradiente.com/site/gbs2002/downloads/109.pdf>
--------------------------------------------------------------------------------------------------Manual Tcnico VS-10/2
http://www.gradiente.com/site/gbs2002/downloads/108.zip>
--------------------------------------------------------------------------------------------------Manual Tcnico K-32
http://www.gradiente.com/site/gbs2002/downloads/106.pdf>
--------------------------------------------------------------------------------------------------Manual Tcnico GBA com esquema Eltrico (parte 1)

http://www.gradiente.com/site/gbs2002/downloads/104.pdf>
--------------------------------------------------------------------------------------------------Manual Tcnico GBA com esquema eltrico (parte 2)
http://www.gradiente.com/site/gbs2002/downloads/105.pdf>
--------------------------------------------------------------------------------------------------Manual Tcnico NEXT 29 L
http://www.gradiente.com/site/gbs2002/downloads/103.zip>
--------------------------------------------------------------------------------------------------Manual Tcnico SV-40C / SV-40M
http://www.gradiente.com/site/gbs2002/downloads/102.zip>
--------------------------------------------------------------------------------------------------Informaes Tcnicas Gerais Security
http://www.gradiente.com/site/gbs2002/downloads/100.zip>
--------------------------------------------------------------------------------------------------Manual de Servio OZ-C900T/C1000CT
http://www.gradiente.com/site/gbs2002/downloads/98.zip>
--------------------------------------------------------------------------------------------------Vista Explodida e Lista de Materiais OZ-15MS
http://www.gradiente.com/site/gbs2002/downloads/97.pdf>
--------------------------------------------------------------------------------------------------Manual Tcnico ST-960
http://www.gradiente.com/site/gbs2002/downloads/95.pdf>
--------------------------------------------------------------------------------------------------Manual Tcnico DS-1500HT
http://www.gradiente.com/site/gbs2002/downloads/92.pdf>
--------------------------------------------------------------------------------------------------Manual Tcnico SR-960
http://www.gradiente.com/site/gbs2002/downloads/91.PDF>
--------------------------------------------------------------------------------------------------Manual Tcnico HTS-200D / HTS-100
http://www.gradiente.com/site/gbs2002/downloads/86.zip>
--------------------------------------------------------------------------------------------------Manual Tcnico TMP-2000 ndice Esp.Tcnica.
http://www.gradiente.com/site/gbs2002/downloads/69.pdf>
--------------------------------------------------------------------------------------------------Manual Tcnico TMP-2000
http://www.gradiente.com/site/gbs2002/downloads/71.pdf>
--------------------------------------------------------------------------------------------------Manual Tcnico TMP-2000
http://www.gradiente.com/site/gbs2002/downloads/60.PDF>
--------------------------------------------------------------------------------------------------Manual Tcnico GSD-1500
http://www.gradiente.com/site/gbs2002/downloads/64.pdf>
--------------------------------------------------------------------------------------------------Manual Tcnico D-22 / K-30

http://www.gradiente.com/site/gbs2002/downloads/57.pdf>
--------------------------------------------------------------------------------------------------Manual Tcnico Game Boy Color (parcial)
http://www.gradiente.com/site/gbs2002/downloads/8.PDF>
--------------------------------------------------------------------------------------------------Manual Tcnico ENERGY 1200/2200/4200
http://www.gradiente.com/site/gbs2002/downloads/9.pdf>
--------------------------------------------------------------------------------------------------Manual Tcnico D-12
http://www.gradiente.com/site/gbs2002/downloads/6.pdf>
--------------------------------------------------------------------------------------------------Manual Tcnico D-10
http://www.gradiente.com/site/gbs2002/downloads/7.pdf>
--------------------------------------------------------------------------------------------------Manual Tcnico ENERGY 2200 (errata)
http://www.gradiente.com/site/gbs2002/downloads/1.pdf>
--------------------------------------------------------------------------------------------------Apresentao / Treinamento televisor plasma PLT-4230 (em formato Power Point).
http://www.gradiente.com/site/gbs2002/downloads/736.ppt>
--------------------------------------------------------------------------------------------------Manual de Treinamento TV Plasma PLT-4230.
http://www.gradiente.com/site/gbs2002/downloads/730.ppt>
--------------------------------------------------------------------------------------------------Manual DVD Player Verso 2004
http://www.gradiente.com/site/gbs2002/downloads/291.ZIP>
--------------------------------------------------------------------------------------------------Manual DVD Player Verso 2002
http://www.gradiente.com/site/gbs2002/downloads/140.pdf>
--------------------------------------------------------------------------------------------------Esquemas Eltricos AS-M890.
http://www.gradiente.com/site/gbs2002/downloads/752.pdf>
--------------------------------------------------------------------------------------------------Esquema Eltrico BX-M600
http://www.gradiente.com/site/gbs2002/downloads/745.pdf>
--------------------------------------------------------------------------------------------------Esquema Eltrico e Diagrama de Blocos HTS-521.
http://www.gradiente.com/site/gbs2002/downloads/741.pdf>
--------------------------------------------------------------------------------------------------ESQUEMA ELTRICO E DIAGRAMA DE BLOCOS K-341
http://www.gradiente.com/site/gbs2002/downloads/739.zip>
--------------------------------------------------------------------------------------------------ESQUEMAS ELTRICO E DIAGRAMA COMPLETO HTS-641.
http://www.gradiente.com/site/gbs2002/downloads/731.zip>
--------------------------------------------------------------------------------------------------DIAGRAMA DE BLOCOS DT-230

http://www.gradiente.com/site/gbs2002/downloads/732.zip>
--------------------------------------------------------------------------------------------------GUIA DE PLACAS DT-230
http://www.gradiente.com/site/gbs2002/downloads/734.zip>
--------------------------------------------------------------------------------------------------ESQUEMA ELTRICO DR-660
http://www.gradiente.com/site/gbs2002/downloads/737.pdf>
--------------------------------------------------------------------------------------------------ESQUEMA ELTRICO DT-230
http://www.gradiente.com/site/gbs2002/downloads/733.zip>
--------------------------------------------------------------------------------------------------Esquemas Eltricos - DVD Recorder DR-660.
http://www.gradiente.com/site/gbs2002/downloads/728.pdf>
--------------------------------------------------------------------------------------------------ESQUEMA ELTRICO
http://www.gradiente.com/site/gbs2002/downloads/714.pdf>
--------------------------------------------------------------------------------------------------ESQUEMA ELTRICO, GUIA DE PLACAS E DIAGRAMA ELTRICO MS-501
http://www.gradiente.com/site/gbs2002/downloads/715.zip>
--------------------------------------------------------------------------------------------------ESQUEMA ELTRICO E GUIA DE PLACAS MS M400.
http://www.gradiente.com/site/gbs2002/downloads/713.zip>
--------------------------------------------------------------------------------------------------Esquemas Eltricos Televisor Plasma PLT-4230.
http://www.gradiente.com/site/gbs2002/downloads/711.pdf>
--------------------------------------------------------------------------------------------------Esquemas Eltricos e Guia de Placas DVD Player Porttil DP-730.
http://www.gradiente.com/site/gbs2002/downloads/692.zip>
--------------------------------------------------------------------------------------------------Esquemas Eltricos e Guia de Placas HTS-420.
http://www.gradiente.com/site/gbs2002/downloads/696.zip>
--------------------------------------------------------------------------------------------------Esquemas Eltricos e Guia de Placas MS-300.
http://www.gradiente.com/site/gbs2002/downloads/690.zip>
--------------------------------------------------------------------------------------------------Esquemas Eltricos e Diagramas de Fiao - PCI Principal e Fonte de Alimentao do DVD Pla
yer D-203.
http://www.gradiente.com/site/gbs2002/downloads/691.zip>
--------------------------------------------------------------------------------------------------Esquema Eltrico BX-570
http://www.gradiente.com/site/gbs2002/downloads/677.pdf>
--------------------------------------------------------------------------------------------------Esquema Eltrico (PCI principal) D-203.
http://www.gradiente.com/site/gbs2002/downloads/653.pdf>
---------------------------------------------------------------------------------------------------

ESQUEMAS ELTRICOS DV-570


http://www.gradiente.com/site/gbs2002/downloads/644.pdf>
--------------------------------------------------------------------------------------------------Esquema eltrico TVD-2951, TV-2923 E GBT-2912
http://www.gradiente.com/site/gbs2002/downloads/638.pdf>
--------------------------------------------------------------------------------------------------ESQUEMA ELTRICO TF-2150 / TFD-2160
http://www.gradiente.com/site/gbs2002/downloads/631.pdf>
--------------------------------------------------------------------------------------------------ESQUEMA ELTRICO AS-M790
http://www.gradiente.com/site/gbs2002/downloads/629.zip>
--------------------------------------------------------------------------------------------------ESQUEMA ELTRICO AS-M890 - PCI POTNCIA
http://www.gradiente.com/site/gbs2002/downloads/630.zip>
--------------------------------------------------------------------------------------------------ESQUEMAS ELTRICOS D-201 / GBD-120
http://www.gradiente.com/site/gbs2002/downloads/607.pdf>
--------------------------------------------------------------------------------------------------Esquemas Eltricos DT-350
http://www.gradiente.com/site/gbs2002/downloads/600.rar>
--------------------------------------------------------------------------------------------------Esquemas Eltricos D-680
http://www.gradiente.com/site/gbs2002/downloads/600.rar>
--------------------------------------------------------------------------------------------------Esquemas Eltricos D-470
http://www.gradiente.com/site/gbs2002/downloads/599.zip>
--------------------------------------------------------------------------------------------------Esquemas Eltricos D-461
http://www.gradiente.com/site/gbs2002/downloads/601.zip>
--------------------------------------------------------------------------------------------------ESQUEMA ELTRICO BX-M700
http://www.gradiente.com/site/gbs2002/downloads/576.zip>
--------------------------------------------------------------------------------------------------Esquema Eltrico KAS-520
http://www.gradiente.com/site/gbs2002/downloads/556.zip>
--------------------------------------------------------------------------------------------------Esquema Eltrico PCI MP3 PCI621 (AS 210/AS-M211)
http://www.gradiente.com/site/gbs2002/downloads/517.pdf>
--------------------------------------------------------------------------------------------------Esquema Eltrico PCI Principal PCI622 (AS 210/AS-M211)
http://www.gradiente.com/site/gbs2002/downloads/518.pdf>
--------------------------------------------------------------------------------------------------Esquema Eltrico PCI Fonte/Painel PCI654 (AS-400/AS-M410)
http://www.gradiente.com/site/gbs2002/downloads/519.pdf>
---------------------------------------------------------------------------------------------------

Esquema Eltrico PCI Fonte/Painel PCI655 (AS-M430)


http://www.gradiente.com/site/gbs2002/downloads/520.pdf>
--------------------------------------------------------------------------------------------------Esquema Eltrico PCI Fonte/Potncia PCI656 (AS-M550/AS-M570)
http://www.gradiente.com/site/gbs2002/downloads/521.pdf>
--------------------------------------------------------------------------------------------------Esquema Eltrico PCI Painel PCI656 (AS-M550/AS-M570)
http://www.gradiente.com/site/gbs2002/downloads/522.pdf>
--------------------------------------------------------------------------------------------------Esquema Eltrico PCI Principal PCI657 (AS-M550/AS-M570)
http://www.gradiente.com/site/gbs2002/downloads/523.pdf>
--------------------------------------------------------------------------------------------------Esquema Eltrico PCI Principal PCI324 (AS-400/AS-M410/AS-M430)
http://www.gradiente.com/site/gbs2002/downloads/516.pdf>
--------------------------------------------------------------------------------------------------Esquema Eltrico PCI-PRINCIPAL 650A;PCI CINESCPIO 650B; TV-1421;TV-2021;GBT-2011
http://www.gradiente.com/site/gbs2002/downloads/500.pdf>
--------------------------------------------------------------------------------------------------Guia de placas - PCI-Principal 650A;PCI-Cinescpio 650B - TV-1421;TV-2021;GBT-2011
http://www.gradiente.com/site/gbs2002/downloads/501.pdf>
--------------------------------------------------------------------------------------------------Guia de placas - PCI-Principal 642A;PCI-Cinescpio-GBT-2911,TV-2922
http://www.gradiente.com/site/gbs2002/downloads/498.pdf>
--------------------------------------------------------------------------------------------------Esquema Eltrico PCI-Principal 642A;Esquema Eltrico PCI-Cinescpio-GBT-2911,TV-2922
http://www.gradiente.com/site/gbs2002/downloads/497.pdf>
--------------------------------------------------------------------------------------------------Esquema Eltrico PCI-udio/Video HTS-520
http://www.gradiente.com/site/gbs2002/downloads/383.zip>
--------------------------------------------------------------------------------------------------Esquema Eltrico PCI-Frontal HTS-520.
http://www.gradiente.com/site/gbs2002/downloads/384.zip>
--------------------------------------------------------------------------------------------------Esquema Eltrico PCI-Principal K-340.
http://www.gradiente.com/site/gbs2002/downloads/387.zip>
--------------------------------------------------------------------------------------------------Esquema Eltrico PCI-Principal HTS-520.
http://www.gradiente.com/site/gbs2002/downloads/381.zip>
--------------------------------------------------------------------------------------------------Esquema Eltrico PCI-Fonte/Potncia HTS-520.
http://www.gradiente.com/site/gbs2002/downloads/382.zip>
--------------------------------------------------------------------------------------------------Esquema Eltrico PCI-Fonte/PCI-Vdeo K-340.
http://www.gradiente.com/site/gbs2002/downloads/385.zip>
---------------------------------------------------------------------------------------------------

Esquema Eltricos PCI-Frontal/PCI-Karaok K-340.


http://www.gradiente.com/site/gbs2002/downloads/386.zip>
--------------------------------------------------------------------------------------------------Esquema Eltrico K-40/3 / K-50/3C / D-30/3C / D-560
http://www.gradiente.com/site/gbs2002/downloads/319.zip>
--------------------------------------------------------------------------------------------------Esquema Eltrico PCI Principal K-50/3C / D-30/3C / D-560 / K-40/3
http://www.gradiente.com/site/gbs2002/downloads/315.zip>
--------------------------------------------------------------------------------------------------Esquema Eltrico PCI Fonte K-50/3C / D-30/3C / D-560 / K-40/3
http://www.gradiente.com/site/gbs2002/downloads/316.zip>
--------------------------------------------------------------------------------------------------Esquema Eltrico PCI Frontal D-30/3C / K-50/3C
http://www.gradiente.com/site/gbs2002/downloads/317.zip>
--------------------------------------------------------------------------------------------------Esquema Eltrico PCI Frontal K40/3 / D-560)
http://www.gradiente.com/site/gbs2002/downloads/318.zip>
--------------------------------------------------------------------------------------------------Esquema Eltrico PCI DSP HTS 760
http://www.gradiente.com/site/gbs2002/downloads/302.zip>
--------------------------------------------------------------------------------------------------Esquema Eltrico PCI DVD HTS-760
http://www.gradiente.com/site/gbs2002/downloads/303.zip>
--------------------------------------------------------------------------------------------------Esquema Eltrico PCI Principal HTS-760
http://www.gradiente.com/site/gbs2002/downloads/305.zip>
--------------------------------------------------------------------------------------------------Esquema Eltrico PCI Funes HTS-760
http://www.gradiente.com/site/gbs2002/downloads/300.zip>
--------------------------------------------------------------------------------------------------Esquema Eltrico PCI Jack/RCA HTS 760
http://www.gradiente.com/site/gbs2002/downloads/301.zip>
--------------------------------------------------------------------------------------------------Esquema Eltrico PCI Frontal HTS-760
http://www.gradiente.com/site/gbs2002/downloads/299.zip>
--------------------------------------------------------------------------------------------------Esquema Eltrico PCI DVDS HTS-760
http://www.gradiente.com/site/gbs2002/downloads/304.zip>
--------------------------------------------------------------------------------------------------Esquema Eltrico AS-210
http://www.gradiente.com/site/gbs2002/downloads/292.pdf>
--------------------------------------------------------------------------------------------------Esquema Eltrico PCI-Fonte D-400
http://www.gradiente.com/site/gbs2002/downloads/274.pdf>
---------------------------------------------------------------------------------------------------

Esquema Eltrico PCI-Principal D-400


http://www.gradiente.com/site/gbs2002/downloads/275.pdf>
--------------------------------------------------------------------------------------------------Esquema Eltrico PCI-Frontal D-400
http://www.gradiente.com/site/gbs2002/downloads/276.zip>
--------------------------------------------------------------------------------------------------Esquema Eltrico DV-60/3 (parte 2)
http://www.gradiente.com/site/gbs2002/downloads/268.pdf>
--------------------------------------------------------------------------------------------------Esquema Eltrico DV-60/3 (parte 3)
http://www.gradiente.com/site/gbs2002/downloads/269.pdf>
--------------------------------------------------------------------------------------------------Esquema Eltrico DV-60/3 (parte 1)
http://www.gradiente.com/site/gbs2002/downloads/267.pdf>
--------------------------------------------------------------------------------------------------Esquema Eltrico AS-300 / AS-320 / AS-450 / AS-470 (4 partes)
http://www.gradiente.com/site/gbs2002/downloads/265.pdf>
--------------------------------------------------------------------------------------------------Esquema Eltrico V-250
http://www.gradiente.com/site/gbs2002/downloads/261.pdf>
--------------------------------------------------------------------------------------------------Esquema Eltrico PCI 145 fonte HTS-150D
http://www.gradiente.com/site/gbs2002/downloads/259.pdf>
--------------------------------------------------------------------------------------------------Esquema Eltrico TV-2920 e TV-2921
http://www.gradiente.com/site/gbs2002/downloads/258.pdf>
--------------------------------------------------------------------------------------------------Esquema Eltrico AS- 580 (parte 2)
http://www.gradiente.com/site/gbs2002/downloads/252.ZIP>
--------------------------------------------------------------------------------------------------Esquema Eltrico AS- 580 (parte1)
http://www.gradiente.com/site/gbs2002/downloads/251.ZIP>
--------------------------------------------------------------------------------------------------Esquema Eltrico PCI 127b Gaveta do Mecanismo AS-300 / AS-320
http://www.gradiente.com/site/gbs2002/downloads/243.zip>
--------------------------------------------------------------------------------------------------Esquema Eltrico PCI 127b Gaveta do Mecanismo AS-450 / AS-470)
http://www.gradiente.com/site/gbs2002/downloads/244.zip>
--------------------------------------------------------------------------------------------------Esquema Eltrico TVD-2950 (tamanho A2)
http://www.gradiente.com/site/gbs2002/downloads/232.zip>
--------------------------------------------------------------------------------------------------Esquema Eltrico TVD-2950 (tamanho A3, dividido em 2 X A4)
http://www.gradiente.com/site/gbs2002/downloads/233.zip>
---------------------------------------------------------------------------------------------------

Diagrama de Blocos e Conexes D-460


http://www.gradiente.com/site/gbs2002/downloads/220.zip>
--------------------------------------------------------------------------------------------------Diagrama Esquemtico Servo D-460
http://www.gradiente.com/site/gbs2002/downloads/221.zip>
--------------------------------------------------------------------------------------------------Esquema Eltrico Audio e Video D-460
http://www.gradiente.com/site/gbs2002/downloads/222.zip>
--------------------------------------------------------------------------------------------------Esquema Eltrico Frontal D-460
http://www.gradiente.com/site/gbs2002/downloads/223.zip>
--------------------------------------------------------------------------------------------------Esquema Eltrico PCI Principal D-460
http://www.gradiente.com/site/gbs2002/downloads/224.zip>
--------------------------------------------------------------------------------------------------Esquema Eltrico Servo D-460
http://www.gradiente.com/site/gbs2002/downloads/225.zip>
--------------------------------------------------------------------------------------------------Esquema Eltrico AS-200
http://www.gradiente.com/site/gbs2002/downloads/216.pdf>
--------------------------------------------------------------------------------------------------Esquema Eltrico AS-300 / AS-320
http://www.gradiente.com/site/gbs2002/downloads/205.pdf>
--------------------------------------------------------------------------------------------------Esquema Eltrico AS-450 / AS-470
http://www.gradiente.com/site/gbs2002/downloads/206.pdf>
--------------------------------------------------------------------------------------------------Esquema Eletrico PCI Principal PCI085B D-200
http://www.gradiente.com/site/gbs2002/downloads/202.pdf>
--------------------------------------------------------------------------------------------------Esquema eltrico PCI Fonte PCI333A D-200
http://www.gradiente.com/site/gbs2002/downloads/203.pdf>
--------------------------------------------------------------------------------------------------Esquema Eltrico PCI Frontal PCI333B D-200
http://www.gradiente.com/site/gbs2002/downloads/204.pdf>
--------------------------------------------------------------------------------------------------Esquema Eltrico AS-60/3N.
http://www.gradiente.com/site/gbs2002/downloads/201.pdf>
--------------------------------------------------------------------------------------------------Esquema Eltrico TV-1420 / TV-2020 (atualizado com a modificao TRT-Horizontal)
http://www.gradiente.com/site/gbs2002/downloads/200.pdf>
--------------------------------------------------------------------------------------------------Esquema Eltrico MSD-700 / MSD-730
http://www.gradiente.com/site/gbs2002/downloads/199.pdf>
---------------------------------------------------------------------------------------------------

Esquema Eltrico e Troubleshooting VS-20/3


http://www.gradiente.com/site/gbs2002/downloads/192.zip>
--------------------------------------------------------------------------------------------------Esquema Eltrico TF-2960
http://www.gradiente.com/site/gbs2002/downloads/177.zip>
--------------------------------------------------------------------------------------------------Esquema Eltrico PCI 100 PRINCIPAL TF-2960
http://www.gradiente.com/site/gbs2002/downloads/179.zip>
--------------------------------------------------------------------------------------------------Esquema Eltrico PCI 114G TF-2951
http://www.gradiente.com/site/gbs2002/downloads/176.zip>
--------------------------------------------------------------------------------------------------Esquema Eltrico PCI 101A PIP TF-2960
http://www.gradiente.com/site/gbs2002/downloads/178.zip>
--------------------------------------------------------------------------------------------------Esquema Eltrico PCI 117 VGA TF-2960
http://www.gradiente.com/site/gbs2002/downloads/180.zip>
--------------------------------------------------------------------------------------------------Esquema Eltrico PCI 114G TF-2960
http://www.gradiente.com/site/gbs2002/downloads/181.zip>
--------------------------------------------------------------------------------------------------Esquema Eltrico PCI 102 SUB-WOOFER TF-2960
http://www.gradiente.com/site/gbs2002/downloads/182.zip>
--------------------------------------------------------------------------------------------------Diagrama de Blocos TF-2960
http://www.gradiente.com/site/gbs2002/downloads/183.zip>
--------------------------------------------------------------------------------------------------Esquema Eltrico PCI 100 PRINCIPAL TF-2951
http://www.gradiente.com/site/gbs2002/downloads/174.zip>
--------------------------------------------------------------------------------------------------Diagrama de Blocos TF-2951
http://www.gradiente.com/site/gbs2002/downloads/175.zip>
--------------------------------------------------------------------------------------------------Esquema Eltrico TF-2951
http://www.gradiente.com/site/gbs2002/downloads/171.zip>
--------------------------------------------------------------------------------------------------Esquema Eletrico 335ADNS A2 HTS-150D
http://www.gradiente.com/site/gbs2002/downloads/166.pdf>
--------------------------------------------------------------------------------------------------Esquema Eletrico PCI275 DVD HTS-150D
http://www.gradiente.com/site/gbs2002/downloads/167.pdf>
--------------------------------------------------------------------------------------------------Esquema Eletrico PCI328 HTS-150D
http://www.gradiente.com/site/gbs2002/downloads/168.pdf>
---------------------------------------------------------------------------------------------------

Esquema Eletrico PCI619 HTS-150D


http://www.gradiente.com/site/gbs2002/downloads/169.pdf>
--------------------------------------------------------------------------------------------------Esquema Eltrico SM-14A / SM-20A
http://www.gradiente.com/site/gbs2002/downloads/165.pdf>
--------------------------------------------------------------------------------------------------Esquema Eltrico TV-1420 / TV-2020
http://www.gradiente.com/site/gbs2002/downloads/153.pdf>
--------------------------------------------------------------------------------------------------Esquema Eltrico MS-600 / MS-630
http://www.gradiente.com/site/gbs2002/downloads/149.zip>
--------------------------------------------------------------------------------------------------Esquema Eltrico D-15/3 D-25/3 (tamanho A3)
http://www.gradiente.com/site/gbs2002/downloads/148.pdf>
--------------------------------------------------------------------------------------------------Esquema Eltrico D-560 / D-30/3C / K-40/3 / K-50/3C
http://www.gradiente.com/site/gbs2002/downloads/141.pdf>
--------------------------------------------------------------------------------------------------Esquema Eltrico e Troubleshooting VS-20/3
http://www.gradiente.com/site/gbs2002/downloads/143.pdf>
--------------------------------------------------------------------------------------------------Esquema Eltrico DR-5.5HT
http://www.gradiente.com/site/gbs2002/downloads/110.pdf>
--------------------------------------------------------------------------------------------------Esquema Eltrico TMP-2000
http://www.gradiente.com/site/gbs2002/downloads/89.pdf>
--------------------------------------------------------------------------------------------------Esquema Eltrico D-22 / K-30
http://www.gradiente.com/site/gbs2002/downloads/58.pdf>
--------------------------------------------------------------------------------------------------Esquema Eltrico ENERGY 1200/2200/4200
http://www.gradiente.com/site/gbs2002/downloads/10.pdf>
--------------------------------------------------------------------------------------------------Esquema Eltrico ENERGY 800 / 1700
http://www.gradiente.com/site/gbs2002/downloads/4.pdf>
--------------------------------------------------------------------------------------------------http://www.csweb.lar.panasonic.com/viewing/Brasil/SB-AK77/PDF/SB-AK77.pdf>
--------------------------------------------------------------------------------------------------http://www.csweb.lar.panasonic.com/viewing/Brasil/SA-PM11/PDF/SA-PM11.pdf>
--------------------------------------------------------------------------------------------------http://www.csweb.lar.panasonic.com/viewing/Brasil/SB-PC70SA/PDF/SB-PC70SA.pdf>
--------------------------------------------------------------------------------------------------http://www.csweb.lar.panasonic.com/viewing/Brasil/SB-PS70SA/PDF/SB-PS70SA.pdf>
---------------------------------------------------------------------------------------------------

http://www.csweb.lar.panasonic.com/viewing/Brasil/SC-AK200/pdf/SC-AK200.pdf>
--------------------------------------------------------------------------------------------------http://www.csweb.lar.panasonic.com/viewing/Brasil/SC-AK300/pdf/SC-AK300.pdf>
--------------------------------------------------------------------------------------------------http://www.csweb.lar.panasonic.com/viewing/Brasil/SC-AK500/pdf/SC-AK500.pdf>
--------------------------------------------------------------------------------------------------http://www.csweb.lar.panasonic.com/viewing/Brasil/SC-DK10/PDF/SC-DK10.pdf>
--------------------------------------------------------------------------------------------------http://www.csweb.lar.panasonic.com/viewing/Brasil/SC-HT70/PDF/SC-HT70.pdf>
--------------------------------------------------------------------------------------------------http://www.csweb.lar.panasonic.com/viewing/Brasil/info_tecnica%20old/AUDIO/>
--------------------------------------------------------------------------------------------------http://www.csweb.lar.panasonic.com/viewing/Brasil/techguide/DVD%20GUIA%20DE%20TR
EINAMENTO/pdf/DVD%20GUIA%20DE%20TREINAMENTO.pdf>
--------------------------------------------------------------------------------------------------http://www.csweb.lar.panasonic.com/viewing/Brasil/info_tecnica%20old/DVD/>
--------------------------------------------------------------------------------------------------http://www.csweb.lar.panasonic.com/viewing/Brasil/DVD-RV31BR/pdf/DVD-RV31BR.pdf>
--------------------------------------------------------------------------------------------------http://www.csweb.lar.panasonic.com/viewing/Brasil/DVD-RV32BR/pdf/DVD-RV32BR.pdf>
--------------------------------------------------------------------------------------------------http://www.csweb.lar.panasonic.com/viewing/Brasil/DVD-RV60/pdf/DVD-RV60.pdf>
--------------------------------------------------------------------------------------------------http://www.csweb.lar.panasonic.com/viewing/Brasil/TC14_20A10/pdf/TC14_20A10.pdf>
--------------------------------------------------------------------------------------------------http://www.csweb.lar.panasonic.com/viewing/Brasil/TC-14_20A12/pdf/TC-14_20A12.pd
f>
--------------------------------------------------------------------------------------------------http://www.csweb.lar.panasonic.com/viewing/Brasil/TC-14_20A9/pdf/TC-14_20A9.pdf>
--------------------------------------------------------------------------------------------------http://www.csweb.lar.panasonic.com/viewing/Brasil/TC-1420B10P/pdf/TC-1420B10P.pd
f>
--------------------------------------------------------------------------------------------------http://www.csweb.lar.panasonic.com/viewing/Brasil/TC-14A12P_20B12/pdf/TC-14A12P_
20B12.pdf>
--------------------------------------------------------------------------------------------------http://www.csweb.lar.panasonic.com/viewing/Brasil/TC-20_29G12P_%20PU/pdf/TC-20_2
9G12P_PU.pdf>
--------------------------------------------------------------------------------------------------http://www.csweb.lar.panasonic.com/viewing/Brasil/TC-20-29G11A-P/pdf/TC-20-29G11
A-P_MS.pdf>
---------------------------------------------------------------------------------------------------

http://www.csweb.lar.panasonic.com/viewing/Brasil/TC-20-29G11A-P_ESQUEMA/pdf/TC20-29G11A-P_ESQUEMA.pdf>
--------------------------------------------------------------------------------------------------http://www.csweb.lar.panasonic.com/viewing/Brasil/TC-20G11_29A11_29G11/pdf/TC-20
G11_29A11_29G11.pdf>
--------------------------------------------------------------------------------------------------http://www.csweb.lar.panasonic.com/viewing/Brasil/Tc-20g9a/pdf/TC-20G9A.pdf>
--------------------------------------------------------------------------------------------------http://www.csweb.lar.panasonic.com/viewing/Brasil/TC-25P22LB/pdf/TC-25P22LB.pdf>
--------------------------------------------------------------------------------------------------http://www.csweb.lar.panasonic.com/viewing/Brasil/TC-29A_G9LU/pdf/TC-29AG9LU.pdf
>
--------------------------------------------------------------------------------------------------http://www.csweb.lar.panasonic.com/viewing/Brasil/Tc-29g9a/pdf/TC-29G9A.pdf>
--------------------------------------------------------------------------------------------------http://www.csweb.lar.panasonic.com/viewing/Brasil/TC-29P22LA/pdf/TC-29P22LA.pdf>
--------------------------------------------------------------------------------------------------http://www.csweb.lar.panasonic.com/viewing/Brasil/TC-29P22LB/pdf/TC-29P22LB.pdf>
--------------------------------------------------------------------------------------------------http://www.csweb.lar.panasonic.com/viewing/Brasil/TC-33v9/pdf/TC-33V9.pdf>
--------------------------------------------------------------------------------------------------http://www.csweb.lar.panasonic.com/viewing/Brasil/techguide/Guia_mx5/pdf/GUIA_MX
5.pdf>
--------------------------------------------------------------------------------------------------http://www.csweb.lar.panasonic.com/viewing/Brasil/techguide/GUIA_NA6D-NA6L/pdf/G
UIA_NA6D-NA6L.pdf>
--------------------------------------------------------------------------------------------------http://www.csweb.lar.panasonic.com/viewing/Brasil/techguide/GUIA_TAU/pdf/GUIA_TA
U.pdf>
--------------------------------------------------------------------------------------------------http://www.csweb.lar.panasonic.com/viewing/Brasil/info_tecnica%20old/TV/>
--------------------------------------------------------------------------------------------------http://www.csweb.lar.panasonic.com/>
--------------------------------------------------------------------------------------------------copiar e colar no navegador
--------------------------------------------------------------------------------------------------50WP16 / 50HP81 ( Plasma Display Monitor )
https://app.semptoshiba.com.br/dat/manual/TV/50WP16.EXE
--------------------------------------------------------------------------------------------------LEM-FS3 - TV 2957(F)FS
https://app.semptoshiba.com.br/dat/manual/TV/LEM_FS3/parte01.EXE
--------------------------------------------------------------------------------

-------------------LEM-FS3 - TV 2957(F)FS
https://app.semptoshiba.com.br/dat/manual/TV/LEM_FS3/parte02.EXE
--------------------------------------------------------------------------------------------------LEM-FS3 - TV 2957(F)FS
https://app.semptoshiba.com.br/dat/manual/TV/LEM_FS3/parte03.EXE
--------------------------------------------------------------------------------------------------LEM-FS3 - TV 2957(F)FS
https://app.semptoshiba.com.br/dat/manual/TV/LEM_FS3/parte04.EXE
--------------------------------------------------------------------------------------------------LEM-FS3 - TV 2957(F)FS
https://app.semptoshiba.com.br/dat/manual/TV/LEM_FS3/parte05.EXE
--------------------------------------------------------------------------------------------------LEM-FS3 - TV 2957(F)FS
https://app.semptoshiba.com.br/dat/manual/TV/LEM_FS3/parte06.EXE
--------------------------------------------------------------------------------------------------LEM-FS3 - TV 2957(F)FS
https://app.semptoshiba.com.br/dat/manual/TV/LEM_FS3/parte07.EXE
--------------------------------------------------------------------------------------------------LEM-FS3 - TV 2957(F)FS
https://app.semptoshiba.com.br/dat/manual/TV/LEM_FS3/parte08.EXE
--------------------------------------------------------------------------------------------------LEM-FS3 - TV 2957(F)FS
https://app.semptoshiba.com.br/dat/manual/TV/LEM_FS3/LEM_FS3.EXE
--------------------------------------------------------------------------------------------------LEM-FS4 - TV 3457(F)FS
https://app.semptoshiba.com.br/dat/manual/TV/LEM_FS4.EXE
--------------------------------------------------------------------------------------------------LEM3 - TV 2987FMS / 2998FMS / 3488FMS
https://app.semptoshiba.com.br/dat/manual/Tv/LEM3.EXE
--------------------------------------------------------------------------------------------------LEM3A - TV 2987(F)MS / 2998(F)MS / 2968(F)MS / 3488(F)MS / 3468(F)MS
https://app.semptoshiba.com.br/dat/manual/Tv/LEM3A.EXE
--------------------------------------------------------------------------------------------------LEM4 - TV 2987(G)MS / 2998(G)MS / 2968(G)MS / 3488(G)MS / 3468(G)MS
https://app.semptoshiba.com.br/dat/manual/Tv/LEM4.EXE
--------------------------------------------------------------------------------------------------LEM5 - TV 2987(I)MS / 2998(I)MS / 3489(I)MS
https://app.semptoshiba.com.br/dat/manual/TV/LEM5/parte01.EXE
--------------------------------------------------------------------------------------------------LEM5 - TV 2987(I)MS / 2998(I)MS / 3489(I)MS
https://app.semptoshiba.com.br/dat/manual/TV/LEM5/parte02.EXE
--------------------------------------------------------------------------------------------------LEM5 - TV 2987(I)MS / 2998(I)MS / 3489(I)MS
https://app.semptoshiba.com.br/dat/manual/TV/LEM5/parte03.EXE
--------------------------------------------------------------------------------

-------------------LEM5 - TV 2987(I)MS / 2998(I)MS / 3489(I)MS


https://app.semptoshiba.com.br/dat/manual/TV/LEM5/parte04.EXE
--------------------------------------------------------------------------------------------------LEM5 - TV 2987(I)MS / 2998(I)MS / 3489(I)MS
https://app.semptoshiba.com.br/dat/manual/TV/LEM5/parte05.EXE
--------------------------------------------------------------------------------------------------LEM5 - TV 2987(I)MS / 2998(I)MS / 3489(I)MS
https://app.semptoshiba.com.br/dat/manual/TV/LEM5/parte06.EXE
--------------------------------------------------------------------------------------------------LEM5 - TV 2987(I)MS / 2998(I)MS / 3489(I)MS
https://app.semptoshiba.com.br/dat/manual/TV/LEM5/parte07.EXE
--------------------------------------------------------------------------------------------------LEM5 - TV 2987(I)MS / 2998(I)MS / 3489(I)MS
https://app.semptoshiba.com.br/dat/manual/TV/LEM5/parte08.EXE
--------------------------------------------------------------------------------------------------LEM5 - TV 2987(I)MS / 2998(I)MS / 3489(I)MS
https://app.semptoshiba.com.br/dat/manual/TV/LEM5/LEM5.EXE
--------------------------------------------------------------------------------------------------LEM6-FS2 - TV 2987(J)MS / 2981(J)AVS / 2999(J)MS / 3489(J)MS / 2157(A)FS
https://app.semptoshiba.com.br/dat/manual/TV/LEM6.EXE
--------------------------------------------------------------------------------------------------TP48D70 / TP48D71 / TP48D90 / TP55D80 / TP55D81
https://app.semptoshiba.com.br/dat/manual/TV/48D70CD.EXE
--------------------------------------------------------------------------------------------------TP48D70 / TP48D71 / TP48D90 / TP55D80 / TP55D81
https://app.semptoshiba.com.br/dat/manual/TV/48D70.EXE
--------------------------------------------------------------------------------------------------U10 / LEM - TV 1022DAV / 1483BAV / 2083BAV / 1478BAV / 2078BAV /2079BS / 2175DS
/ 2878DS / 2998DS
https://app.semptoshiba.com.br/dat/manual/TV/U10_LEM/parte01.EXE
--------------------------------------------------------------------------------------------------U10 / LEM - TV 1022DAV / 1483BAV / 2083BAV / 1478BAV / 2078BAV /2079BS / 2175DS
/ 2878DS / 2998DS
https://app.semptoshiba.com.br/dat/manual/TV/U10_LEM/parte02.EXE
--------------------------------------------------------------------------------------------------U10 / LEM - TV 1022DAV / 1483BAV / 2083BAV / 1478BAV / 2078BAV /2079BS / 2175DS
/ 2878DS / 2998DS
https://app.semptoshiba.com.br/dat/manual/TV/U10_LEM/parte03.EXE
--------------------------------------------------------------------------------------------------U10 / LEM - TV 1022DAV / 1483BAV / 2083BAV / 1478BAV / 2078BAV /2079BS / 2175DS
/ 2878DS / 2998DS
https://app.semptoshiba.com.br/dat/manual/TV/U10_LEM/parte04.EXE
--------------------------------------------------------------------------------------------------U10 / LEM - TV 1022DAV / 1483BAV / 2083BAV / 1478BAV / 2078BAV /2079BS / 2175DS
/ 2878DS / 2998DS
https://app.semptoshiba.com.br/dat/manual/TV/U10_LEM/parte05.EXE

--------------------------------------------------------------------------------------------------U10 / LEM - TV 1022DAV / 1483BAV / 2083BAV / 1478BAV / 2078BAV /2079BS / 2175DS


/ 2878DS / 2998DS
https://app.semptoshiba.com.br/dat/manual/TV/U10_LEM/parte06.EXE
--------------------------------------------------------------------------------------------------U10 / LEM - TV 1022DAV / 1483BAV / 2083BAV / 1478BAV / 2078BAV /2079BS / 2175DS
/ 2878DS / 2998DS
https://app.semptoshiba.com.br/dat/manual/TV/U10_LEM/parte07.EXE
--------------------------------------------------------------------------------------------------U10 / LEM - TV 1022DAV / 1483BAV / 2083BAV / 1478BAV / 2078BAV /2079BS / 2175DS
/ 2878DS / 2998DS
https://app.semptoshiba.com.br/dat/manual/TV/U10_LEM/parte08.EXE
--------------------------------------------------------------------------------------------------U10 / LEM - TV 1022DAV / 1483BAV / 2083BAV / 1478BAV / 2078BAV /2079BS / 2175DS
/ 2878DS / 2998DS
https://app.semptoshiba.com.br/dat/manual/TV/U10_LEM/U10_LEM.EXE
--------------------------------------------------------------------------------------------------U11 - TV 1022FAV / 1483FAV / 2083FAV / 1478FM / 2078FM / 2079FMS
https://app.semptoshiba.com.br/dat/manual/Tv/E11.EXE
--------------------------------------------------------------------------------------------------U11 - TV 1022FAV / 1483FAV / 2083FAV / 1478FM / 2078FM / 2079FMS
https://app.semptoshiba.com.br/dat/manual/Tv/U11.EXE
--------------------------------------------------------------------------------------------------U12 - TV 1484GAV / 2084GAV / 1485GM / 2085GM / 2087GMS
https://app.semptoshiba.com.br/dat/manual/Tv/E12.EXE
--------------------------------------------------------------------------------------------------U12 - TV 1484GAV / 2084GAV / 1485GM / 2085GM / 2087GMS
https://app.semptoshiba.com.br/dat/manual/Tv/U12.EXE
--------------------------------------------------------------------------------------------------U13 - TV 1022HAV / 1484HAV / 2084HAV / 1485HM / 2087HMS / 2086HMS
https://app.semptoshiba.com.br/dat/manual/Tv/U13.EXE
--------------------------------------------------------------------------------------------------U14 - TV 1022(I)AV / 1022ACD
https://app.semptoshiba.com.br/dat/manual/Tv/TV1022(U14).EXE
--------------------------------------------------------------------------------------------------U14 - TV 1490IAV / 2090IAV / 1488IM / 2088IM / 2089IMS / 2086IMS
https://app.semptoshiba.com.br/dat/manual/Tv/U14.EXE
--------------------------------------------------------------------------------------------------U14R - TV 1491JAV / 2091JAV / 1488JM / 2088JM / 2089JM / 2086JMS / 1495JM / 2095
JM / 2096JM
https://app.semptoshiba.com.br/dat/manual/TV/14R_1491.EXE
--------------------------------------------------------------------------------------------------U14R - TV 1022(J)AV / 1022(J)ACDC
https://app.semptoshiba.com.br/dat/manual/TV/U14R_1022.EXE
--------------------------------------------------------------------------------------------------U15 - TV 1022(K)ACDC

https://app.semptoshiba.com.br/dat/manual/TV/U15.EXE
--------------------------------------------------------------------------------------------------U16 - TV 1492LAV / 2092LAV / 1497LM / 2097LM / 2098LM / 2086LMS / 2094LAVS
https://app.semptoshiba.com.br/dat/manual/TV/U16.EXE
--------------------------------------------------------------------------------------------------U17 - TV 1033(M)ACDC / 1430(M)ACDC / 1433(M)ACDC / 1492(M)AV / 1497(M)M / 2086(M
)MS / 2092(M)AV / 2094(M)AVS / 2097(M)M / 2098(M)MS / 2098(M)MS-FM
https://app.semptoshiba.com.br/dat/manual/TV/U17/Parte1.exe
--------------------------------------------------------------------------------------------------U17 - TV 1033(M)ACDC / 1430(M)ACDC / 1433(M)ACDC / 1492(M)AV / 1497(M)M / 2086(M
)MS / 2092(M)AV / 2094(M)AVS / 2097(M)M / 2098(M)MS / 2098(M)MS-FM
https://app.semptoshiba.com.br/dat/manual/TV/U17/Parte2.exe
--------------------------------------------------------------------------------------------------U17 - TV 1033(M)ACDC / 1430(M)ACDC / 1433(M)ACDC / 1492(M)AV / 1497(M)M / 2086(M
)MS / 2092(M)AV / 2094(M)AVS / 2097(M)M / 2098(M)MS / 2098(M)MS-FM
https://app.semptoshiba.com.br/dat/manual/TV/U17/Parte3.exe
--------------------------------------------------------------------------------------------------U17 - TV 1033(M)ACDC / 1430(M)ACDC / 1433(M)ACDC / 1492(M)AV / 1497(M)M / 2086(M
)MS / 2092(M)AV / 2094(M)AVS / 2097(M)M / 2098(M)MS / 2098(M)MS-FM
https://app.semptoshiba.com.br/dat/manual/TV/U17/Parte4.exe
--------------------------------------------------------------------------------------------------U17 - TV 1033(M)ACDC / 1430(M)ACDC / 1433(M)ACDC / 1492(M)AV / 1497(M)M / 2086(M
)MS / 2092(M)AV / 2094(M)AVS / 2097(M)M / 2098(M)MS / 2098(M)MS-FM
https://app.semptoshiba.com.br/dat/manual/TV/U17/Parte5.exe
--------------------------------------------------------------------------------------------------U17 - TV 1033(M)ACDC / 1430(M)ACDC / 1433(M)ACDC / 1492(M)AV / 1497(M)M / 2086(M
)MS / 2092(M)AV / 2094(M)AVS / 2097(M)M / 2098(M)MS / 2098(M)MS-FM
https://app.semptoshiba.com.br/dat/manual/TV/U17/Parte6.exe
--------------------------------------------------------------------------------------------------U17 - TV 1033(M)ACDC / 1430(M)ACDC / 1433(M)ACDC / 1492(M)AV / 1497(M)M / 2086(M
)MS / 2092(M)AV / 2094(M)AVS / 2097(M)M / 2098(M)MS / 2098(M)MS-FM
https://app.semptoshiba.com.br/dat/manual/TV/U17/Completo.exe
--------------------------------------------------------------------------------------------------U8 - TV 14A82EAV / 20A82EAV / 14A76MU / 20A76MU / 20A77SU / 21A75SU
https://app.semptoshiba.com.br/dat/manual/TV/U8/parte01.EXE
--------------------------------------------------------------------------------------------------U8 - TV 14A82EAV / 20A82EAV / 14A76MU / 20A76MU / 20A77SU / 21A75SU
https://app.semptoshiba.com.br/dat/manual/TV/U8/parte02.EXE
--------------------------------------------------------------------------------------------------U8 - TV 14A82EAV / 20A82EAV / 14A76MU / 20A76MU / 20A77SU / 21A75SU
https://app.semptoshiba.com.br/dat/manual/TV/U8/parte03.EXE
--------------------------------------------------------------------------------------------------U8 - TV 14A82EAV / 20A82EAV / 14A76MU / 20A76MU / 20A77SU / 21A75SU
https://app.semptoshiba.com.br/dat/manual/TV/U8/parte04.EXE
--------------------------------------------------------------------------------------------------U8 - TV 14A82EAV / 20A82EAV / 14A76MU / 20A76MU / 20A77SU / 21A75SU
https://app.semptoshiba.com.br/dat/manual/TV/U8/parte05.EXE

--------------------------------------------------------------------------------------------------U8 - TV 14A82EAV / 20A82EAV / 14A76MU / 20A76MU / 20A77SU / 21A75SU


https://app.semptoshiba.com.br/dat/manual/TV/U8/parte06.EXE
--------------------------------------------------------------------------------------------------U8 - TV 14A82EAV / 20A82EAV / 14A76MU / 20A76MU / 20A77SU / 21A75SU
https://app.semptoshiba.com.br/dat/manual/TV/U8/parte07.EXE
--------------------------------------------------------------------------------------------------U8 - TV 14A82EAV / 20A82EAV / 14A76MU / 20A76MU / 20A77SU / 21A75SU
https://app.semptoshiba.com.br/dat/manual/TV/U8/parte07.EXE
--------------------------------------------------------------------------------------------------U8 - TV 14A82EAV / 20A82EAV / 14A76MU / 20A76MU / 20A77SU / 21A75SU
https://app.semptoshiba.com.br/dat/manual/TV/U8/U8.EXE
--------------------------------------------------------------------------------------------------CDP 4147 / 70
https://app.semptoshiba.com.br/dat/manual/AUDIO/CDP4147_70.EXE
--------------------------------------------------------------------------------------------------CDP 5151
https://app.semptoshiba.com.br/dat/manual/AUDIO/CDP5151.EXE
--------------------------------------------------------------------------------------------------CDP 6150 / 6170
https://app.semptoshiba.com.br/dat/manual/AUDIO/CDP6150_6170.EXE
--------------------------------------------------------------------------------------------------CM 7215 CD
https://app.semptoshiba.com.br/dat/manual/AUDIO/CM7215CD.EXE
--------------------------------------------------------------------------------------------------CM 7235 CD
https://app.semptoshiba.com.br/dat/manual/AUDIO/CM7235CD.EXE
--------------------------------------------------------------------------------------------------MC 662DW
https://app.semptoshiba.com.br/dat/manual/AUDIO/MC662DW.EXE
--------------------------------------------------------------------------------------------------MC 663DW
https://app.semptoshiba.com.br/dat/manual/AUDIO/MC663.EXE
--------------------------------------------------------------------------------------------------MC 752 MP
https://app.semptoshiba.com.br/dat/manual/AUDIO/MC-752.EXE
--------------------------------------------------------------------------------------------------MS 4544/ 46 / 48
https://app.semptoshiba.com.br/dat/manual/AUDIO/MS4544_46_48.EXE
--------------------------------------------------------------------------------------------------MS 6234 / 35
https://app.semptoshiba.com.br/dat/manual/AUDIO/MS6234_35CD_A3.EXE
--------------------------------------------------------------------------------------------------MS 6434 / 35

https://app.semptoshiba.com.br/dat/manual/AUDIO/MS6234_35CD_A4.EXE
--------------------------------------------------------------------------------------------------MS 6525
https://app.semptoshiba.com.br/dat/manual/AUDIO/MS6525_A3.EXE
--------------------------------------------------------------------------------------------------MS 6525
https://app.semptoshiba.com.br/dat/manual/AUDIO/MS6525_A4.EXE
--------------------------------------------------------------------------------------------------MS 6526 / 31 / 38 / 39
https://app.semptoshiba.com.br/dat/manual/AUDIO/MS6526_31CD.EXE
--------------------------------------------------------------------------------------------------MS 6536 / 37
https://app.semptoshiba.com.br/dat/manual/AUDIO/MS6536_37CD.EXE
--------------------------------------------------------------------------------------------------MS 6540 / 42 / 44
https://app.semptoshiba.com.br/dat/manual/AUDIO/MS6540.EXE
--------------------------------------------------------------------------------------------------MS 6546 / 48 / 50
https://app.semptoshiba.com.br/dat/manual/AUDIO/MS6546_48_50.EXE
--------------------------------------------------------------------------------------------------MS 6603 / 06 / 13 / 20 / 30
https://app.semptoshiba.com.br/dat/manual/AUDIO/MS6603.EXE
--------------------------------------------------------------------------------------------------MS 7303 / 06
https://app.semptoshiba.com.br/dat/manual/AUDIO/MS7303_06.EXE
--------------------------------------------------------------------------------------------------MS 7310 / 13
https://app.semptoshiba.com.br/dat/manual/AUDIO/MS7310_13.EXE
--------------------------------------------------------------------------------------------------MS 8299
https://app.semptoshiba.com.br/dat/manual/AUDIO/MS8299.EXE
--------------------------------------------------------------------------------------------------RG 8130
https://app.semptoshiba.com.br/dat/manual/AUDIO/RG8130.EXE
--------------------------------------------------------------------------------------------------RG 8157
https://app.semptoshiba.com.br/dat/manual/AUDIO/RG8157.EXE
--------------------------------------------------------------------------------------------------RG 8157 A3
https://app.semptoshiba.com.br/dat/manual/AUDIO/RG8157_A3.EXE
--------------------------------------------------------------------------------------------------RG 8167
https://app.semptoshiba.com.br/dat/manual/AUDIO/RG8167.EXE
--------------------------------------------------------------------------------------------------RG 8167 REV B

https://app.semptoshiba.com.br/dat/manual/AUDIO/RG8167_REVB.EXE
--------------------------------------------------------------------------------------------------RG 8168B S CD
https://app.semptoshiba.com.br/dat/manual/AUDIO/RG8168B_S_CD.EXE
--------------------------------------------------------------------------------------------------RG 8168B S CD CKD
https://app.semptoshiba.com.br/dat/manual/AUDIO/RG8168B_S_CD_CKD.EXE
--------------------------------------------------------------------------------------------------RG 8168B S CD REV8
https://app.semptoshiba.com.br/dat/manual/AUDIO/RG8168B_S_CD_REV8.EXE
--------------------------------------------------------------------------------------------------RG 8169 CD
https://app.semptoshiba.com.br/dat/manual/AUDIO/RG8169CD.EXE
--------------------------------------------------------------------------------------------------RG 8169 CD REV B
https://app.semptoshiba.com.br/dat/manual/AUDIO/RG8169CD-REVB.EXE
--------------------------------------------------------------------------------------------------RG 9122 CD
https://app.semptoshiba.com.br/dat/manual/AUDIO/RG9122.EXE
--------------------------------------------------------------------------------------------------RG 9122 CD REV S
https://app.semptoshiba.com.br/dat/manual/AUDIO/RG9122A4_U.EXE
--------------------------------------------------------------------------------------------------RR 1268
https://app.semptoshiba.com.br/dat/manual/AUDIO/RR1268.EXE
--------------------------------------------------------------------------------------------------RR 1551
https://app.semptoshiba.com.br/dat/manual/AUDIO/RR1551.EXE
--------------------------------------------------------------------------------------------------TR 446
https://app.semptoshiba.com.br/dat/manual/AUDIO/TR446.EXE
--------------------------------------------------------------------------------------------------TR 486
https://app.semptoshiba.com.br/dat/manual/AUDIO/TR-486.EXE
--------------------------------------------------------------------------------------------------TR 7041
https://app.semptoshiba.com.br/dat/manual/AUDIO/TR7041.EXE
--------------------------------------------------------------------------------------------------TR 7043
https://app.semptoshiba.com.br/dat/manual/AUDIO/TR7043.EXE
--------------------------------------------------------------------------------------------------TR 7045 MP3
https://app.semptoshiba.com.br/dat/manual/AUDIO/TR7045.EXE
--------------------------------------------------------------------------------------------------TR 946

https://app.semptoshiba.com.br/dat/manual/AUDIO/TR946.EXE
--------------------------------------------------------------------------------------------------SD 100 X
https://app.semptoshiba.com.br/dat/manual/DVD/SD100X.EXE
--------------------------------------------------------------------------------------------------SD 300 X
https://app.semptoshiba.com.br/dat/manual/DVD/SD300X.EXE
--------------------------------------------------------------------------------------------------SD 400 X
https://app.semptoshiba.com.br/dat/manual/DVD/SD400X.EXE
--------------------------------------------------------------------------------------------------SD 4034
https://app.semptoshiba.com.br/dat/manual/DVD/SD4034_A3.EXE
--------------------------------------------------------------------------------------------------SD 4034
https://app.semptoshiba.com.br/dat/manual/DVD/SD4034_A4.EXE
--------------------------------------------------------------------------------------------------SD 4035
https://app.semptoshiba.com.br/dat/manual/DVD/SD4035.EXE
--------------------------------------------------------------------------------------------------SD 4036
https://app.semptoshiba.com.br/dat/manual/DVD/SD4036.EXE
--------------------------------------------------------------------------------------------------SD 500 X
https://app.semptoshiba.com.br/dat/manual/DVD/SD500XSS_1.EXE
--------------------------------------------------------------------------------------------------SD 500 X
https://app.semptoshiba.com.br/dat/manual/DVD/SD500XSS_2.EXE
--------------------------------------------------------------------------------------------------SD 500 X
https://app.semptoshiba.com.br/dat/manual/DVD/SD500X.EXE
--------------------------------------------------------------------------------------------------SD 600 X
https://app.semptoshiba.com.br/dat/manual/DVD/SD600X.EXE
--------------------------------------------------------------------------------------------------SD 6070
https://app.semptoshiba.com.br/dat/manual/DVD/SD6070.EXE
--------------------------------------------------------------------------------------------------SD 6071
https://app.semptoshiba.com.br/dat/manual/DVD/SD6071.EXE
--------------------------------------------------------------------------------------------------SD 6072
https://app.semptoshiba.com.br/dat/manual/DVD/SD6072.EXE
--------------------------------------------------------------------------------------------------SD 6072 SUNPLUS

https://app.semptoshiba.com.br/dat/manual/DVD/SD6072.EXE
--------------------------------------------------------------------------------------------------SD 6080
https://app.semptoshiba.com.br/dat/manual/DVD/SD6080.EXE
--------------------------------------------------------------------------------------------------SD 6081
https://app.semptoshiba.com.br/dat/manual/DVD/SD6081.EXE
--------------------------------------------------------------------------------------------------SD 6082
https://app.semptoshiba.com.br/dat/manual/DVD/SD6082.EXE
--------------------------------------------------------------------------------------------------SD 7061 SLX
https://app.semptoshiba.com.br/dat/manual/DVD/SD7061SLX.EXE
--------------------------------------------------------------------------------------------------SD 7062 SLX
https://app.semptoshiba.com.br/dat/manual/DVD/SD7062SLX.EXE
--------------------------------------------------------------------------------------------------SD 7063 SLX
https://app.semptoshiba.com.br/dat/manual/DVD/SD7063SLX.EXE
--------------------------------------------------------------------------------------------------SD 8070
https://app.semptoshiba.com.br/dat/manual/DVD/SD8070.EXE
--------------------------------------------------------------------------------------------------SD RX33D
https://app.semptoshiba.com.br/dat/manual/DVD/SDRX33D.EXE
--------------------------------------------------------------------------------------------------MX 70
https://app.semptoshiba.com.br/dat/manual/VCR/MX-70.EXE
--------------------------------------------------------------------------------------------------VCR X27 / X47
https://app.semptoshiba.com.br/dat/manual/VCR/VCRX27_X47.EXE
--------------------------------------------------------------------------------------------------VCX 441
https://app.semptoshiba.com.br/dat/manual/VCR/VCX441.EXE
--------------------------------------------------------------------------------------------------VCX 689 / 690 / 794
https://app.semptoshiba.com.br/dat/manual/VCR/VC_X689_X690_X794.EXE
--------------------------------------------------------------------------------------------------VCX 691 / 692
https://app.semptoshiba.com.br/dat/manual/VCR/VCX691-2.EXE
--------------------------------------------------------------------------------------------------VCX 693 / 694 / 796
https://app.semptoshiba.com.br/dat/manual/VCR/VCX693_694_796.EXE
--------------------------------------------------------------------------------------------------VCX 695 / 696

https://app.semptoshiba.com.br/dat/manual/VCR/VCX695_6.EXE
--------------------------------------------------------------------------------------------------VCX 697 / 698
https://app.semptoshiba.com.br/dat/manual/VCR/MS%20VCX697_698.EXE
--------------------------------------------------------------------------------------------------VCX 791 / 792
https://app.semptoshiba.com.br/dat/manual/VCR/VCX791_792_A3.EXE
--------------------------------------------------------------------------------------------------VCX 791 / 792
https://app.semptoshiba.com.br/dat/manual/VCR/VCX791_792_A4.EXE
--------------------------------------------------------------------------------------------------VCX 801 / 802 / 912
https://app.semptoshiba.com.br/dat/manual/VCR/VCX801_802_912.EXE
--------------------------------------------------------------------------------------------------toshiba-som-cm-7215cd
http://www.4shared.com/file/6045531/d087fd51/Semp-Toshiba-CM7215CD.html?s=1>
--------------------------------------------------------------------------------------------------toshiba-chassis-lem5
http://www.4shared.com/file/5343465/394890d5/Semp-Toshiba-LEM5.html?s=1>
--------------------------------------------------------------------------------------------------toshiba-tv-3486p
http://www.4shared.com/file/5016529/2cfa7e21/Semp-Toshiba-3486P.html?s=1>
--------------------------------------------------------------------------------------------------toshiba-chassis-tg1hs3
http://www.4shared.com/file/4974828/f714bab3/Semp-Toshiba-TG1HS3.html?s=1>
--------------------------------------------------------------------------------------------------toshiba-tvc-147 cr-tv-1460e
http://www.4shared.com/file/4941811/d59bdb36/Semp-Toshiba-TVC-147-CR_TV-1460E.ht
ml?s=1>
--------------------------------------------------------------------------------------------------lem4-p
http://www.4shared.com/file/4908387/69e7c3e1/Semp-Toshiba-LEM4.html?s=1>
--------------------------------------------------------------------------------------------------toshiba-tv-2995s
http://www.4shared.com/file/4974668/99e652bd/Semp-Toshiba-TV2995s.html?s=1>
--------------------------------------------------------------------------------------------------toshiba-tv-2986s/2996s
http://www.4shared.com/file/4972657/71f4333/Semp-Toshiba-2986S_2996S.html?s=1>
--------------------------------------------------------------------------------------------------toshiba-chassis-lem3a
http://www.4shared.com/file/5340537/b946c065/Semp-Toshiba-LEM3A.html?s=1>
--------------------------------------------------------------------------------------------------toshiba-tv2957efs-chassis-lem-fs1
http://www.4shared.com/file/4972162/5917f2fa/Semp-Toshiba-TV2957EFS-CH-LEM-FS1.h
tml?s=1>
--------------------------------------------------------------------------------

-------------------Sony HCD-GRX9900-RXD9
http://www.promelec.ru/scheme/HCD-GRX9900_RXD9.pdf>
--------------------------------------------------------------------------------------------------Mitsubishi tc2051
http://www.4shared.com/file/8360628/29b3604c/TC-2091-2051.html>
--------------------------------------------------------------------------------------------------chassis U 16
http://www.mediamax.com/esquemasvip/Hosted/tv%20toshiba%20u16.pdf>
--------------------------------------------------------------------------------------------------TV Sharp C2899A
http://www.4shared.com/file/8593479/66fbabd3/sharp_2899A.html>
--------------------------------------------------------------------------------------------------Esquema do DVD semp modelo SD6080VK
http://www.mediamax.com/esquemasvip/Hosted/dvd%20semp%20sd6080vk.pdf>
--------------------------------------------------------------------------------------------------Philips FWC270/19
http://www.4shared.com/file/8771882/275a4011/fwc-270.html>
--------------------------------------------------------------------------------------------------esquema cce 2080B
http://www.4shared.com/file/6916059/73976158/HPS2080_D.html>
--------------------------------------------------------------------------------------------------TV Toshiba -mod:TV3486
http://www.mediamax.com/esquemasvip/Hosted/TV%20TOSHIBA%202985S.pdf>
--------------------------------------------------------------------------------------------------GRADIENTE MS 500
http://www.4shared.com/file/8399574/a06cbe20/as20-2_ms500_ms550.html>
--------------------------------------------------------------------------------------------------Aiwa-Tv-AR205
http://www.4shared.com/file/8369483/3a02caaa/Aiwa-TV-AR205.html>
--------------------------------------------------------------------------------------------------FWM779
http://www.4shared.com/file/8278691/8013d3d9/FWM779.html>
--------------------------------------------------------------------------------------------------KV2970T
http://www.4shared.com/file/12220823/98eb0329/TVSONYKV2970T_KV3470T.html>
--------------------------------------------------------------------------------------------------3000serv1
http://www.4shared.com/file/13882279/ef8b635c/3000serv1.html>
--------------------------------------------------------------------------------------------------HP_Compaq_nx6110-nc6110-nx6120-nc6120_Notebook
http://www.4shared.com/file/13882649/c3af9843/HP_Compaq_nx6110-nc6110-nx6120-nc6
120_Notebook.html>
--------------------------------------------------------------------------------------------------HP_OmniBook_20001
http://www.4shared.com/file/13883684/a917cc97/HP_OmniBook_20001.html>

--------------------------------------------------------------------------------------------------HP_OmniBook_300_425_430_530
http://www.4shared.com/file/13882703/46d4de6e/HP_OmniBook_300_425_430_530.html>
--------------------------------------------------------------------------------------------------HP_OmniBook_55001
http://www.4shared.com/file/13884014/e18f33d5/HP_OmniBook_55001.html>
--------------------------------------------------------------------------------------------------HP_OmniBook_5700
http://www.4shared.com/file/13885733/f02eb514/HP_OmniBook_5700.html>
--------------------------------------------------------------------------------------------------HP_OmniBook_7100
http://www.4shared.com/file/13885942/c2f63e4f/HP_OmniBook_7100.html>
--------------------------------------------------------------------------------------------------HP_OmniBook_7150
http://www.4shared.com/file/13886006/bc93ab33/HP_OmniBook_7150.html>
--------------------------------------------------------------------------------------------------HP_Parts_Store
http://www.4shared.com/file/13886051/5f80cad5/HP_Parts_Store.html>
--------------------------------------------------------------------------------------------------hp_omnibook2100-3000-3100
http://www.4shared.com/file/13888669/9e241aa5/hp_omnibook2100-3000-3100.html>
--------------------------------------------------------------------------------------------------hp_omnibook4100-4150
http://www.4shared.com/file/13898617/bbd88d5/hp_omnibook4100-4150.html>
--------------------------------------------------------------------------------------------------hp_omnibook6000
http://www.4shared.com/file/13898900/879e6b0a/hp_omnibook6000.html>
--------------------------------------------------------------------------------------------------hp_omnibook900
http://www.4shared.com/file/13886221/1345887c/hp_omnibook900.html>
--------------------------------------------------------------------------------------------------hp_omnibook_xe2
http://www.4shared.com/file/13903485/26b8b00b/hp_omnibook_xe2.html>
--------------------------------------------------------------------------------------------------HPmouse1
http://www.4shared.com/file/13903886/b6ab18d5/HPmouse1.html>
--------------------------------------------------------------------------------------------------NX9010
http://www.4shared.com/file/13904023/afea6dd1/NX9010.html>
--------------------------------------------------------------------------------------------------ob300-530_battery_rebuild
http://www.4shared.com/file/13904047/fedd0e4e/ob300-530_battery_rebuild.html>
--------------------------------------------------------------------------------------------------OMNIBOOK_XE3
http://www.4shared.com/file/13904214/19277fdf/OMNIBOOK_XE3.html>

--------------------------------------------------------------------------------------------------OBS: COPIEM E COLEM NO NAVEGADOR


KV35V36
https://www.vancebaldwin.com/shop/research_new/SON/KV35V36.pdf
--------------------------------------------------------------------------------------------------KV27V42
https://www.vancebaldwin.com/shop/research_new/SON/KV27V42.pdf
--------------------------------------------------------------------------------------------------KV27V10
https://www.vancebaldwin.com/shop/research_new/SON/KV27V10.PDF
--------------------------------------------------------------------------------------------------KV32V15
https://www.vancebaldwin.com/shop/research_new/SON/KV32V15.PDF
--------------------------------------------------------------------------------------------------KP41T65
https://www.vancebaldwin.com/shop/research_new/SON/KP41T65.pdf
--------------------------------------------------------------------------------------------------KP48S35
https://www.vancebaldwin.com/shop/research_new/SON/KP48S35.pdf
--------------------------------------------------------------------------------------------------KP46S55
https://www.vancebaldwin.com/shop/research_new/SON/KP46S55.PDF
--------------------------------------------------------------------------------------------------KP53S35
https://www.vancebaldwin.com/shop/research_new/SON/KP53S35.pdf
--------------------------------------------------------------------------------------------------KP53S55
https://www.vancebaldwin.com/shop/research_new/SON/KP53S55.pdf
--------------------------------------------------------------------------------------------------KP53S65
https://www.vancebaldwin.com/shop/research_new/SON/KP53S65.pdf
--------------------------------------------------------------------------------------------------KP53S70
https://www.vancebaldwin.com/shop/research_new/SON/KP53S70.pdf
--------------------------------------------------------------------------------------------------KP53S75
https://www.vancebaldwin.com/shop/research_new/SON/KP53S75.pdf
--------------------------------------------------------------------------------------------------KP48S70
https://www.vancebaldwin.com/shop/research_new/SON/KP48S70.pdf
--------------------------------------------------------------------------------------------------KP48S75

https://www.vancebaldwin.com/shop/research_new/SON/KP48S75.pdf
--------------------------------------------------------------------------------------------------KP48V45
https://www.vancebaldwin.com/shop/research_new/SON/KP48V45.pdf
--------------------------------------------------------------------------------------------------KP48V85
https://www.vancebaldwin.com/shop/research_new/SON/KP48V85.pdf
--------------------------------------------------------------------------------------------------KP48V90
https://www.vancebaldwin.com/shop/research_new/SON/KP48V90.pdf
--------------------------------------------------------------------------------------------------KP61V25
https://www.vancebaldwin.com/shop/research_new/son/KP61V25.pdf
--------------------------------------------------------------------------------------------------KV27TW77
https://www.vancebaldwin.com/shop/research_new/SON/KV27TW77.PDF
--------------------------------------------------------------------------------------------------KV32S12
https://www.vancebaldwin.com/shop/research_new/SON/KV32S12.PDF
--------------------------------------------------------------------------------------------------KV32XBR37
https://www.vancebaldwin.com/shop/research_new/son/KV32XBR37.pdf
--------------------------------------------------------------------------------------------------KDP57XBR
https://www.vancebaldwin.com/shop/research_new/son/KDP57XBR.PDF
--------------------------------------------------------------------------------------------------KDP57XBR2
https://www.vancebaldwin.com/shop/research_new/SON/KDP57XBR2.pdf
--------------------------------------------------------------------------------------------------KDP51WS550
https://www.vancebaldwin.com/shop/research_new/SON/KDP51WS550.pdf
--------------------------------------------------------------------------------------------------KDP65X
https://www.vancebaldwin.com/shop/research_new/SON/KDP65X.pdf
--------------------------------------------------------------------------------------------------KDP57WS550
https://www.vancebaldwin.com/shop/research_new/SON/KDP57WS550.pdf
--------------------------------------------------------------------------------------------------KD34XBR2
https://www.vancebaldwin.com/shop/research_new/son/KD34XBR2.pdf
--------------------------------------------------------------------------------------------------KV29AL42
https://www.vancebaldwin.com/shop/research_new/SON/KV29AL42.pdf
--------------------------------------------------------------------------------------------------KV27FS16

https://www.vancebaldwin.com/shop/research_new/son/KV27FS16.pdf
--------------------------------------------------------------------------------------------------KV36FS17
https://www.vancebaldwin.com/shop/research_new/son/KV36FS17.pdf
--------------------------------------------------------------------------------------------------KV13FM12
https://www.vancebaldwin.com/shop/research_new/SON/KV13FM12.pdf
--------------------------------------------------------------------------------------------------KV32FV27
https://www.vancebaldwin.com/shop/research_new/son/KV32FV27.pdf
--------------------------------------------------------------------------------------------------KV36FV27
https://www.vancebaldwin.com/shop/research_new/son/KV36FV27.pdf
--------------------------------------------------------------------------------------------------KV36FS12
https://www.vancebaldwin.com/shop/research_new/son/KV36FS12.pdf
--------------------------------------------------------------------------------------------------KV32FS12
https://www.vancebaldwin.com/shop/research_new/SON/KV32FS12.pdf
--------------------------------------------------------------------------------------------------KV32FS12GRAY
https://www.vancebaldwin.com/shop/research_new/SON/KV32FS12GRAY.pdf
--------------------------------------------------------------------------------------------------KV32FS13
https://www.vancebaldwin.com/shop/research_new/SON/KV32FS13.pdf
--------------------------------------------------------------------------------------------------KV36FS13
https://www.vancebaldwin.com/shop/research_new/son/KV36FS13.pdf
--------------------------------------------------------------------------------------------------KV32HS20
https://www.vancebaldwin.com/shop/research_new/SON/KV32HS20.pdf
--------------------------------------------------------------------------------------------------KV32HS500
https://www.vancebaldwin.com/shop/research_new/son/KV32HS500.pdf
--------------------------------------------------------------------------------------------------KV36HS500
https://www.vancebaldwin.com/shop/research_new/son/KV36HS500.pdf
--------------------------------------------------------------------------------------------------KV36HS500
https://www.vancebaldwin.com/shop/research_new/SON/KV32HS510.pdf
--------------------------------------------------------------------------------------------------KV34HS510
https://www.vancebaldwin.com/shop/research_new/SON/KV34HS510.pdf
--------------------------------------------------------------------------------------------------KV36XBR450

https://www.vancebaldwin.com/shop/research_new/SON/KV36XBR450.pdf
--------------------------------------------------------------------------------------------------KV34XBR48
https://www.vancebaldwin.com/shop/research_new/son/KV34XBR48.pdf
--------------------------------------------------------------------------------------------------KP53XBR25
https://www.vancebaldwin.com/shop/research_new/SON/KP53XBR25.pdf
--------------------------------------------------------------------------------------------------KP53XBR45
https://www.vancebaldwin.com/shop/research_new/son/KP53XBR45.pdf
--------------------------------------------------------------------------------------------------KP53XBR4CT
https://www.vancebaldwin.com/shop/research_new/SON/KP53XBR4CT.pdf
--------------------------------------------------------------------------------------------------KP61XBR48
https://www.vancebaldwin.com/shop/research_new/son/KP61XBR48.pdf
--------------------------------------------------------------------------------------------------KP57WV600
https://www.vancebaldwin.com/shop/research_new/son/KP57WV600.pdf
--------------------------------------------------------------------------------------------------KP65WV600
https://www.vancebaldwin.com/shop/research_new/SON/KP65WV600.pdf
--------------------------------------------------------------------------------------------------KV27FS100
https://www.vancebaldwin.com/shop/research_new/son/KV27FS100.pdf
--------------------------------------------------------------------------------------------------KV27FS100L
https://www.vancebaldwin.com/shop/research_new/SON/KV27FS100L.pdf
--------------------------------------------------------------------------------------------------KV36FS10
https://www.vancebaldwin.com/shop/research_new/son/KV36FS10.pdf
--------------------------------------------------------------------------------------------------KP51WS500
https://www.vancebaldwin.com/shop/research_new/son/KP51WS500.pdf
--------------------------------------------------------------------------------------------------KP51WS510
https://www.vancebaldwin.com/shop/research_new/SON/KP51WS510.pdf
--------------------------------------------------------------------------------------------------KP61V25
https://www.vancebaldwin.com/shop/research_new/son/KP61V25.pdf
--------------------------------------------------------------------------------------------------KV20TS32
https://www.vancebaldwin.com/shop/research_new/son/KV20TS32.pdf
--------------------------------------------------------------------------------------------------KV20S10

https://www.vancebaldwin.com/shop/research_new/son/KV20S10.pdf
--------------------------------------------------------------------------------------------------KV27S40
https://www.vancebaldwin.com/shop/research_new/son/KV27S40.pdf
--------------------------------------------------------------------------------------------------KV35S40
https://www.vancebaldwin.com/shop/research_new/son/KV35S40.pdf
--------------------------------------------------------------------------------------------------KV32V26
https://www.vancebaldwin.com/shop/research_new/son/KV32V26.pdf
--------------------------------------------------------------------------------------------------KV27V42
https://www.vancebaldwin.com/shop/research_new/son/KV27V42.pdf
--------------------------------------------------------------------------------------------------KW34HD1
https://www.vancebaldwin.com/shop/research_new/son/KW34HD1.pdf
--------------------------------------------------------------------------------------------------KV32FV15
https://www.vancebaldwin.com/shop/research_new/son/KV32FV15.pdf
--------------------------------------------------------------------------------------------------KV34FV15
https://www.vancebaldwin.com/shop/research_new/son/KV34FV15.pdf
--------------------------------------------------------------------------------------------------KV36FV15
https://www.vancebaldwin.com/shop/research_new/son/KV36FV15.pdf
--------------------------------------------------------------------------------------------------KV36XBR250
https://www.vancebaldwin.com/shop/research_new/son/KV36XBR250.pdf
--------------------------------------------------------------------------------------------------KV35S65
https://www.vancebaldwin.com/shop/research_new/son/KV35S65.pdf
--------------------------------------------------------------------------------------------------KV32S12
https://www.vancebaldwin.com/shop/research_new/son/KV32S12.pdf
--------------------------------------------------------------------------------------------------KV32S16
https://www.vancebaldwin.com/shop/research_new/son/KV32S16.pdf
--------------------------------------------------------------------------------------------------KV32S20
https://www.vancebaldwin.com/shop/research_new/son/KV32S20.pdf
--------------------------------------------------------------------------------------------------KV32S22
https://www.vancebaldwin.com/shop/research_new/son/KV32S22.pdf
--------------------------------------------------------------------------------------------------KV32S25

https://www.vancebaldwin.com/shop/research_new/son/KV32S25.pdf
--------------------------------------------------------------------------------------------------KV32S40
https://www.vancebaldwin.com/shop/research_new/son/KV32S40.pdf
--------------------------------------------------------------------------------------------------KV32S42
https://www.vancebaldwin.com/shop/research_new/son/KV32S42.pdf
--------------------------------------------------------------------------------------------------KV32S45
https://www.vancebaldwin.com/shop/research_new/son/KV32S45.pdf
--------------------------------------------------------------------------------------------------KV32S66
https://www.vancebaldwin.com/shop/research_new/son/KV32S66.pdf
--------------------------------------------------------------------------------------------------KV32S22
https://www.vancebaldwin.com/shop/research_new/son/KV32S22.pdf
--------------------------------------------------------------------------------------------------KV27TS35
https://www.vancebaldwin.com/shop/research_new/son/KV27TS35.pdf
--------------------------------------------------------------------------------------------------KPR53XBR15
https://www.vancebaldwin.com/shop/research_new/son/KPR53XBR15.pdf
--------------------------------------------------------------------------------------------------KV32XBR25
https://www.vancebaldwin.com/shop/research_new/son/KV32XBR25.pdf
--------------------------------------------------------------------------------------------------KV20TS29
https://www.vancebaldwin.com/shop/research_new/son/KV20TS29.pdf
--------------------------------------------------------------------------------------------------KV13TR28
https://www.vancebaldwin.com/shop/research_new/son/KV13TR28.pdf
--------------------------------------------------------------------------------------------------KV32TS36
https://www.vancebaldwin.com/shop/research_new/son/KV32TS36.pdf
--------------------------------------------------------------------------------------------------KV27TS36
https://www.vancebaldwin.com/shop/research_new/son/KV27TS36.pdf
--------------------------------------------------------------------------------------------------KV27TW77
https://www.vancebaldwin.com/shop/research_new/son/KV27TW77.pdf
--------------------------------------------------------------------------------------------------KV9PT60
https://www.vancebaldwin.com/shop/research_new/son/KV9PT60.pdf
--------------------------------------------------------------------------------------------------KP46C36

https://www.vancebaldwin.com/shop/research_new/son/KP46C36.pdf
--------------------------------------------------------------------------------------------------KP48S65
https://www.vancebaldwin.com/shop/research_new/son/KP48S65.pdf
--------------------------------------------------------------------------------------------------KP53V15
https://www.vancebaldwin.com/shop/research_new/SON/KP53V15.pdf
--------------------------------------------------------------------------------------------------KP53V25
https://www.vancebaldwin.com/shop/research_new/SON/KP53V25.pdf
--------------------------------------------------------------------------------------------------KP53V35
https://www.vancebaldwin.com/shop/research_new/SON/KP53V35.pdf
--------------------------------------------------------------------------------------------------KP53V45
https://www.vancebaldwin.com/shop/research_new/SON/KP53V45.pdf
--------------------------------------------------------------------------------------------------KP53V80
https://www.vancebaldwin.com/shop/research_new/son/KP53V80.pdf
--------------------------------------------------------------------------------------------------KP53V85
https://www.vancebaldwin.com/shop/research_new/SON/KP53V85.pdf
--------------------------------------------------------------------------------------------------KP53HS10
https://www.vancebaldwin.com/shop/research_new/son/KP53HS10.pdf
--------------------------------------------------------------------------------------------------KP53HS30
https://www.vancebaldwin.com/shop/research_new/SON/KP53HS30.pdf
--------------------------------------------------------------------------------------------------KP57HW40
https://www.vancebaldwin.com/shop/research_new/SON/KP57HW40.pdf
--------------------------------------------------------------------------------------------------KP43T75
https://www.vancebaldwin.com/shop/research_new/son/KP43T75.pdf
--------------------------------------------------------------------------------------------------KP57XBR10W
https://www.vancebaldwin.com/shop/research_new/son/KP57XBR10W.pdf
--------------------------------------------------------------------------------------------------KP43HT20
https://www.vancebaldwin.com/shop/research_new/son/KP43HT20.pdf
--------------------------------------------------------------------------------------------------KV20S10
https://www.vancebaldwin.com/shop/research_new/son/KV20S10.pdf
--------------------------------------------------------------------------------------------------KV27S20

https://www.vancebaldwin.com/shop/research_new/son/KV27S20.pdf
--------------------------------------------------------------------------------------------------KV32V26
https://www.vancebaldwin.com/shop/research_new/son/KV32V26.pdf
--------------------------------------------------------------------------------------------------KV35V36
https://www.vancebaldwin.com/shop/research_new/son/KV35V36.pdf
--------------------------------------------------------------------------------------------------KP46V15
https://www.vancebaldwin.com/shop/research_new/son/KP46V15.pdf
--------------------------------------------------------------------------------------------------KV27EXR95
https://www.vancebaldwin.com/shop/research_new/SON/KV27EXR95.pdf
--------------------------------------------------------------------------------------------------KP41EXR96
https://www.vancebaldwin.com/shop/research_new/son/KP41EXR96.pdf
--------------------------------------------------------------------------------------------------KV27S40
https://www.vancebaldwin.com/shop/research_new/son/KV27S40.pdf
--------------------------------------------------------------------------------------------------KV24FV10
https://www.vancebaldwin.com/shop/research_new/SON/KV24FV10.pdf
--------------------------------------------------------------------------------------------------KV27FS16
https://www.vancebaldwin.com/shop/research_new/son/KV27FS16.pdf
--------------------------------------------------------------------------------------------------KV32FV300
https://www.vancebaldwin.com/shop/research_new/son/KV32FV300.pdf
--------------------------------------------------------------------------------------------------KV32FV310
https://www.vancebaldwin.com/shop/research_new/SON/KV32FV310.pdf
--------------------------------------------------------------------------------------------------KV36FS100
https://www.vancebaldwin.com/shop/research_new/son/KV36FS100.pdf
--------------------------------------------------------------------------------------------------KV27FS210
https://www.vancebaldwin.com/shop/research_new/SON/KV27FS210.pdf
--------------------------------------------------------------------------------------------------KV32FS200
https://www.vancebaldwin.com/shop/research_new/son/KV32FS200.pdf
--------------------------------------------------------------------------------------------------KV32FS210
https://www.vancebaldwin.com/shop/research_new/SON/KV32FS210.pdf
--------------------------------------------------------------------------------------------------KV20FS100

https://www.vancebaldwin.com/shop/research_new/SON/KV20FS100.pdf
--------------------------------------------------------------------------------------------------KV13FS110
https://www.vancebaldwin.com/shop/research_new/son/KV13FS110.pdf
--------------------------------------------------------------------------------------------------KP46WT500
https://www.vancebaldwin.com/shop/research_new/SON/KP46WT500.pdf
--------------------------------------------------------------------------------------------------KP51WS510
https://www.vancebaldwin.com/shop/research_new/SON/KP51WS510.pdf
--------------------------------------------------------------------------------------------------KP57WS510
https://www.vancebaldwin.com/shop/research_new/SON/KP57WS510.pdf
--------------------------------------------------------------------------------------------------KF50WE610
https://www.vancebaldwin.com/shop/research_new/SON/KF50WE610.pdf
--------------------------------------------------------------------------------------------------KF42WE610
https://www.vancebaldwin.com/shop/research_new/SON/KF42WE610.pdf
--------------------------------------------------------------------------------------------------KV40XBR800
https://www.vancebaldwin.com/shop/research_new/SON/KV40XBR800.pdf
--------------------------------------------------------------------------------------------------KF50XBR800
https://www.vancebaldwin.com/shop/research_new/SON/KF50XBR800.pdf
--------------------------------------------------------------------------------------------------KF60XBR800
https://www.vancebaldwin.com/shop/research_new/SON/KF60XBR800.pdf
--------------------------------------------------------------------------------------------------KF60WE610
https://www.vancebaldwin.com/shop/research_new/SON/KF60WE610.pdf
--------------------------------------------------------------------------------------------------SLVN51
https://www.vancebaldwin.com/shop/research_new/SON/SLVN51.pdf
--------------------------------------------------------------------------------------------------SLVN55
https://www.vancebaldwin.com/shop/research_new/SON/SLVN55.pdf
--------------------------------------------------------------------------------------------------SLVN71
https://www.vancebaldwin.com/shop/research_new/SON/SLVN71.pdf
--------------------------------------------------------------------------------------------------SLVN81
https://www.vancebaldwin.com/shop/research_new/SON/SLVN81.pdf
--------------------------------------------------------------------------------------------------SLVN88

https://www.vancebaldwin.com/shop/research_new/SON/SLVN88.pdf
--------------------------------------------------------------------------------------------------SLVN700
https://www.vancebaldwin.com/shop/research_new/SON/SLVN700.pdf
--------------------------------------------------------------------------------------------------Monitor ViewSonic 15_ES
http://www.4shared.com/file/12281006/26a8bb58/15_ES.html>
--------------------------------------------------------------------------------------------------Monitor ViewSonic 17G
http://www.4shared.com/file/12280340/115d0255/17G.html>
--------------------------------------------------------------------------------------------------Monitor ViewSonic 1569S
http://www.4shared.com/file/12280195/d71d5cf9/1569S.html>
--------------------------------------------------------------------------------------------------Monitor ViewSonic 1765GM
http://www.4shared.com/file/12280172/d7fae4d4/1765GM.html>
--------------------------------------------------------------------------------------------------Monitor ViewSonic E_641
http://www.4shared.com/file/12280068/2ff656bc/E_641.html>
--------------------------------------------------------------------------------------------------Monitor ViewSonic GS771
http://www.4shared.com/file/12279902/69f0fbf0/GS771.html>
--------------------------------------------------------------------------------------------------Monitor ViewSonic DTK_1448
http://www.4shared.com/file/12280138/5343c8ce/DTK_1448.html>
--------------------------------------------------------------------------------------------------Monitor Envision 734_e_735
http://www.4shared.com/file/12533407/967aea30/Envision_734_e_735.html>
--------------------------------------------------------------------------------------------------Monitor Envision CM_336_e_337
http://www.4shared.com/file/12533473/de56b8ee/Envision_CM_336_e_337.html>
--------------------------------------------------------------------------------------------------PANASONIC-TV
TC-20KL05P_SERVICE
http://owa.mellafeysalas.cl/dscgi/ds.py/Get/File-3601/TC-20KL05P_SERVICE.pdf>
--------------------------------------------------------------------------------------------------TC-20LA5_SvcMnls
http://owa.mellafeysalas.cl/dscgi/ds.py/Get/File-3665/TC-20LA5_SvcMnls.pdf>
--------------------------------------------------------------------------------------------------TC-14RM10LP_TC-20RM10LP_TC-20RA10LP_SERVICE
http://owa.mellafeysalas.cl/dscgi/ds.py/Get/File-3272/TC-14RM10LP_TC-20RM10LP_TC
-20RA10LP_SERVICE.pdf>
--------------------------------------------------------------------------------

-------------------TC-26LX50_SvcMnls
http://owa.mellafeysalas.cl/dscgi/ds.py/Get/File-3640/TC-26LX50_SvcMnls.pdf>
--------------------------------------------------------------------------------------------------TC-32LX50_SvcMnls
http://owa.mellafeysalas.cl/dscgi/ds.py/Get/File-3429/TC-32LX50_SvcMnls.pdf>
--------------------------------------------------------------------------------------------------TC-20LA05_SvcMnls
http://owa.mellafeysalas.cl/dscgi/ds.py/Get/File-3324/TC-20LA05_SvcMnls.pdf>
--------------------------------------------------------------------------------------------------TV-DE LCD
TC-19LX50_SvcMnls
http://owa.mellafeysalas.cl/dscgi/ds.py/Get/File-3501/TC-19LX50_SvcMnls.pdf>
--------------------------------------------------------------------------------------------------TC-20KL05P_SERVICE
http://owa.mellafeysalas.cl/dscgi/ds.py/Get/File-3509/TC-20KL05P_SERVICE.pdf>
--------------------------------------------------------------------------------------------------TC-20LA05_SvcMnls
http://owa.mellafeysalas.cl/dscgi/ds.py/Get/File-3410/TC-20LA05_SvcMnls.pdf>
--------------------------------------------------------------------------------------------------TC-20LA5_SvcMnls
http://owa.mellafeysalas.cl/dscgi/ds.py/Get/File-3789/TC-20LA5_SvcMnls.pdf>
--------------------------------------------------------------------------------------------------TC-26LX20_SvcMnls
http://owa.mellafeysalas.cl/dscgi/ds.py/Get/File-3472/TC-26LX20_SvcMnls.pdf>
--------------------------------------------------------------------------------------------------TC-26LX50_SvcMnls
http://owa.mellafeysalas.cl/dscgi/ds.py/Get/File-3464/TC-26LX50_SvcMnls.pdf>
--------------------------------------------------------------------------------------------------TC-32LX50_SvcMnls
http://owa.mellafeysalas.cl/dscgi/ds.py/Get/File-3995/TC-32LX50_SvcMnls.pdf>
--------------------------------------------------------------------------------------------------TV-DE PLASMA
TH-42PA60L_SvcMnls
http://owa.mellafeysalas.cl/dscgi/ds.py/Get/File-3916/TH-42PA60L_SvcMnls.pdf>
--------------------------------------------------------------------------------------------------TH-42PD50_SvcMnls
http://owa.mellafeysalas.cl/dscgi/ds.py/Get/File-3576/TH-42PD50_SvcMnls.pdf>
--------------------------------------------------------------------------------------------------TH-42PHD5_SvCMnLS

http://owa.mellafeysalas.cl/dscgi/ds.py/Get/File-3992/TH-42PHD5_SvCMnLS.pdf>
--------------------------------------------------------------------------------------------------TH-42PHW7_SvcMnls
http://owa.mellafeysalas.cl/dscgi/ds.py/Get/File-3882/TH-42PHW7_SvcMnls.pdf>
--------------------------------------------------------------------------------------------------TH-42PW4_SvcMnls
http://owa.mellafeysalas.cl/dscgi/ds.py/Get/File-3649/TH-42PW4_SvcMnls.pdf>
--------------------------------------------------------------------------------------------------TH-42PW7_SvcMnls
http://owa.mellafeysalas.cl/dscgi/ds.py/Get/File-3493/TH-42PW7_SvcMnls.pdf>
--------------------------------------------------------------------------------------------------TH-42PX20_SvcMnls
http://owa.mellafeysalas.cl/dscgi/ds.py/Get/File-3881/TH-42PX20_SvcMnls.pdf>
--------------------------------------------------------------------------------------------------TH-42PX500_Parts_Change_Notice
http://owa.mellafeysalas.cl/dscgi/ds.py/Get/File-3466/TH-42PX500_Parts_Change_No
tice.pdf>
--------------------------------------------------------------------------------------------------TH-24PX50U_Service_Manual
http://owa.mellafeysalas.cl/dscgi/ds.py/Get/File-3467/TH-24PX50U_Service_Manual.
pdf>
--------------------------------------------------------------------------------------------------TH-50PHW7_SvcMnls
http://owa.mellafeysalas.cl/dscgi/ds.py/Get/File-3579/TH-50PHW7_SvcMnls.pdf>
--------------------------------------------------------------------------------------------------TV-COLOR
CT-F2136LC_SvcMnls
http://owa.mellafeysalas.cl/dscgi/ds.py/Get/File-3930/CT-F2136LC_SvcMnls.pdf>
--------------------------------------------------------------------------------------------------CT-F2522_SvcMnls
http://owa.mellafeysalas.cl/dscgi/ds.py/Get/File-3935/CT-F2522_SvcMnls.pdf>
--------------------------------------------------------------------------------------------------c_brd1
http://owa.mellafeysalas.cl/dscgi/ds.py/Get/File-2835/c_brd1.pdf>
--------------------------------------------------------------------------------------------------c_brd2
http://owa.mellafeysalas.cl/dscgi/ds.py/Get/File-2836/c_brd2.pdf>
--------------------------------------------------------------------------------------------------a_brd_29_1
http://owa.mellafeysalas.cl/dscgi/ds.py/Get/File-2837/a_brd_29_1.pdf>
--------------------------------------------------------------------------------------------------a_brd_29_3
http://owa.mellafeysalas.cl/dscgi/ds.py/Get/File-2838/a_brd_29_3.pdf>

--------------------------------------------------------------------------------------------------a_brd_29_4
http://owa.mellafeysalas.cl/dscgi/ds.py/Get/File-2839/a_brd_29_4.pdf>
--------------------------------------------------------------------------------------------------c_brd1
http://owa.mellafeysalas.cl/dscgi/ds.py/Get/File-2840/c_brd1.pdf>
--------------------------------------------------------------------------------------------------c_brd2
http://owa.mellafeysalas.cl/dscgi/ds.py/Get/File-2841/c_brd2.pdf>
--------------------------------------------------------------------------------------------------CT-F2925LN_SvcMnls_Simplificado
http://owa.mellafeysalas.cl/dscgi/ds.py/Get/File-3515/CT-F2925LN_SvcMnls_Simplif
icado.doc>
--------------------------------------------------------------------------------------------------CT-F2936LC_SvcMnls
http://owa.mellafeysalas.cl/dscgi/ds.py/Get/File-3708/CT-F2936LC_SvcMnls.pdf>
--------------------------------------------------------------------------------------------------CT-F3445N_SvcMnls
http://owa.mellafeysalas.cl/dscgi/ds.py/Get/File-3511/CT-F3445N_SvcMnls.pdf>
--------------------------------------------------------------------------------------------------a_brd29_1
http://owa.mellafeysalas.cl/dscgi/ds.py/Get/File-2676/a_brd29_1.pdf>
--------------------------------------------------------------------------------------------------a_brd29_2
http://owa.mellafeysalas.cl/dscgi/ds.py/Get/File-2677/a_brd29_2.pdf>
--------------------------------------------------------------------------------------------------a_brd29_4
http://owa.mellafeysalas.cl/dscgi/ds.py/Get/File-2678/a_brd29_4.pdf>
--------------------------------------------------------------------------------------------------a_brd29_4_1
http://owa.mellafeysalas.cl/dscgi/ds.py/Get/File-2679/a_brd29_4_1.pdf>
--------------------------------------------------------------------------------------------------Vista_Explotada
http://owa.mellafeysalas.cl/dscgi/ds.py/Get/File-2680/Vista_Explotada.PDF>
--------------------------------------------------------------------------------------------------CT-G2995_1d5_SERVICE
http://owa.mellafeysalas.cl/dscgi/ds.py/Get/File-3240/CT-G2995_1d5_SERVICE.pdf>
--------------------------------------------------------------------------------------------------CT-G2995_2d5_SERVICE
http://owa.mellafeysalas.cl/dscgi/ds.py/Get/File-3241/CT-G2995_2d5_SERVICE.pdf>
--------------------------------------------------------------------------------------------------CT-G2995_3d5_SERVICE
http://owa.mellafeysalas.cl/dscgi/ds.py/Get/File-3242/CT-G2995_3d5_SERVICE.pdf>
--------------------------------------------------------------------------------------------------CT-G2995_4d5_SERVICE

http://owa.mellafeysalas.cl/dscgi/ds.py/Get/File-3243/CT-G2995_4d5_SERVICE.pdf>
--------------------------------------------------------------------------------------------------CT-G2995_5d5_SERVICE
http://owa.mellafeysalas.cl/dscgi/ds.py/Get/File-3239/CT-G2995_5d5_SERVICE.pdf>
--------------------------------------------------------------------------------------------------CT-Z1425_SvcMnls
http://owa.mellafeysalas.cl/dscgi/ds.py/Get/File-3555/CT-Z1425_SvcMnls.pdf>
--------------------------------------------------------------------------------------------------TV-PROJETORAS
CT-27D12DF_SvcMnls
http://owa.mellafeysalas.cl/dscgi/ds.py/Get/File-3709/CT-27D12DF_SvcMnls.pdf>
--------------------------------------------------------------------------------------------------PT-47WX49E_SvcMnls
http://owa.mellafeysalas.cl/dscgi/ds.py/Get/File-3518/PT-47WX49E_SvcMnls.pdf>
--------------------------------------------------------------------------------------------------Suplemento_PT-56HX41E
http://owa.mellafeysalas.cl/dscgi/ds.py/Get/File-3646/Suplemento_PT-56HX41E.pdf>
--------------------------------------------------------------------------------------------------Suplemento_PT-56HX41E
http://owa.mellafeysalas.cl/dscgi/ds.py/Get/File-3647/Suplemento_PT-56HX41E._-2_
pdf.pdf>
--------------------------------------------------------------------------------------------------PT-56HX41E_Table_Of_Contents_SvcMnls
http://owa.mellafeysalas.cl/dscgi/ds.py/Get/File-3645/PT-56HX41E_Table_Of_Conten
ts_SvcMnls.doc>
--------------------------------------------------------------------------------------------------Ajuste_del_TRC
http://owa.mellafeysalas.cl/dscgi/ds.py/Get/File-2414/Ajuste_del_TRC.pdf>
--------------------------------------------------------------------------------------------------PT-AE300_Table_Of_Contents_Service
http://owa.mellafeysalas.cl/dscgi/ds.py/Get/File-3600/PT-AE300_Table_Of_Contents
_Service.doc>
--------------------------------------------------------------------------------------------------PT-LB10_SvcMnls
http://owa.mellafeysalas.cl/dscgi/ds.py/Get/File-3457/PT-LB10_SvcMnls.pdf>
--------------------------------------------------------------------------------------------------PT-LB10SU_SvcMnls
http://owa.mellafeysalas.cl/dscgi/ds.py/Get/File-3638/PT-LB10SU_SvcMnls.pdf>
--------------------------------------------------------------------------------------------------PT-LB10VU_SvcMnls
http://owa.mellafeysalas.cl/dscgi/ds.py/Get/File-3788/PT-LB10VU_SvcMnls.pdf>
--------------------------------------------------------------------------------------------------PT-LB20SU_SvcMnls

http://owa.mellafeysalas.cl/dscgi/ds.py/Get/File-3894/PT-LB20SU_SvcMnls.pdf>
--------------------------------------------------------------------------------------------------PT-LB50U_SvcMnls
http://owa.mellafeysalas.cl/dscgi/ds.py/Get/File-3921/PT-LB50U_SvcMnls.pdf>
--------------------------------------------------------------------------------------------------PT-P1SDU_SvcMnls
http://owa.mellafeysalas.cl/dscgi/ds.py/Get/File-3922/PT-P1SDU_SvcMnls.pdf>
--------------------------------------------------------------------------------------------------DATA SHOW
PT-AE200_SvcMnls
http://owa.mellafeysalas.cl/dscgi/ds.py/Get/File-3552/PT-AE200_SvcMnls.doc>
--------------------------------------------------------------------------------------------------PT-L200_SvcMnls_Simplificado
http://owa.mellafeysalas.cl/dscgi/ds.py/Get/File-3553/PT-L200_SvcMnls_Simplifica
do.doc>
--------------------------------------------------------------------------------------------------PT-L557_SvcMnls_Simplificado
http://owa.mellafeysalas.cl/dscgi/ds.py/Get/File-3554/PT-L557_SvcMnls_Simplifica
do.doc>
--------------------------------------------------------------------------------------------------DVD
DMR-EH55_SvcMnls
http://owa.mellafeysalas.cl/dscgi/ds.py/Get/File-3936/DMR-EH55_SvcMnls.pdf>
--------------------------------------------------------------------------------------------------DVD-DMR-ES10_SvcMnls
http://owa.mellafeysalas.cl/dscgi/ds.py/Get/File-3435/DVD-DMR-ES10_SvcMnls.pdf>
--------------------------------------------------------------------------------------------------DVD-F87__SERVICE
http://owa.mellafeysalas.cl/dscgi/ds.py/Get/File-3369/DVD-F87__SERVICE.pdf>
--------------------------------------------------------------------------------------------------DVD-K29GCS_SvcMnls
http://owa.mellafeysalas.cl/dscgi/ds.py/Get/File-3441/DVD-K29GCS_SvcMnls.pdf>
--------------------------------------------------------------------------------------------------DVD-K32GCS_SvcMnls
http://owa.mellafeysalas.cl/dscgi/ds.py/Get/File-3707/DVD-K32GCS_SvcMnls.pdf>
--------------------------------------------------------------------------------------------------DVD-S1E_SvcMnls
http://owa.mellafeysalas.cl/dscgi/ds.py/Get/File-3912/DVD-S1E_SvcMnls.pdf>
--------------------------------------------------------------------------------------------------VDR-M30__SERVICE

http://owa.mellafeysalas.cl/dscgi/ds.py/Get/File-3568/VDR-M30__SERVICE.pdf>
--------------------------------------------------------------------------------------------------VIDEO K7
MECANISMO_Z_REV1
http://owa.mellafeysalas.cl/dscgi/ds.py/Get/File-1281/MECANISMO_Z_REV1.exe>
--------------------------------------------------------------------------------------------------NVHD640PM.exe
http://owa.mellafeysalas.cl/dscgi/ds.py/Get/File-1278/NVHD640PM.exe>
--------------------------------------------------------------------------------------------------Power2.pdf
http://owa.mellafeysalas.cl/dscgi/ds.py/Get/File-1109/Power2.pdf>
--------------------------------------------------------------------------------------------------NV-SD450_SvcMnls.doc
http://owa.mellafeysalas.cl/dscgi/ds.py/Get/File-3545/NV-SD450_SvcMnls.doc>
--------------------------------------------------------------------------------------------------NV-SJ400_SvcMnls
http://owa.mellafeysalas.cl/dscgi/ds.py/Get/File-3546/NV-SJ400_SvcMnls.doc>
--------------------------------------------------------------------------------------------------Camara Fotografica Digital
DMC-FX01_SvcMnls_ok
http://owa.mellafeysalas.cl/dscgi/ds.py/Get/File-3939/DMC-FX01_SvcMnls_ok..pdf>
--------------------------------------------------------------------------------------------------DMC-FX3_SvcMnl
http://owa.mellafeysalas.cl/dscgi/ds.py/Get/File-4006/DMC-FX3_SvcMnls.pdf>
--------------------------------------------------------------------------------------------------DMC-FX5_SvcMnls
http://owa.mellafeysalas.cl/dscgi/ds.py/Get/File-3572/DMC-FX5_SvcMnls.pdf>
--------------------------------------------------------------------------------------------------DMC-FX7_SvcMnls
http://owa.mellafeysalas.cl/dscgi/ds.py/Get/File-3570/DMC-FX7_SvcMnls.pdf>
--------------------------------------------------------------------------------------------------DMC-FX8PL_SvcMnls
http://owa.mellafeysalas.cl/dscgi/ds.py/Get/File-3889/DMC-FX8PL_SvcMnls.pdf>
--------------------------------------------------------------------------------------------------DMC-FX9PP_SvcMnls
http://owa.mellafeysalas.cl/dscgi/ds.py/Get/File-3438/DMC-FX9PP_SvcMnls.pdf>
--------------------------------------------------------------------------------------------------DMC-FZ30PP_MnlsUso
http://owa.mellafeysalas.cl/dscgi/ds.py/Get/File-3338/DMC-FZ30PP_MnlsUso.pdf>
--------------------------------------------------------------------------------

-------------------DMC-FZ4PP_SvcMnls_Simplificado
http://owa.mellafeysalas.cl/dscgi/ds.py/Get/File-4005/DMC-FZ4PP_SvcMnls_Simplifi
cado.pdf>
--------------------------------------------------------------------------------------------------DMC-FZ5PP_SvcMnls
http://owa.mellafeysalas.cl/dscgi/ds.py/Get/File-3657/DMC-FZ5PP_SvcMnls.pdf>
--------------------------------------------------------------------------------------------------DMC-FZ7_SvcMnls
http://owa.mellafeysalas.cl/dscgi/ds.py/Get/File-3983/DMC-FZ7_SvcMnls.pdf>
--------------------------------------------------------------------------------------------------DMC-LC20
http://owa.mellafeysalas.cl/dscgi/ds.py/Get/File-2336/DMC-LC20.pdf>
--------------------------------------------------------------------------------------------------DMC-LC40
http://owa.mellafeysalas.cl/dscgi/ds.py/Get/File-2337/DMC-LC40.pdf>
--------------------------------------------------------------------------------------------------DSC0403005C0
http://owa.mellafeysalas.cl/dscgi/ds.py/Get/File-2991/DSC0403005C0.pdf>
--------------------------------------------------------------------------------------------------DSC0403005C0
http://owa.mellafeysalas.cl/dscgi/ds.py/Get/File-3040/DSC0403005C0.pdf>
--------------------------------------------------------------------------------------------------DMC-LS1PP_SvcMnls
http://owa.mellafeysalas.cl/dscgi/ds.py/Get/File-3791/DMC-LS1PP_SvcMnls.pdf>
--------------------------------------------------------------------------------------------------DMC-LS2_SvcMnls
http://owa.mellafeysalas.cl/dscgi/ds.py/Get/File-3988/DMC-LS2_SvcMnls.pdf>
--------------------------------------------------------------------------------------------------DMC-LX1_SvcMnls
http://owa.mellafeysalas.cl/dscgi/ds.py/Get/File-3492/DMC-LX1_SvcMnls.pdf>
--------------------------------------------------------------------------------------------------DMC-LZ2PP_SvcMnls
http://owa.mellafeysalas.cl/dscgi/ds.py/Get/File-3424/DMC-LZ2PP_SvcMnls.pdf>
--------------------------------------------------------------------------------------------------DMC-LZ3_SvcMnls
http://owa.mellafeysalas.cl/dscgi/ds.py/Get/File-3985/DMC-LZ3_SvcMnls.pdf>
--------------------------------------------------------------------------------------------------DMC-LZ5_SvcMnls
http://owa.mellafeysalas.cl/dscgi/ds.py/Get/File-4011/DMC-LZ5_SvcMnls.pdf>
--------------------------------------------------------------------------------------------------DMC-TZ1_SvcMnls
http://owa.mellafeysalas.cl/dscgi/ds.py/Get/File-3966/DMC-TZ1_SvcMnls.pdf>
---------------------------------------------------------------------------------------------------

Centrales PBX
KX-T7730_SvcMnls
http://owa.mellafeysalas.cl/dscgi/ds.py/Get/File-3642/KX-T7730_SvcMnls.pdf>
--------------------------------------------------------------------------------------------------Slt_card
http://owa.mellafeysalas.cl/dscgi/ds.py/Get/File-1919/Slt_card.pdf>
--------------------------------------------------------------------------------------------------Operinst
http://owa.mellafeysalas.cl/dscgi/ds.py/Get/File-1918/Operinst.pdf>
--------------------------------------------------------------------------------------------------Instmnal
http://owa.mellafeysalas.cl/dscgi/ds.py/Get/File-1917/Instmnal.pdf>
--------------------------------------------------------------------------------------------------KX-TD500_SvcMnls_(simplificado)
http://owa.mellafeysalas.cl/dscgi/ds.py/Get/File-3607/KX-TD500_SvcMnls_(simplifi
cado).pdf>
--------------------------------------------------------------------------------------------------KX-TD500_Supplement_Service_Manual
http://owa.mellafeysalas.cl/dscgi/ds.py/Get/File-3608/KX-TD500_Supplement_Servic
e_Manual.doc>
--------------------------------------------------------------------------------------------------Matriz de puntos
KX-P3626_Suplemento_2
http://owa.mellafeysalas.cl/dscgi/ds.py/Get/File-3918/KX-P3626_Suplemento_2_.pdf
>
--------------------------------------------------------------------------------------------------KX-P3626_Suplemento_3
http://owa.mellafeysalas.cl/dscgi/ds.py/Get/File-3919/KX-P3626_Suplemento_3_.pdf
>
--------------------------------------------------------------------------------------------------KX-P3626_Suplemento
http://owa.mellafeysalas.cl/dscgi/ds.py/Get/File-3917/KX-P3626_Suplemento.pdf>
--------------------------------------------------------------------------------------------------KX-P3696_DgrmEsquem
http://owa.mellafeysalas.cl/dscgi/ds.py/Get/File-854/KX-P3696_DgrmEsquem.pdf>
--------------------------------------------------------------------------------------------------IMPRESSORA-LASER
Impresora_KX-FLB756
http://owa.mellafeysalas.cl/dscgi/ds.py/Get/File-3327/Impresora_KX-FLB756.pdf>
--------------------------------------------------------------------------------

-------------------ServMnls_KX-p7100
http://owa.mellafeysalas.cl/dscgi/ds.py/Get/File-2577/ServMnls_KX-p7100.pdf>
--------------------------------------------------------------------------------------------------14PV360-14pv365
http://www.4shared.com/file/8870943/b4c0800c/14PV360-14pv365_combinado.html>
--------------------------------------------------------------------------------------------------GR1_VA-20gl1045-14GL1015-14gl1017
http://www.4shared.com/file/8875477/a78674b7/CHASSIS-_GR1_VA-20gl1045-14GL1015-1
4gl1017.html>
--------------------------------------------------------------------------------------------------VCR Pan NV-SD400
http://www.4shared.com/file/8423675/d045d122/VCR_Panasonic_NV-SD400_K_mec.html>
--------------------------------------------------------------------------------------------------chassis-NCF-philips-varias verso
http://www.4shared.com/file/8909823/e72c0d82/chassis-NCF-philips-TODOS.html>
--------------------------------------------------------------------------------------------------SEMP TV2082EAV
http://www.4shared.com/file/8959654/f477ac9c/TV_1480E.html>
--------------------------------------------------------------------------------------------------PANASONIC TC29V50B
http://www.4shared.com/file/4825745/6fa31d05/Panasonic_TC-29V50R.html>
--------------------------------------------------------------------------------------------------gradiente energy 2200
http://www.4shared.com/file/4888960/9fbb667e/gradiente_energy_1200_2200_4200.htm
l?s=1>
--------------------------------------------------------------------------------------------------DVD AIKO MODELO 1810
ftp://200.183.110.160/Suporte_Tecnico/Linha_Marrom/Esquemas/Esquemas_para_consul
ta/DVD-1810/Esquema_Eletrico.pdf>
--------------------------------------------------------------------------------------------------PR200
http://www.4shared.com/file/9002116/e5c34c3c/PR200-todos.html>
--------------------------------------------------------------------------------------------------DVD semp modelo SD6080VK
http://www.mediamax.com/esquemasvip/Hosted/dvd%20semp%20sd6080vk.pdf>
--------------------------------------------------------------------------------------------------SOM SHARP CMS-R600X
http://www.4shared.com/file/9003874/eafad67c/sharpCMS-R600.html>
--------------------------------------------------------------------------------------------------Equivalncias__modelo_-__chassi
http://www.4shared.com/file/9007801/5ab32363/Equivalncias__modelo_-__chassi.html
>
--------------------------------------------------------------------------------------------------Sharp_GX20_SM
http://www.4shared.com/file/5941235/4b20f3cf/Sharp_GX20_SM.html?s=1>

--------------------------------------------------------------------------------------------------Sharp_GX30_SM
http://www.4shared.com/file/5941711/78b097bf/Sharp_GX30_SM.html?s=1>
--------------------------------------------------------------------------------------------------SharpGX40
http://www.4shared.com/file/8525131/583c4ac3/SharpGX40.html?s=1>
--------------------------------------------------------------------------------------------------sharp_tvc-_29st54
http://www.4shared.com/file/8362762/6c1eeea/sharp_tvc-_29st54.html?s=1>
--------------------------------------------------------------------------------------------------Sharp-TVC-1465B
http://www.4shared.com/file/5019287/6c81bd7f/Sharp-TVC-1465B.html?s=1>
--------------------------------------------------------------------------------------------------AMPLIFICADORES WARM MUSIC
http://www.4shared.com/file/9022660/3c6e3a2b/warm_music.html>
--------------------------------------------------------------------------------------------------sanyo-ctp6781-p
http://www.4shared.com/file/9071630/9b4ceef0/CTP-6781.html>
--------------------------------------------------------------------------------------------------curso completo de antena parablica
http://www.4shared.com/file/9075797/71676eb9/Curso_completo_de_instalao_de_anten
a_parablica.html>
--------------------------------------------------------------------------------------------------philips FWC555
http://www.4shared.com/file/4960036/b5a649aa/PHILIPS_fwc555-19.html?s=1>
--------------------------------------------------------------------------------------------------Panasonic-SC-AK200
http://www.4shared.com/file/6358635/9c3204d2/Panasonic-SC-AK200.html?s=1>
--------------------------------------------------------------------------------------------------panasonic_sa_ak18
http://www.4shared.com/file/4892595/338ebe8e/panasonic_sa_ak18.html?s=1>
--------------------------------------------------------------------------------------------------panasonic-sc-ak320lb
http://www.4shared.com/file/7762380/1c9c386b/panasonic-sc-ak320lb-s.html?s=1>
--------------------------------------------------------------------------------------------------panasonic_sc_ak340lb
http://www.4shared.com/file/8144801/d0adf25c/panasonic_sc_ak340lb-s.html?s=1>
--------------------------------------------------------------------------------------------------panasonic_sa-ak22
http://www.4shared.com/file/4893407/b53c69b9/panasonic_sa-ak22.html?s=1>
--------------------------------------------------------------------------------------------------panasonic_sc-ak310
http://www.4shared.com/file/4894145/a44237c3/panasonic_sc-ak310.html?s=1>
--------------------------------------------------------------------------------------------------panasonic_sa-ak77

http://www.4shared.com/file/4890713/bbb98d56/panasonic_sa-ak77.html?s=1>
--------------------------------------------------------------------------------------------------Panasonica_sc-ak48
http://www.4shared.com/file/4894238/97f463e0/Panasonica_sc-ak48.html?s=1>
--------------------------------------------------------------------------------------------------mitsubishi_tc-2909
http://www.4shared.com/file/4297672/a76a6bae/mitsubishi_tc-2909.html>
--------------------------------------------------------------------------------------------------semp 2082EAV
http://www.4shared.com/file/9120214/121edb07/semp_2082_EAV.html>
--------------------------------------------------------------------------------------------------DICAS_AIWA_-_Parte_5
http://www.4shared.com/file/14413471/e2146c3d/DICAS_AIWA_-_Parte_5.html>
--------------------------------------------------------------------------------------------------DICAS_AIWA_-_4
http://www.4shared.com/file/14297419/d3de7c02/DICAS_AIWA_-_4.html>
--------------------------------------------------------------------------------------------------CAPACITOR_SMD_-_cdigo
http://www.4shared.com/file/12792375/8dbed591/CAPACITOR_SMD_-_cdigo.html>
--------------------------------------------------------------------------------------------------CCE_HPS
http://www.4shared.com/file/12893890/26e836c1/CCE_HPS.html>
--------------------------------------------------------------------------------------------------DIODOS_SMD_-_tabela
http://www.4shared.com/file/12792359/b63efb38/DIODOS_SMD_-_tabela.html>
--------------------------------------------------------------------------------------------------TDA_8361
http://www.4shared.com/file/12984195/32b83b6d/O_TDA_8361.html>
--------------------------------------------------------------------------------------------------setupdetv
http://www.4shared.com/file/12577962/c2701bfd/setupdetv.html>
--------------------------------------------------------------------------------------------------TABELA_DE_EQUIVALENCIAS_DE_TRANSISTORES
http://www.4shared.com/file/12578106/c537398c/TABELA_DE_EQUIVALENCIAS_DE_TRANSIS
TORES.html>
--------------------------------------------------------------------------------------------------Databook_Small_Signal_Transistor_Cross_Reference
http://www.4shared.com/file/12578185/94e7e23e/Databook_Small_Signal_Transistor_C
ross_Reference.html>
--------------------------------------------------------------------------------------------------esquemas de monitores OPTIQUEST
http://www.4shared.com/file/13882069/f5148673/Optiquest.html>
--------------------------------------------------------------------------------------------------esquemas de monitores NOKIA
http://www.4shared.com/file/13880009/947e97e/Nokia.html>
--------------------------------------------------------------------------------

-------------------esquemas dos monitores DATAS - DELL -DELTA -DIAMOND e DIAMOND LCD


http://www.4shared.com/file/13768747/40e33a3/esquemas_monitores_DATAS-DELL-DELTA
-DIAMOND_e_DIAMOND_LCD.html>
--------------------------------------------------------------------------------------------------aiwa_nsx__f9__f98__f99__f12__f15__trasistorizados
http://www.4shared.com/file/13868792/309c0bb4/aiwa_nsx__f9__f98__f99__f12__f15__
trasistorizados.html>
--------------------------------------------------------------------------------------------------philips_combi-14pv162
http://82.171.205.59/downloads/tv_philips/14pv162/philips_combi-14pv162.pdf>
--------------------------------------------------------------------------------------------------14pv320tvcr-delta-part1
http://82.171.205.59/downloads/tv_philips/14pv320/14pv320tvcr-delta-part1.pdf>
--------------------------------------------------------------------------------------------------part_1_tv-video_philips_14pv325_327
http://82.171.205.59/downloads/tv_philips/14pv325/part_1_tv-video_philips_14pv32
5_327.pdf>
--------------------------------------------------------------------------------------------------philips_tv_21cn4462
http://82.171.205.59/downloads/tv_philips/21cn4462/philips_tv_21cn4462.pdf>
--------------------------------------------------------------------------------------------------tv_philips/2a/Philips%20-%202A
http://82.171.205.59/downloads/tv_philips/2a/Philips%20-%202A.pdf>
--------------------------------------------------------------------------------------------------tv_philips/2b/2B-1
http://82.171.205.59/downloads/tv_philips/2b/2B-1.pdf>
--------------------------------------------------------------------------------------------------tv_philips/2b/2B-2
http://82.171.205.59/downloads/tv_philips/2b/2B-2.pdf>
--------------------------------------------------------------------------------------------------PHILIPS%20CHASSIS%202B%20tips
http://82.171.205.59/downloads/tv_philips/2b/PHILIPS%20CHASSIS%202B%20tips.pdf>
--------------------------------------------------------------------------------------------------PHILIPS%20CHASSIS%202Bsch
http://82.171.205.59/downloads/tv_philips/2b/PHILIPS%20CHASSIS%202Bsch.pdf>
--------------------------------------------------------------------------------------------------Philips%20chassis%202B%20full
http://82.171.205.59/downloads/tv_philips/2b/Philips%20chassis%202B%20full.pdf>
--------------------------------------------------------------------------------------------------T%20PHILIPS%202B-full
http://82.171.205.59/downloads/tv_philips/2b/T%20PHILIPS%202B-full.pdf>
--------------------------------------------------------------------------------------------------ancienchassis
http://82.171.205.59/downloads/tv_philips/2b/ancienchassis.pdf>
---------------------------------------------------------------------------------------------------

service_tips_chassis_3a_3d_158
http://82.171.205.59/downloads/tv_philips/3d/service_tips_chassis_3a_3d_158.pdf>
--------------------------------------------------------------------------------------------------COMBIALPHA/ancienchassis
http://82.171.205.59/downloads/tv_philips/COMBIALPHA/ancienchassis.pdf>
--------------------------------------------------------------------------------------------------COMBIBETA/ancienchassis
http://82.171.205.59/downloads/tv_philips/COMBIBETA/ancienchassis.pdf>
--------------------------------------------------------------------------------------------------EPSILON2001/14PV110pasw.%20epsilon
http://82.171.205.59/downloads/tv_philips/EPSILON2001/14PV110pasw.%20epsilon.pdf
>
--------------------------------------------------------------------------------------------------21pv908_918-07-39_tvcr_delta_2000_real_flat
http://82.171.205.59/downloads/tv_philips/TVCR_DELTA_2000/21pv908_918-07-39_tvcr
_delta_2000_real_flat.pdf>
--------------------------------------------------------------------------------------------------Miscellaneous
http://82.171.205.59/downloads/tv_philips/Miscellaneous/>
--------------------------------------------------------------------------------------------------a10/Philips_A10E
http://82.171.205.59/downloads/tv_philips/a10/Philips_A10E.PDF>
--------------------------------------------------------------------------------------------------philips_a10e_203
http://82.171.205.59/downloads/tv_philips/a10/philips_a10e_203.pdf>
--------------------------------------------------------------------------------------------------tv_philips/cg110/Tv2
http://82.171.205.59/downloads/tv_philips/cg110/Tv2.bmp>
--------------------------------------------------------------------------------------------------Philips-chassis%20CTZ
http://82.171.205.59/downloads/tv_philips/ctz/Philips-chassis%20CTZ.pdf>
--------------------------------------------------------------------------------------------------tv_philips/d16/ancienchassis
http://82.171.205.59/downloads/tv_philips/d16/ancienchassis.pdf>
--------------------------------------------------------------------------------------------------philips%20%20d%2016-----atohmio%20
http://82.171.205.59/downloads/tv_philips/d16/philips%20%20d%2016-----atohmio%20
.pdf>
--------------------------------------------------------------------------------------------------philips_dptv300_training_manual
http://82.171.205.59/downloads/tv_philips/dptv300/philips_dptv300_training_manua
l.pdf>
--------------------------------------------------------------------------------------------------philips_dptv400_training_manual
http://82.171.205.59/downloads/tv_philips/dptv400/philips_dptv400_training_manua
l.pdf>

--------------------------------------------------------------------------------------------------philips_e8_training_manual
http://82.171.205.59/downloads/tv_philips/e8/philips_e8_training_manual.pdf>
--------------------------------------------------------------------------------------------------philips_em7u_training_manual
http://82.171.205.59/downloads/tv_philips/em7u/philips_em7u_training_manual.pdf>
--------------------------------------------------------------------------------------------------philips_combi_21pv267
http://82.171.205.59/downloads/tv_philips/evolution/philips_combi_21pv267.pdf>
--------------------------------------------------------------------------------------------------philips_ch_mg3_1_em5e_em2e_f21re_fm2223
http://82.171.205.59/downloads/tv_philips/f21r/philips_ch_mg3_1_em5e_em2e_f21re_
fm2223.pdf>
--------------------------------------------------------------------------------------------------philips_latest_models_faults
http://82.171.205.59/downloads/tv_philips/f21r/philips_latest_models_faults.pdf>
--------------------------------------------------------------------------------------------------tv_philips/f22r/F22RE%20AA
http://82.171.205.59/downloads/tv_philips/f22r/F22RE%20AA.pdf>
--------------------------------------------------------------------------------------------------philips_f8_training_manual
http://82.171.205.59/downloads/tv_philips/f8/philips_f8_training_manual.pdf>
--------------------------------------------------------------------------------------------------Philips%20C-FL
http://82.171.205.59/downloads/tv_philips/fl/Philips%20C-FL.pdf>
--------------------------------------------------------------------------------------------------philips_tv_chassis-fl1-0aa
http://82.171.205.59/downloads/tv_philips/fl10/philips_tv_chassis-fl1-0aa.pdf>
--------------------------------------------------------------------------------------------------tv_philips/fl11/FL1.1
http://82.171.205.59/downloads/tv_philips/fl11/FL1.1.PDF>
--------------------------------------------------------------------------------------------------tv_philips/fl110/FL1.10
http://82.171.205.59/downloads/tv_philips/fl110/FL1.10.pdf>
--------------------------------------------------------------------------------------------------philips_tvcr99_chassis_tv-vcr_d
http://82.171.205.59/downloads/tv_philips/tvcr99/philips_tvcr99_chassis_tv-vcr_d
.pdf>
--------------------------------------------------------------------------------------------------Philips28PW6515_12NC
http://82.171.205.59/downloads/tv_philips/12nc/Philips28PW6515_12NC.pdf>
--------------------------------------------------------------------------------------------------tv_philips/12nc/philips%20L9.2
http://82.171.205.59/downloads/tv_philips/12nc/philips%20L9.2.pdf>

--------------------------------------------------------------------------------------------------tv_philips/30pf9975
http://82.171.205.59/downloads/tv_philips/30pf9975/>
--------------------------------------------------------------------------------------------------tv_philips/3a/
http://82.171.205.59/downloads/tv_philips/3a/>
--------------------------------------------------------------------------------------------------tv_philips/a80/
http://82.171.205.59/downloads/tv_philips/a80/>
--------------------------------------------------------------------------------------------------tv_philips/aa5/
http://82.171.205.59/downloads/tv_philips/aa5/>
--------------------------------------------------------------------------------------------------tv_philips/anubis/
http://82.171.205.59/downloads/tv_philips/anubis/>
--------------------------------------------------------------------------------------------------tv_philips/cp110/
http://82.171.205.59/downloads/tv_philips/cp110/>
--------------------------------------------------------------------------------------------------tv_philips/cp90/
http://82.171.205.59/downloads/tv_philips/cp90/>
--------------------------------------------------------------------------------------------------ARQUIVOS EPROM P TV
--------------------------------------------------------------------------------------------------tv_philips/dumps/
http://82.171.205.59/downloads/tv_philips/dumps/>
--------------------------------------------------------------------------------------------------tv_philips/em2/
http://82.171.205.59/downloads/tv_philips/em2/>
--------------------------------------------------------------------------------------------------tv_philips/em3/
http://82.171.205.59/downloads/tv_philips/em3/>
--------------------------------------------------------------------------------------------------tv_philips/em5/
http://82.171.205.59/downloads/tv_philips/em5/>
--------------------------------------------------------------------------------------------------tv_philips/tvvcr/
http://82.171.205.59/downloads/tv_philips/tvvcr/>
--------------------------------------------------------------------------------------------------tv_philips/107P2CM25GSIII/
http://82.171.205.59/downloads/tv_philips/107P2CM25GSIII/>
--------------------------------------------------------------------------------------------------mitsub -tc-2910
http://www.4shared.com/file/9185227/dd5431ed/TC2910.html>
--------------------------------------------------------------------------------

-------------------mitsub.TC-1410-2010-2004ST
http://www.4shared.com/file/9187003/41828b93/TC-1410-2010-2004ST-completo.html>
--------------------------------------------------------------------------------------------------mitsubishi_tc-2909
http://www.4shared.com/file/4297672/a76a6bae/mitsubishi_tc-2909.html>
--------------------------------------------------------------------------------------------------semp 2082EAV
http://www.4shared.com/file/9120214/121edb07/semp_2082_EAV.html>
--------------------------------------------------------------------------------------------------mitsub.TC-1410-2010-2004ST
http://www.4shared.com/file/9187003/41828b93/TC-1410-2010-2004ST-completo.html>
--------------------------------------------------------------------------------------------------mitsub -tc-2910
http://www.4shared.com/file/9185227/dd5431ed/TC2910.html>
--------------------------------------------------------------------------------------------------mitsubishi_tc-2909
http://www.4shared.com/file/4297672/a76a6bae/mitsubishi_tc-2909.html>
--------------------------------------------------------------------------------------------------Sony_LBT_-_N555AV
http://www.4shared.com/file/7792360/4f8234/Sony_LBT_-_N555AV.html?s=1>
--------------------------------------------------------------------------------------------------SONY_mhc-rg330
http://www.4shared.com/file/5002199/7a05b1d1/SONY_mhc-rg330.html?s=1>
--------------------------------------------------------------------------------------------------SONY_cdx-ca597x
http://www.4shared.com/file/4977016/27273a21/SONY_cdx-ca597x.html?s=1>
--------------------------------------------------------------------------------------------------SONY_mhc-dx30
http://www.4shared.com/file/4993610/fa9bca90/SONY_mhc-dx30_.html?s=1>
--------------------------------------------------------------------------------------------------sony_video_game_ps2
http://www.4shared.com/file/8031285/5c2cc61c/sony_video_game_ps2.html?s=1>
--------------------------------------------------------------------------------------------------sony_playstation_scph1002psu
http://www.4shared.com/file/8032387/a15562e9/sony_playstation_scph1002psu.html?s
=1>
--------------------------------------------------------------------------------------------------SONY_mhc-dx80ta
http://www.4shared.com/file/4997415/6177d26/SONY_mhc-dx80ta.html?s=1>
--------------------------------------------------------------------------------------------------SONY_lbt-n355
http://www.4shared.com/file/4992919/30a7526c/SONY_lbt-n355.html?s=1>
--------------------------------------------------------------------------------------------------SONY_mhc-rg111
http://www.4shared.com/file/4998023/9b33335a/SONY_mhc-rg111.html?s=1>

--------------------------------------------------------------------------------------------------SONY_cdx-m757
http://www.4shared.com/file/4988967/ca832078/SONY_cdx-m757.html?s=1>
--------------------------------------------------------------------------------------------------SONY_hch-h605
http://www.4shared.com/file/4991558/3863f174/SONY_hch-h605.html?s=1>
--------------------------------------------------------------------------------------------------SONY_mhc-dx70
http://www.4shared.com/file/4994425/3f8f810b/SONY_mhc-dx70.html?s=1>
--------------------------------------------------------------------------------------------------sony_kv29fa210
http://www.4shared.com/file/7436682/354ff125/sony_kv29fa210.html?s=1>
--------------------------------------------------------------------------------------------------sony_slv_ex50_80_90
http://www.4shared.com/file/7614803/1d0e5c51/sony_slv_ex50_80_90.html?s=1>
--------------------------------------------------------------------------------------------------sony-cdp-c160z_c260z_ce215_ce315
http://www.4shared.com/file/8357345/dde43bf5/sony-cdp-c160z_c260z_ce215_ce315.ht
ml?s=1>
--------------------------------------------------------------------------------------------------manual_sony_dsc_w50
http://www.4shared.com/file/7886823/b22bf559/manual_sony_dsc_w50.html?s=1>
--------------------------------------------------------------------------------------------------sony-cdp-ce275_375
http://www.4shared.com/file/8357430/e7804f38/sony-cdp-ce275_375.html?s=1>
--------------------------------------------------------------------------------------------------Sony_DSC-R1_PT
http://www.4shared.com/file/7669402/2359916e/Sony_DSC-R1_PT.html?s=1>
--------------------------------------------------------------------------------------------------sony_dsc_n1
http://www.4shared.com/file/3252306/de04d826/sony_dsc_n1.html?s=1>
--------------------------------------------------------------------------------------------------Manual_Sony_W30
http://www.4shared.com/file/6885999/40a0be1/Manual_Sony_W30.html?s=1>
--------------------------------------------------------------------------------------------------Sony_DSC-S600_PT
http://www.4shared.com/file/7663145/b027e346/Sony_DSC-S600_PT.html?s=1>
--------------------------------------------------------------------------------------------------Sony_Digital_voice_editor_231b
http://www.4shared.com/file/8820557/6b4c0340/Sony_Digital_voice_editor_231b.html
?s=1>
--------------------------------------------------------------------------------------------------SONY_PFM500A2WU
http://www.4shared.com/file/6618709/1a26467e/SONY_PFM500A2WU.html?s=1>
---------------------------------------------------------------------------------------------------

Sony_s500
http://www.4shared.com/file/7657097/22877b97/Sony_s500.html?s=1>
--------------------------------------------------------------------------------------------------Sony_Cybershot_W30
http://www.4shared.com/file/8042409/395b0f73/Sony_Cybershot_W30.html?s=1>
--------------------------------------------------------------------------------------------------video_sony_sv-356
http://www.4shared.com/file/4548711/d40d13fa/video_sony_sv-356.html?s=1>
--------------------------------------------------------------------------------------------------sony-xr-3750
http://www.4shared.com/file/4855885/7a6ac924/sony-xr-3750.html?s=1>
--------------------------------------------------------------------------------------------------Sony_s500
http://www.4shared.com/file/7657177/bdc63c2e/Sony_s500_cont.html?s=1>
--------------------------------------------------------------------------------------------------LCD 190cf6fs
http://www.4shared.com/file/9307334/8b351960/190C6FS.html>
--------------------------------------------------------------------------------------------------Televisor Semp TV 102
http://www.4shared.com/file/9288931/5587e00b/TVTOSHIBATVC102_103VSCR.html>
--------------------------------------------------------------------------------------------------AZ9855
http://www.4shared.com/file/9301160/d7c0a28e/AZ9855.html>
--------------------------------------------------------------------------------------------------cce-hps-1492-ou2092
http://www.4shared.com/file/9295498/1166d21b/HPS_2092.html>
--------------------------------------------------------------------------------------------------hps-2092b
http://www.4shared.com/file/9285856/6e1160c4/hps-_2092b.html>
--------------------------------------------------------------------------------------------------LG 20cb20a
http://www.4shared.com/file/9365674/ccdb23a4/_RP-20CB20_.html>
--------------------------------------------------------------------------------------------------sony Kp43t75b e 53sv75b
http://www.4shared.com/file/9363480/6ac170c0/KP-43T75B-53SV75B_.html>
--------------------------------------------------------------------------------------------------gradiente_E425-450-e550
http://www.4shared.com/file/4888732/65cde1d/gradiente_E425-450-e550.html?s=1>
--------------------------------------------------------------------------------------------------INFORMAO_TCNICA_DOS_APARELHOS
http://www.4shared.com/file/9322540/8a8a945e/INFORMAO_TCNICA_DOS_APARELHOS.html>
--------------------------------------------------------------------------------------------------LG 20cb20a
http://www.4shared.com/file/9365674/ccdb23a4/_RP-20CB20_.html>
---------------------------------------------------------------------------------------------------

EEPROM_ACANA
http://www.4shared.com/file/9317391/3cd02cd5/EEPROM_ACANA.html>
--------------------------------------------------------------------------------------------------EEPROM_ACER
http://www.4shared.com/file/9317413/1f48d174/EEPROM_ACER.html>
--------------------------------------------------------------------------------------------------EEPROM_ADMIRAL
http://www.4shared.com/file/9317450/e22d45ca/EEPROM_ADMIRAL.html>
--------------------------------------------------------------------------------------------------EEPROM_AIWA
http://www.4shared.com/file/9317502/7096ba94/EEPROM_AIWA.html>
--------------------------------------------------------------------------------------------------EEPROM_AKAI
http://www.4shared.com/file/9317905/e7e8d653/EEPROM_AKAI.html>
--------------------------------------------------------------------------------------------------EEPROM_AOC
http://www.4shared.com/file/9318556/52ef9a9e/EEPROM_AOC.html>
--------------------------------------------------------------------------------------------------EEPROM_AUTOMITIVO
http://www.4shared.com/file/9318705/b515eb0f/EEPROM_AUTOMITIVO.html>
--------------------------------------------------------------------------------------------------EEPROM_BLUESK
http://www.4shared.com/file/9319018/6f4cd713/EEPROM_BLUESK.html>
--------------------------------------------------------------------------------------------------EEPROM_CCE
http://www.4shared.com/file/9316767/ed9e5a96/EEPROM_CCE.html>
--------------------------------------------------------------------------------------------------EEPROM_CINERAL
http://www.4shared.com/file/9319071/40cac831/EEPROM_CINERAL.html>
--------------------------------------------------------------------------------------------------EEPROM_COMPAQ
http://www.4shared.com/file/9319338/5f3c0bc8/EEPROM_COMPAQ.html>
--------------------------------------------------------------------------------------------------EEPROM_COPIADORA
http://www.4shared.com/file/9319430/54a8957f/EEPROM_COPIADORA.html>
--------------------------------------------------------------------------------------------------EEPROM_CROWN
http://www.4shared.com/file/9319439/2d742ddb/EEPROM_CROWN.html>
--------------------------------------------------------------------------------------------------EEPROM_DAEWOO
http://www.4shared.com/file/9319458/c29bacb/EEPROM_DAEWOO.html>
--------------------------------------------------------------------------------------------------EEPROM_DELL
http://www.4shared.com/file/9319575/416ccec3/EEPROM_DELL.html>
---------------------------------------------------------------------------------------------------

EEPROM_GENERAL_ELETRIC
http://www.4shared.com/file/9321304/ffb3461f/EEPROM_GENERAL_ELETRIC.html>
--------------------------------------------------------------------------------------------------EEPROM_GOLDSTAR
http://www.4shared.com/file/9321326/238b45b1/EEPROM_GOLDSTAR.html>
--------------------------------------------------------------------------------------------------EEPROM_GORIZONT
http://www.4shared.com/file/9321335/a399254a/EEPROM_GORIZONT.html>
--------------------------------------------------------------------------------------------------EEPROM_GRADIENTE
http://www.4shared.com/file/9316788/e3a26a89/EEPROM_GRADIENTE.html>
--------------------------------------------------------------------------------------------------EEPROM_GRUNDIG
http://www.4shared.com/file/9321634/d255d737/EEPROM_GRUNDIG.html>
--------------------------------------------------------------------------------------------------EEPROM_HITACHI
http://www.4shared.com/file/9316869/17a30ac/EEPROM_HITACHI.html>
--------------------------------------------------------------------------------------------------EEPROM_HYUNDAI
http://www.4shared.com/file/9321754/85cd1a86/EEPROM_HYUNDAI.html>
--------------------------------------------------------------------------------------------------EEPROM_ITT
http://www.4shared.com/file/9321859/f0202106/EEPROM_ITT.html>
--------------------------------------------------------------------------------------------------EEPROM_JVC
http://www.4shared.com/file/9316972/8e71b252/EEPROM_JVC.html>
--------------------------------------------------------------------------------------------------EEPROM_LG
http://www.4shared.com/file/9316379/1434ee0c/EEPROM_LG.html>
--------------------------------------------------------------------------------------------------EEPROM_MITSUBISHI
http://www.4shared.com/file/9321915/9c38c21e/EEPROM_MITSUBISHI.html>
--------------------------------------------------------------------------------------------------EEPROM_NOBLEX
http://www.4shared.com/file/9321938/d0bfdc21/EEPROM_NOBLEX.html>
--------------------------------------------------------------------------------------------------EEPROM_NOKIA
http://www.4shared.com/file/9321954/8f53378c/EEPROM_NOKIA.html>
--------------------------------------------------------------------------------------------------EEPROM_ORION
http://www.4shared.com/file/9321965/d37954d9/EEPROM_ORION.html>
--------------------------------------------------------------------------------------------------EEPROM_PANASONIC
http://www.4shared.com/file/9322042/624f3799/EEPROM_PANASONIC.html>
---------------------------------------------------------------------------------------------------

EEPROM_PANAVOX
http://www.4shared.com/file/9322069/c7ab8c93/EEPROM_PANAVOX.html>
--------------------------------------------------------------------------------------------------EEPROM_PHILCO
http://www.4shared.com/file/9316311/4cb5c1b8/EEPROM_PHILCO.html>
--------------------------------------------------------------------------------------------------EEPROM_PHILIPS
http://www.4shared.com/file/9316261/2363d48/EEPROM_PHILIPS.html>
--------------------------------------------------------------------------------------------------EEPROM_PROVIEW
http://www.4shared.com/file/9322079/deb0bdd2/EEPROM_PROVIEW.html>
--------------------------------------------------------------------------------------------------EEPROM_PUNKTAL
http://www.4shared.com/file/9322114/f7990cde/EEPROM_PUNKTAL.html>
--------------------------------------------------------------------------------------------------EEPROM_RCA
http://www.4shared.com/file/9322133/5bcbfbff/EEPROM_RCA.html>
--------------------------------------------------------------------------------------------------EEPROM_SAMSUNG
http://www.4shared.com/file/9322168/b16ed632/EEPROM_SAMSUNG.html>
--------------------------------------------------------------------------------------------------EEPROM_SANYO
http://www.4shared.com/file/9322203/72a01665/EEPROM_SANYO.html>
--------------------------------------------------------------------------------------------------EEPROM_SAT
http://www.4shared.com/file/9322273/3de180a2/EEPROM_SAT.html>
--------------------------------------------------------------------------------------------------EEPROM_SCHNEIDER
http://www.4shared.com/file/9322292/d4659dba/EEPROM_SCHNEIDER.html>
--------------------------------------------------------------------------------------------------EEPROM_SEMP_TOSHIBA
http://www.4shared.com/file/9318000/c0300905/EEPROM_SEMP_TOSHIBA.html>
--------------------------------------------------------------------------------------------------EEPROM_SHARP
http://www.4shared.com/file/9322341/f900d87a/EEPROM_SHARP.html>
--------------------------------------------------------------------------------------------------EEPROM_SONY
http://www.4shared.com/file/9322396/d2ca3394/EEPROM_SONY.html>
--------------------------------------------------------------------------------------------------EEPROM_TELEFUNKEN
http://www.4shared.com/file/9322423/441b0855/EEPROM_TELEFUNKEN.html>
--------------------------------------------------------------------------------------------------EEPROM_THOMSON
http://www.4shared.com/file/9322434/c364acb7/EEPROM_THOMSON.html>
---------------------------------------------------------------------------------------------------

EEPROM_VESTEL
http://www.4shared.com/file/9322450/9253cf28/EEPROM_VESTEL.html>
--------------------------------------------------------------------------------------------------EEPROM_VIEWSONIC
http://www.4shared.com/file/9322458/9c88471a/EEPROM_VIEWSONIC.html>
--------------------------------------------------------------------------------------------------EEPROM_ZENITH
http://www.4shared.com/file/9322466/501d39de/EEPROM_ZENITH.html>
--------------------------------------------------------------------------------------------------macintosh
http://www.4shared.com/file/9491790/44c0903a/macintosh.html>
--------------------------------------------------------------------------------------------------sony kv2970 e 3470
http://www.4shared.com/file/9490241/381e7b6f/KV-2970T_e_KV-3470T.html>
--------------------------------------------------------------------------------------------------hps-2081
http://www.4shared.com/file/5643260/1d62895b/hps2081.html?s=1>
--------------------------------------------------------------------------------------------------chassis L7PLUS philips
http://www.4shared.com/file/9457120/4322879e/L7_PLUS.html>
--------------------------------------------------------------------------------------------------cce hps 2080
http://www.4shared.com/file/9435256/c20f371e/HPS2080_D.html>
--------------------------------------------------------------------------------------------------13GL1343 chassis GR1L1
http://www.4shared.com/file/9478350/2d448601/GR1_L1.html>
--------------------------------------------------------------------------------------------------PHILIPS 20GL1345
http://www.4shared.com/file/9476542/3e03dded/GR1_L1_2__VERSAO_20GL1345.html>
--------------------------------------------------------------------------------------------------FWC 505 philips
http://www.4shared.com/file/9429123/88d47d07/FWC_505.html>
--------------------------------------------------------------------------------------------------ROLAND E480 E 500
http://www.4shared.com/file/9457459/73746b16/E-500.html>
--------------------------------------------------------------------------------------------------SONY 2970 E 3470
http://www.4shared.com/file/6103395/323f87c9/KV-2970t_KV-3470T.html>
--------------------------------------------------------------------------------------------------21PT5435
http://www.4shared.com/file/9535331/c0afbca9/20PT3331_21pt5435.html>
--------------------------------------------------------------------------------------------------FWC 505 philips
http://www.4shared.com/file/9429123/88d47d07/FWC_505.html>
---------------------------------------------------------------------------------------------------

14-20f62 14-20j22 14-20j52


http://www.4shared.com/file/9673531/925d4ba9/CP-14_20F62_14_20J22_14_20J52_ESQ.h
tml>
--------------------------------------------------------------------------------------------------LG CP20K40
http://www.4shared.com/file/9707207/a3423338/Esquema_LG_CP20K40.html>
--------------------------------------------------------------------------------------------------PHILIPS CHASSI G8
http://www.4shared.com/file/9694148/812e4bce/G8_29SX8879.html>
--------------------------------------------------------------------------------------------------LG CP20K70
http://www.4shared.com/file/9688600/99608675/cp20k70.html>
--------------------------------------------------------------------------------------------------AZ 1202 e 1602 philips
http://www.4shared.com/file/9689942/a0e20205/AZ_1602_AZ_1202.html>
--------------------------------------------------------------------------------------------------philco tp1452n e 2052n
http://www.4shared.com/file/9684720/e0423178/TP-1452N_e_2052N.html>
--------------------------------------------------------------------------------------------------SONY WEGA 29-34-38
http://www.4shared.com/file/5223610/41fb00f6/wega_29-34-38_modelo2002_ver_12.htm
l>
--------------------------------------------------------------------------------------------------PHILCO 2976
http://www.4shared.com/file/6673624/f2240d7/Tvphilco2976.html>
--------------------------------------------------------------------------------------------------Toshiba MS 6531 (Som)
http://www.mediamax.com/esquemasvip/Hosted/system%20MS6526CD_MS6531CD_ms6539.ps.
pdf>
--------------------------------------------------------------------------------------------------panasonic sa ak22
http://www.4shared.com/file/9927748/11901b56/sa-ak22.html>
--------------------------------------------------------------------------------------------------sony mhc-dx8ta
http://www.4shared.com/file/9915633/25688c75/MHC-DX8TA_ver_10.html>
--------------------------------------------------------------------------------------------------som Toshiba CM7215
http://www.4shared.com/file/9918016/91d3be17/CM7215CD.html>
http://www.mediamax.com/esquemasvip/Hosted/TOSHIBA%20CM%207215CD.pdf>
--------------------------------------------------------------------------------------------------29PT558 838 848 458 658 578
http://www.4shared.com/file/9888800/a9f4ca0f/29pt558_838_848_458_658_578.html>
--------------------------------------------------------------------------------------------------Tv Philips 29PT5642
http://www.4shared.com/file/9891052/74f668e4/29pt5642_28pw644132pw6542_29pt5642.
html>
--------------------------------------------------------------------------------

-------------------panasonic SA AK27
http://www.4shared.com/file/10059879/10363dca/saak27.html>
--------------------------------------------------------------------------------------------------21PT5433
http://www.4shared.com/file/10005511/c259b1e5/21PT5433.html>
--------------------------------------------------------------------------------------------------dvd MCD_700
http://www.4shared.com/file/10002083/668991d2/MCD_700.html>
--------------------------------------------------------------------------------------------------toshiba LEM4R
http://www.mediamax.com/esquemasvip/Hosted/TV%20TOSHIBA%20LEM4R.pdf>
--------------------------------------------------------------------------------------------------fw 650c
http://www.4shared.com/file/9997665/2b055e4f/FW650.html>
--------------------------------------------------------------------------------------------------L7PLUS
http://www.4shared.com/file/10004964/4cd44dac/_2__L7_PLUS.html>
--------------------------------------------------------------------------------------------------magnavox MCS_240
http://www.4shared.com/file/10000510/82807141/MCS_240.html>
--------------------------------------------------------------------------------------------------pcs2956
http://www.4shared.com/file/10080798/7776ecd4/pcs2956.html>
http://www.4shared.com/file/9910929/e024e325>
--------------------------------------------------------------------------------------------------sony mhc gn 880-br
http://www.4shared.com/file/10236342/3a771c9d/MHC-GN880__BR_.html>
--------------------------------------------------------------------------------------------------Tv Philco mod. PF29S4F
http://www.4shared.com/file/10234528/227ce63c/tpf29s4f_pf2121f_vfinal_.html>
--------------------------------------------------------------------------------------------------chassis L7L philips
http://www.4shared.com/file/10233647/7b08dacb/l7l_14pt110.html>
--------------------------------------------------------------------------------------------------Motordio_RPF-M71AC
http://www.4shared.com/file/10290541/c82876e8/Motordio_RPF-M71AC.html>
--------------------------------------------------------------------------------------------------lbt-a390-original
http://www.4shared.com/file/10290885/6b286eae/lbt-a390-original.html>
--------------------------------------------------------------------------------------------------LBT-46W
http://www.4shared.com/file/10292202/9a0b3c58/LBT-46W.html>
--------------------------------------------------------------------------------------------------GT2033_MC83A
http://www.4shared.com/file/10358366/abefeb30/GT2033_MC83A.html>

--------------------------------------------------------------------------------------------------pedal-boss_dd2
http://www.4shared.com/file/10355820/d8dfbc3d/pedal-boss_dd2.html>
--------------------------------------------------------------------------------------------------samsung
http://www.4shared.com/account/file.jsp?id=8642377&sId=T35Cxh631lFVX0JT>
http://www.4shared.com/account/file.jsp?id=8856876&sId=T35Cxh631lFVX0JT>
http://www.4shared.com/account/file.jsp?id=8642191&sId=T35Cxh631lFVX0JT>
http://www.4shared.com/account/file.jsp?id=8786273&sId=T35Cxh631lFVX0JT>
http://www.4shared.com/account/file.jsp?id=9360046&sId=T35Cxh631lFVX0JT>
http://www.4shared.com/account/file.jsp?id=8669820&sId=T35Cxh631lFVX0JT>
--------------------------------------------------------------------------------------------------mitsubishi
http://www.4shared.com/file/9381699/1cbb5ba1>
http://www.4shared.com/file/9381730/9e4a61b8>
http://www.4shared.com/file/9072755/ae0b7820>
http://www.4shared.com/file/9072775/9c3d1aa2>
http://www.4shared.com/file/9072675/9dff7095>
http://www.4shared.com/file/9072787/f5ab6741>
http://www.4shared.com/file/8876693/2f59e6a0>
http://www.4shared.com/file/8652326/75a4ac48>
http://www.4shared.com/file/8345554/201ca7ab>
http://www.4shared.com/file/8345555/571b973d>
http://www.4shared.com/file/8864447/97769a1>
http://www.4shared.com/file/9381669/9b23476e>
http://www.4shared.com/file/9381604/b3c89c55>
http://www.4shared.com/file/9381517/319c42f7>
http://www.4shared.com/file/9381568/ee62c9a1>
http://www.4shared.com/file/8876662/dfc6caf9>
http://www.4shared.com/file/9072813/28585f2c>
http://www.4shared.com/file/8864155/f8a9fb27>
http://www.4shared.com/file/8864285/4f413b33>
http://www.4shared.com/file/9381466/8188e91>
http://www.4shared.com/file/9887256/68140eff>
--------------------------------------------------------------------------------------------------lg
http://www.4shared.com/file/8834377/eff5a397>
http://www.4shared.com/file/8767315/7ca2f776>
http://www.4shared.com/file/8731743/234de76>
http://www.4shared.com/file/8860959/706e71e3>
http://www.4shared.com/file/8675386/685c2f1b>
http://www.4shared.com/file/8345510/431da6b6>
http://www.4shared.com/file/8618146/ba479904>
http://www.4shared.com/file/8345552/c97f029e>
http://www.4shared.com/file/8345553/be783208>
http://www.4shared.com/file/8958370/7f5baf89>
http://www.4shared.com/file/8834234/13525d1e>
http://www.4shared.com/file/8761515/5d44d418>
http://www.4shared.com/file/8834173/eb1cb3e0>
http://www.4shared.com/file/8767859/1d2d91b8>
http://www.4shared.com/file/8767651/19683480>
http://www.4shared.com/file/9220461/af2cb753>
--------------------------------------------------------------------------------------------------gradiente
http://www.4shared.com/file/8774768/658e338e>

http://www.4shared.com/file/8679184/cf0025e1>
http://www.4shared.com/file/9402195/2f82d598>
http://www.4shared.com/file/8809729/c7f97004>
http://www.4shared.com/file/9522803/a96e70ae>
http://www.4shared.com/file/8900791/9c82bdd2>
http://www.4shared.com/file/8618320/6fa4fd9>
http://www.4shared.com/file/8618214/2b78b234>
http://www.4shared.com/file/8680334/d028f01f>
http://www.4shared.com/file/9190896/4e8e84e4>
--------------------------------------------------------------------------------------------------panasonic
http://www.4shared.com/account/file.jsp?id=8777152&sId=T35Cxh631lFVX0JT>
http://www.4shared.com/account/file.jsp?id=9360478&sId=T35Cxh631lFVX0JT>
http://www.4shared.com/account/file.jsp?id=8813446&sId=T35Cxh631lFVX0JT>
http://www.4shared.com/account/file.jsp?id=8774592&sId=T35Cxh631lFVX0JT>
http://www.4shared.com/account/file.jsp?id=8678768&sId=T35Cxh631lFVX0JT>
http://www.4shared.com/account/file.jsp?id=8829989&sId=T35Cxh631lFVX0JT>
http://www.4shared.com/account/file.jsp?id=8743929&sId=T35Cxh631lFVX0JT>
http://www.4shared.com/account/file.jsp?id=8777109&sId=T35Cxh631lFVX0JT>
http://www.4shared.com/account/file.jsp?id=8680828&sId=T35Cxh631lFVX0JT>
http://www.4shared.com/account/file.jsp?id=8777008&sId=T35Cxh631lFVX0JT>
http://www.4shared.com/account/file.jsp?id=8769237&sId=T35Cxh631lFVX0JT>
http://www.4shared.com/account/file.jsp?id=8769376&sId=T35Cxh631lFVX0JT>
--------------------------------------------------------------------------------------------------advance_ra900[1].pdf
http://www.4shared.com/file/8811633/c721c333>
--------------------------------------------------------------------------------------------------BAKOSONIC__CRT_864.pdf
http://www.4shared.com/file/8643164/799e92db>
--------------------------------------------------------------------------------------------------Broksonic CTVG 4545 LSTC.jpg
http://www.4shared.com/file/8463326/c77010f6>
--------------------------------------------------------------------------------------------------CINERAL+TC1470+tc2070[1].pdf
http://www.4shared.com/file/8642054/ebcdcc4a>
--------------------------------------------------------------------------------------------------Esquema TS2933N - V02.pdf
http://www.4shared.com/file/8980519/69742047>
--------------------------------------------------------------------------------------------------KIREI-CTV_1414_2020.pdf
http://www.4shared.com/file/9298961/15903dfe>
--------------------------------------------------------------------------------------------------Man Serv 2932 33 V2.pdf
http://www.4shared.com/file/8980553/edcd0c5d>
--------------------------------------------------------------------------------------------------ManualServico-TC2018S-PS.pdf
http://www.4shared.com/file/8752063/a8b8f03f>
--------------------------------------------------------------------------------------------------Mtek1428.pdf
http://www.4shared.com/file/9317534/b2d84c62>

--------------------------------------------------------------------------------------------------ZENITH CHASSIS E-1.rar


http://www.4shared.com/file/8877109/a3bdc517>
--------------------------------------------------------------------------------------------------JVC AV21TE.pdf
http://www.4shared.com/file/8645272/aecbe72a>
--------------------------------------------------------------------------------------------------tv_sony
http://82.171.205.59/downloads/tv_sony/aa2/>
--------------------------------------------------------------------------------------------------DVD3230
http://www.4shared.com/file/10511983/1640bdb0/DVD3230.html>
--------------------------------------------------------------------------------------------------Informaes tcnicas panasonic
http://www.csweb.lar.panasonic.com/viewing/Brasil/info_tecnica/Inf_tec.pdf>
--------------------------------------------------------------------------------------------------CCE HPS2990
http://www.4shared.com/file/10541002/6eafb3d1/CCE___HPS2990.html>
--------------------------------------------------------------------------------------------------Suporte_Tecnico/Linha_Marrom
ftp://200.183.110.160/Suporte_Tecnico/Linha_Marrom>/
--------------------------------------------------------------------------------------------------DVD LG 3230N
http://www.4shared.com/file/10511983/1640bdb0/DVD3230.html>
--------------------------------------------------------------------------------------------------Samsung_SyncMaster_3Ne_CQB
http://www.4shared.com/file/10727253/80b8a81b/Samsung_SyncMaster_3Ne_CQB.html>
--------------------------------------------------------------------------------------------------sony kv29fs105
http://www.4shared.com/file/10741425/883c4d27/KV-29FS105.html>
--------------------------------------------------------------------------------------------------MONITOR SANSUNG MODELO CQA4147
http://www.4shared.com/file/10727253/80b8a81b/Samsung_SyncMaster_3Ne_CQB.html>
--------------------------------------------------------------------------------------------------esquema tv samsung chassis p54sc,
modelos-CW-5012-CM3313-CM3325-CM5013Z-CM5025J
http://www.4shared.com/file/10830178/76fb0e94/chassis-_P54SC-CW-5012-CM3313_CM33
25__CM5013Z_CM5025J.html>
--------------------------------------------------------------------------------------------------semp-tvc-160-tvc200a
http://www.4shared.com/file/10850835/ecb77902/semp-tvc-160-tvc200a.html>
--------------------------------------------------------------------------------------------------semp-tvc-160/tvc-200a
http://www.4shared.com/file/10850835/ecb77902/semp-tvc-160-tvc200a.html>
---------------------------------------------------------------------------------------------------

esquema-tv samsung- chassis-_P54SC


http://www.4shared.com/file/10830178/76fb0e94/chassis-_P54SC-CW-5012-CM3313_CM33
25__CM5013Z_CM5025J.html>
--------------------------------------------------------------------------------------------------Receiver_gradiente_M1360
http://www.4shared.com/file/11028364/d7222f16/Receiver_-_M1360_-_Esquema_Eletrni
co.html>
--------------------------------------------------------------------------------------------------CHASSIS-U14R-TOSHIBA
http://www.4shared.com/file/11012465/8d7793b1/u14R-esquema.html>
--------------------------------------------------------------------------------------------------TV GRADIENTE MODELO GT-2020
http://www.4shared.com/file/5397277/bd22efec/Gradiente-GT1420-2020.html?s=1>
--------------------------------------------------------------------------------------------------FWM_589
http://www.4shared.com/file/11148401/b0414c9f/FWM_589.html>
--------------------------------------------------------------------------------------------------TC2004ST
http://www.4shared.com/file/11164860/a810ce33/TC2004ST.html>
--------------------------------------------------------------------------------------------------FWM_570
http://www.4shared.com/file/11150926/ec1f29b2/FWM_570.html>
--------------------------------------------------------------------------------------------------mitsubishi_2054-2094
http://www.4shared.com/file/11280265/632be4f2/mitsubishi_2054-2094.html>
--------------------------------------------------------------------------------------------------TPF2121Rev01
http://www.4shared.com/file/11310406/6eb9dfa8/TPF2121Rev01.html>
--------------------------------------------------------------------------------------------------RP-21FB32
http://www.4shared.com/file/11404365/ba2b14e/RP-21FB32.html>
--------------------------------------------------------------------------------------------------Monitor Samsung 500_P
http://www.4shared.com/file/12158920/f120bef5/500_P.html>
--------------------------------------------------------------------------------------------------philips ch L03 1.7
http://www.4shared.com/file/11035469/63d6b443/L031L_AA.html?s=1>
--------------------------------------------------------------------------------------------------SONY mhc-rg111
http://www.4shared.com/file/11532428/bda7e8db/MHC-RG111.html>
--------------------------------------------------------------------------------------------------ESQUEMA KV 3459T Chassis AA-1
http://www.4shared.com/file/5217719/f1273fe2/sony_kv2959t.html>
--------------------------------------------------------------------------------------------------29PT558 838 458 658 578
http://www.4shared.com/file/9888800/a9f4ca0f/29pt558_838_848_458_658_578.html>

--------------------------------------------------------------------------------------------------29PT785 chassis G88


http://www.4shared.com/file/11497567/fe84614f/G88.html>
--------------------------------------------------------------------------------------------------Monitor IBM G50
http://www.4shared.com/file/12279761/ac3d20c6/G50.html>
--------------------------------------------------------------------------------------------------Monitor IBM ibm8513
http://www.4shared.com/file/12279765/ab50e4df/ibm8513.html>
--------------------------------------------------------------------------------------------------TV_TOSHIBA_TV1483FAV_TV2083FAV_U11D2
http://www.4shared.com/file/11811091/f46dce38/TV_TOSHIBA_TV1483FAV_TV2083FAV_U11
D2.html>
--------------------------------------------------------------------------------------------------HRM-290S
http://www.4shared.com/file/11934423/78dcaef4/HRM-290S.html>
--------------------------------------------------------------------------------------------------MHC-DX7
http://www.4shared.com/file/11937114/d9eb0591/MHC-DX7.html>
--------------------------------------------------------------------------------------------------MHC-DX90
http://www.4shared.com/file/11914869/8fbf28ea/MHC-DX90.html>
--------------------------------------------------------------------------------------------------philips AZ2425
http://www.4shared.com/file/11878429/ec038d37/az2425.html>
--------------------------------------------------------------------------------------------------MHC-DX7
http://www.4shared.com/file/11937114/d9eb0591/MHC-DX7.html>
--------------------------------------------------------------------------------------------------Telefone-Toshiba_FT-_8259
http://www.4shared.com/file/11921928/ed683dad/Telefone-Toshiba_FT-_8259.html>
--------------------------------------------------------------------------------------------------telefone-ToshibaFT-5005WBK
http://www.4shared.com/file/11921997/9e23f9f7/telefone-ToshibaFT-5005WBK.html>
--------------------------------------------------------------------------------------------------Telefone-ToshibaFT-5009A4
http://www.4shared.com/file/11922089/7de471d0/Telefone-ToshibaFT-5009A4.html>
--------------------------------------------------------------------------------------------------Telefone-ToshibaFT-7807
http://www.4shared.com/file/11922122/111b2ae5/Telefone-ToshibaFT-7807.html>
--------------------------------------------------------------------------------------------------Telefone-ToshibaFT-8009
http://www.4shared.com/file/11922158/be8f553c/Telefone-ToshibaFT-8009.html>
--------------------------------------------------------------------------------------------------Telefone-ToshibaFT-8808

http://www.4shared.com/file/11922344/ada6fc38/Telefone-ToshibaFT-8808.html>
--------------------------------------------------------------------------------------------------Intelbras_900ID
http://www.4shared.com/file/10507562/eed52fa0/Intelbras_900ID.html>
--------------------------------------------------------------------------------------------------Cygnus_-_Amplificador_-_PA1400X_-_Esquema_Eletrnico
http://www.4shared.com/file/11894076/f324cde6/Cygnus_-_Amplificador_-_PA1400X_-_
Esquema_Eletrnico.html>
--------------------------------------------------------------------------------------------------Cygnus_-_Amplificador_-_PA1800D_-_Esquema_Eletrnico
http://www.4shared.com/file/11894079/639bd077/Cygnus_-_Amplificador_-_PA1800D_-_
Esquema_Eletrnico.html>
--------------------------------------------------------------------------------------------------Cygnus_-_Amplificador_-_PA1800X_-_Esquema_Eletrnico
http://www.4shared.com/file/11894084/9ab2b005/Cygnus_-_Amplificador_-_PA1800X_-_
Esquema_Eletrnico.html>
--------------------------------------------------------------------------------------------------Cygnus_-_Amplificador_-_PA20X_-_Esquema_Eletrnico
http://www.4shared.com/file/11894045/4100cf9f/Cygnus_-_Amplificador_-_PA20X_-_Es
quema_Eletrnico.html>
--------------------------------------------------------------------------------------------------Cygnus_-_Amplificador_-_PA2800_-_Esquema_Eletrnico
http://www.4shared.com/file/11894411/3c13571f/Cygnus_-_Amplificador_-_PA2800_-_E
squema_Eletrnico.html>
--------------------------------------------------------------------------------------------------Cygnus_-_Amplificador_-_PA2800D_-_Esquema_Eletrnico
http://www.4shared.com/file/11894419/32c8df2d/Cygnus_-_Amplificador_-_PA2800D_-_
Esquema_Eletrnico.html>
--------------------------------------------------------------------------------------------------Cygnus_-_Amplificador_-_PA30X_-_Esquema_Eletrnico
http://www.4shared.com/file/11894056/c112af64/Cygnus_-_Amplificador_-_PA30X_-_Es
quema_Eletrnico.html>
--------------------------------------------------------------------------------------------------Cygnus_-_Amplificador_-_PA400_-_Esquema_Eletrnico
http://www.4shared.com/file/11894067/9d38cc31/Cygnus_-_Amplificador_-_PA400_-_Es
quema_Eletrnico.html>
--------------------------------------------------------------------------------------------------Cygnus_-_Amplificador_-_PA50X_-_Esquema_Eletrnico
http://www.4shared.com/file/11894064/4319d8b/Cygnus_-_Amplificador_-_PA50X_-_Esq
uema_Eletrnico.html>
--------------------------------------------------------------------------------------------------Cygnus_-_Amplificador_-_PA800_2_-_Esquema_Eletrnico
http://www.4shared.com/file/11894072/f44909ff/Cygnus_-_Amplificador_-_PA800_2_-_
Esquema_Eletrnico.html>
--------------------------------------------------------------------------------------------------Cygnus_-_Audio_Mobile_Line_-_MPA100_-_Esquema_Eletrnico
http://www.4shared.com/file/11894423/f93065f0/Cygnus_-_Audio_Mobile_Line_-_MPA10
0_-_Esquema_Eletrnico.html>

--------------------------------------------------------------------------------------------------Cygnus_-_Audio_Mobile_Line_-_MPC100_-_Esquema_Eletrnico
http://www.4shared.com/file/11894425/1053c0c5/Cygnus_-_Audio_Mobile_Line_-_MPC10
0_-_Esquema_Eletrnico.html>
--------------------------------------------------------------------------------------------------Cygnus_-_Caixa_amplificada_-_VA25_-_Esquema_Eletrnico
http://www.4shared.com/file/11894428/6ee2bc78/Cygnus_-_Caixa_amplificada_-_VA25_
-_Esquema_Eletrnico.html>
--------------------------------------------------------------------------------------------------Cygnus_-_Compact_Disc_-_CD1800R_-_Esquema_Eletrnico
http://www.4shared.com/file/11894435/948f184/Cygnus_-_Compact_Disc_-_CD1800R_-_E
squema_Eletrnico.html>
--------------------------------------------------------------------------------------------------Cygnus_-_Controle_Remoto_-_RC200_-_Esquema_Eletrnico
http://www.4shared.com/file/11894439/febdaf/Cygnus_-_Controle_Remoto_-_RC200_-_E
squema_Eletrnico.html>
--------------------------------------------------------------------------------------------------Cygnus_-_Controle_Remoto_-_RC800_-_Esquema_Eletrnico
http://www.4shared.com/file/11894453/b671f337/Cygnus_-_Controle_Remoto_-_RC800__Esquema_Eletrnico.html>
--------------------------------------------------------------------------------------------------Cygnus_-_Crossover_2_vias_-_EC2_-_Esquema_Eletrnico
http://www.4shared.com/file/11894513/d3df5c04/Cygnus_-_Crossover_2_vias_-_EC2_-_
Esquema_Eletrnico.html>
--------------------------------------------------------------------------------------------------Cygnus_-_Crossover_3_vias_-_EC3_-_Esquema_Eletrnico
http://www.4shared.com/file/11894577/82e83f9b/Cygnus_-_Crossover_3_vias_-_EC3_-_
Esquema_Eletrnico.html>
--------------------------------------------------------------------------------------------------Cygnus_-_Crossover_4_vias_-_EC400_-_Esquema_Eletrnico
http://www.4shared.com/file/11894670/1eca1461/Cygnus_-_Crossover_4_vias_-_EC400_
-_Esquema_Eletrnico.html>
--------------------------------------------------------------------------------------------------Cygnus_-_Equalizador_-_GE1800_-_Esquema_Eletrnico
http://www.4shared.com/file/11895059/e911d590/Cygnus_-_Equalizador_-_GE1800_-_Es
quema_Eletrnico.html>
--------------------------------------------------------------------------------------------------Cygnus_-_Equalizador_-_GE1800X_-_Esquema_Eletrnico
http://www.4shared.com/file/11895064/bc8dfaee/Cygnus_-_Equalizador_-_GE1800X_-_E
squema_Eletrnico.html>
--------------------------------------------------------------------------------------------------Cygnus_-_Equalizador_-_GE400_-_Manual_de_Instruoes_e_Especi
http://www.4shared.com/file/11894954/20cdf5c7/Cygnus_-_Equalizador_-_GE400_-_Man
ual_de_Instruoes_e_Especi.html>
--------------------------------------------------------------------------------------------------Cygnus_-_Equalizador_-_GE400_2_-_Esquema_Eletrnico
http://www.4shared.com/file/11894958/297bb9ec/Cygnus_-_Equalizador_-_GE400_2_-_E
squema_Eletrnico.html>

--------------------------------------------------------------------------------------------------Cygnus_-_Equalizador_-_GEQ1012_-_Esquema_Eletrnico
http://www.4shared.com/file/11895065/cb8aca78/Cygnus_-_Equalizador_-_GEQ1012_-_E
squema_Eletrnico.html>
--------------------------------------------------------------------------------------------------Cygnus_-_Mixer_-_SAM800_-_Esquema_Eletrnico
http://www.4shared.com/file/11895069/c23c8653/Cygnus_-_Mixer_-_SAM800_-_Esquema_
Eletrnico.html>
--------------------------------------------------------------------------------------------------Cygnus_-_Mixer_-_SM400_-_Esquema_Eletrnico
http://www.4shared.com/file/11895375/d0d74560/Cygnus_-_Mixer_-_SM400_-_Esquema_E
letrnico.html>
--------------------------------------------------------------------------------------------------Cygnus_-_Mixer_para_Microfone_-_MM1000_-_Esquema_Eletrnico
http://www.4shared.com/file/11895386/ce460815/Cygnus_-_Mixer_para_Microfone_-_MM
1000_-_Esquema_Eletrnico.html>
--------------------------------------------------------------------------------------------------Cygnus_-_Mixer_para_Microfone_-_MM800_1_-_Esquema_Eletrnico
http://www.4shared.com/file/11895376/49de14da/Cygnus_-_Mixer_para_Microfone_-_MM
800_1_-_Esquema_Eletrnico.html>
--------------------------------------------------------------------------------------------------Cygnus_-_Mixer_para_Microfone_-_MM800_2_-_Esquema_Eletrnico
http://www.4shared.com/file/11895382/c92bcc0c/Cygnus_-_Mixer_para_Microfone_-_MM
800_2_-_Esquema_Eletrnico.html>
--------------------------------------------------------------------------------------------------Cygnus_-_Pr_Amplificador_-_CP1800_-_Esquema_Eletrnico
http://www.4shared.com/file/11896144/9dcc5db5/Cygnus_-_Pr_Amplificador_-_CP1800_
-_Esquema_Eletrnico.html>
--------------------------------------------------------------------------------------------------Cygnus_-_Pr_Amplificador_-_CP1800X_-_Esquema_Eletrnico
http://www.4shared.com/file/11896147/4c50c0f/Cygnus_-_Pr_Amplificador_-_CP1800X_
-_Esquema_Eletrnico.html>
--------------------------------------------------------------------------------------------------Cygnus_-_Pr_Amplificador_-_CP400_e_SL400_-_Manual_de_Instru
http://www.4shared.com/file/11895917/6514061c/Cygnus_-_Pr_Amplificador_-_CP400_e
_SL400_-_Manual_de_Instru.html>
--------------------------------------------------------------------------------------------------Cygnus_-_Pr_Amplificador_-_CP800_-_Esquema_Eletrnico
http://www.4shared.com/file/11896041/ec64c30d/Cygnus_-_Pr_Amplificador_-_CP800__Esquema_Eletrnico.html>
--------------------------------------------------------------------------------------------------Cygnus_-_Pr_Amplificador_-_SL_e_CP400_1H_-_Esquema_Eletrni
http://www.4shared.com/file/11896149/e37d2108/Cygnus_-_Pr_Amplificador_-_SL_e_CP
400_1H_-_Esquema_Eletrni.html>
--------------------------------------------------------------------------------------------------Cygnus_-_Pr_Power_-_DC1224_12V_24V_-_Esquema_Eletrnico
http://www.4shared.com/file/11896152/6db4c9c1/Cygnus_-_Pr_Power_-_DC1224_12V_24V
_-_Esquema_Eletrnico.html>

--------------------------------------------------------------------------------------------------Cygnus_-_Pr_Power_Integrado_-_AC200_-_Esquema_Eletrnico
http://www.4shared.com/file/11896449/e5b6e3e3/Cygnus_-_Pr_Power_Integrado_-_AC20
0_-_Esquema_Eletrnico.html>
--------------------------------------------------------------------------------------------------Cygnus_-_Redutor_de_Rudos_-_NR800_-_Esquema_Eletrnico
http://www.4shared.com/file/11896578/b85eea81/Cygnus_-_Redutor_de_Rudos_-_NR800_
-_Esquema_Eletrnico.html>
--------------------------------------------------------------------------------------------------Cygnus_-_Tabela_de_Identificaao_para_Beta_dos_Transistores
http://www.4shared.com/file/11896579/cf59da17/Cygnus_-_Tabela_de_Identificaao_pa
ra_Beta_dos_Transistores.html>
--------------------------------------------------------------------------------------------------Cygnus_-_Tuner_-_TU1800X_-_Esquema_Eletrnico
http://www.4shared.com/file/11896584/3670ba65/Cygnus_-_Tuner_-_TU1800X_-_Esquema
_Eletrnico.html>
--------------------------------------------------------------------------------------------------Cygnus_-_Tuner_-_TU800_-_Esquema_Eletrnico
http://www.4shared.com/file/11896582/df131f50/Cygnus_-_Tuner_-_TU800_-_Esquema_E
letrnico.html>
--------------------------------------------------------------------------------------------------cygnus_esquema_eletrico_amplificador_ma800
http://www.4shared.com/file/11896660/add8edab/cygnus_esquema_eletrico_amplificad
or_ma800.html>
--------------------------------------------------------------------------------------------------cygnus_folder_linha_completa
http://www.4shared.com/file/11896718/ed809969/cygnus_folder_linha_completa.html>
--------------------------------------------------------------------------------------------------cygnus SA-4_5
http://www.4shared.com/file/11453104/7c4c45f9/SA-4_5.html>
--------------------------------------------------------------------------------------------------toshiba tv-1480eav-chassis u6b
http://www.4shared.com/file/11972783/509e013b/tv_1480_eav.html>
--------------------------------------------------------------------------------------------------tv-lg--RP-29FA30A_CP-29Q54A-chassis_mc-022a
http://www.4shared.com/file/12003648/76400da8/RP-29FA30A_CP-29Q54A-chassis_mc-02
2a.html>
--------------------------------------------------------------------------------------------------panas/fax/f20
http://www.telemonter.narod.ru/doc/panas/fax/f20.zip>
--------------------------------------------------------------------------------------------------panas/fax/f50
http://www.telemonter.narod.ru/doc/panas/fax/f50.zip>
--------------------------------------------------------------------------------------------------panas/fax/f130-150
http://www.telemonter.narod.ru/doc/panas/fax/f130-150.zip>
--------------------------------------------------------------------------------

-------------------kx-f230
http://www.tomo.ru/down/doc/kx-f230.zip>
--------------------------------------------------------------------------------------------------panas/fax/f390
http://www.telemonter.narod.ru/doc/panas/fax/f390.zip>
--------------------------------------------------------------------------------------------------panas/fax/f500-550
http://www.telemonter.narod.ru/doc/panas/fax/f500-550.zip>
--------------------------------------------------------------------------------------------------panas/fax/f580
http://www.telemonter.narod.ru/doc/panas/fax/f580.zip>
--------------------------------------------------------------------------------------------------panas/fax/f680_780
http://www.telemonter.narod.ru/doc/panas/fax/f680_780.zip>
--------------------------------------------------------------------------------------------------panas/fax/f600-707-2610-2717
http://www.telemonter.narod.ru/doc/panas/fax/f600-707-2610-2717.zip>
--------------------------------------------------------------------------------------------------panas/fax/f700
http://www.telemonter.narod.ru/doc/panas/fax/f700.zip>
--------------------------------------------------------------------------------------------------panas/fax/f910
http://www.telemonter.narod.ru/doc/panas/fax/f910.zip>
--------------------------------------------------------------------------------------------------panas/fax/ft21
http://www.telemonter.narod.ru/doc/panas/fax/ft21.zip>
--------------------------------------------------------------------------------------------------panas/fax/ft25
http://www.telemonter.narod.ru/doc/panas/fax/ft25.zip>
--------------------------------------------------------------------------------------------------panas/fax/ft31-33
http://www.telemonter.narod.ru/doc/panas/fax/ft31-33.zip>
--------------------------------------------------------------------------------------------------panas/fax/ft37
http://www.telemonter.narod.ru/doc/panas/fax/ft37.zip>
--------------------------------------------------------------------------------------------------panas/fax/ft63_67
http://www.telemonter.narod.ru/doc/panas/fax/ft63_67.zip>
--------------------------------------------------------------------------------------------------panas/fax/kx-ft72
http://www.telemonter.narod.ru/doc/panas/fax/kx-ft72.zip>
--------------------------------------------------------------------------------------------------panas/fax/kx-ft74
http://www.telemonter.narod.ru/doc/panas/fax/kx-ft74.zip>
--------------------------------------------------------------------------------

-------------------panas/fax/kx-ft76
http://www.telemonter.narod.ru/doc/panas/fax/kx-ft76.zip>
--------------------------------------------------------------------------------------------------panas/fax/kx-ft78
http://www.telemonter.narod.ru/doc/panas/fax/kx-ft78.rar>
--------------------------------------------------------------------------------------------------panas/fax/ftc47
http://www.telemonter.narod.ru/doc/panas/fax/ftc47.zip>
--------------------------------------------------------------------------------------------------panas/fax/ufs1
http://www.telemonter.narod.ru/doc/panas/fax/ufs1.zip>
--------------------------------------------------------------------------------------------------panas/fax/uf-s2
http://www.telemonter.narod.ru/doc/panas/fax/uf-s2.zip>
--------------------------------------------------------------------------------------------------panas/fax/uf-s10
http://www.telemonter.narod.ru/doc/panas/fax/uf-s10.zip>
--------------------------------------------------------------------------------------------------panas/fax/uf-v60
http://www.telemonter.narod.ru/doc/panas/fax/uf-v60.zip>
--------------------------------------------------------------------------------------------------panas/fax/f1010
http://www.telemonter.narod.ru/doc/panas/fax/f1010.zip>
--------------------------------------------------------------------------------------------------panas/fax/f1100
http://www.telemonter.narod.ru/doc/panas/fax/f1100.zip>
--------------------------------------------------------------------------------------------------panas/fax/f1110
http://www.telemonter.narod.ru/doc/panas/fax/f1110.zip>
--------------------------------------------------------------------------------------------------panas/fax/fp105
http://www.telemonter.narod.ru/doc/panas/fax/fp105.zip>
--------------------------------------------------------------------------------------------------fp143
http://www.tomo.ru/down/fp143.rar>
--------------------------------------------------------------------------------------------------panas/fax/fp343_363
http://www.telemonter.narod.ru/doc/panas/fax/fp343_363.rar>
--------------------------------------------------------------------------------------------------panas/kx-fb423
http://www.tomo.nm.ru/doc/panas/kx-fb423.zip>
--------------------------------------------------------------------------------------------------panas/fax/fm90
http://www.telemonter.narod.ru/doc/panas/fax/fm90.zip>
--------------------------------------------------------------------------------

-------------------panas/fax/fp80-85
http://www.telemonter.narod.ru/doc/panas/fax/fp80-85.zip>
--------------------------------------------------------------------------------------------------panas/fax/fp80-85
http://www.telemonter.narod.ru/doc/panas/fax/fp80-85.zip>
--------------------------------------------------------------------------------------------------panas/fax/fp82-88
http://www.telemonter.narod.ru/doc/panas/fax/fp82-88.zip>
--------------------------------------------------------------------------------------------------panas/fax/fpc95_96_91
http://www.telemonter.narod.ru/doc/panas/fax/fpc95_96_91.zip>
--------------------------------------------------------------------------------------------------kx-fc195
http://www.tomo.ru/down/doc/kx-fc195.rar>
--------------------------------------------------------------------------------------------------panas/fax/panalink
http://www.telemonter.narod.ru/doc/panas/fax/panalink.zip>
--------------------------------------------------------------------------------------------------panas/fax/uf322
http://www.telemonter.narod.ru/doc/panas/fax/uf322.zip>
--------------------------------------------------------------------------------------------------panas/fax/uf342
http://www.telemonter.narod.ru/doc/panas/fax/uf342.zip>
--------------------------------------------------------------------------------------------------panas/fax/uf305_315_322
http://www.telemonter.narod.ru/doc/panas/fax/uf305_315_322.rar>
--------------------------------------------------------------------------------------------------panas/fax/uf880
http://www.telemonter.narod.ru/doc/panas/fax/uf880.zip>
--------------------------------------------------------------------------------------------------panas/fax/uf585_595
http://www.telemonter.narod.ru/doc/panas/fax/uf585_595.zip>
--------------------------------------------------------------------------------------------------panas/fax/uf880
http://www.telemonter.narod.ru/doc/panas/fax/uf880.zip>
--------------------------------------------------------------------------------------------------panas/fax/uf885_895
http://www.telemonter.narod.ru/doc/panas/fax/uf885_895.rar>
--------------------------------------------------------------------------------------------------panas/fax/f3000
http://www.telemonter.narod.ru/doc/panas/fax/f3000.zip>
--------------------------------------------------------------------------------------------------panas/fax/fl503RU
http://www.telemonter.narod.ru/doc/panas/fax/fl503RU.zip>
--------------------------------------------------------------------------------

-------------------panas/fax/fl513
http://www.telemonter.narod.ru/doc/panas/fax/fl513.rar>
--------------------------------------------------------------------------------------------------panas/fax/fl523ru
http://www.telemonter.narod.ru/doc/panas/fax/fl523ru.rar>
--------------------------------------------------------------------------------------------------panas/fax/fl543
http://www.telemonter.narod.ru/doc/panas/fax/fl543.rar>
--------------------------------------------------------------------------------------------------panas/fax/flb753ru
http://www.telemonter.narod.ru/doc/panas/fax/flb753ru.rar>
--------------------------------------------------------------------------------------------------flb758
http://www.tomo.ru/down/flb758.rar>
--------------------------------------------------------------------------------------------------29pt-5431-CHASSIS_L011L-AC
http://www.4shared.com/file/12007386/b4e43a1f/29pt-5431-CHASSIS_L011L-AC.html>
--------------------------------------------------------------------------------------------------Monitor div. CTX 1565MS_1569S1
http://www.4shared.com/file/12279590/5f26d8f1/1565MS_1569S1.html>
--------------------------------------------------------------------------------------------------Monitor div. CTX 1785GM
http://www.4shared.com/file/12279615/e5d3182f/1785GM.html>
--------------------------------------------------------------------------------------------------Monitor div. CTX 1765cd
http://www.4shared.com/file/12279600/8ca2dde1/1765cd.html>
-----------------------------------------------------------------------------------------DAEWOO CMC 1511B
http://www.4shared.com/file/12058694/d5b937bf/CMC_1511B.html>
--------------------------------------------------------------------------------------------------pcs2956
http://www.4shared.com/file/10080798/7776ecd4/pcs2956.html>
senha vip
--------------------------------------------------------------------------------------------------Monitor ACER VIEW7133S
http://www.4shared.com/file/12058909/7196b776/7133S.html>
--------------------------------------------------------------------------------------------------Monitor ACER VIEW 7154
http://www.4shared.com/file/12058929/43a0d5f4/7134.html>
--------------------------------------------------------------------------------------------------Monitor ACER VIEW 7156
http://www.4shared.com/file/12059029/f4cd891e/7156.html>
--------------------------------------------------------------------------------------------------Monitor ACER VIEW7178
http://www.4shared.com/file/12059251/b6d34385/Acer_7178.html>

--------------------------------------------------------------------------------------------------Monitor ACER VIEW 34


http://www.4shared.com/file/12059263/73f0716a/Acerview_34_T.html>
--------------------------------------------------------------------------------------------------Monitor ACER VIEW 7076_I_e_7176_
http://www.4shared.com/file/12059304/ba0c2978/Acerview_7076_I_e_7176_I.html>
--------------------------------------------------------------------------------------------------Monitor ACER VIEW F51_E
http://www.4shared.com/file/12070473/69ae2073/Acerview_F51_E.html>
--------------------------------------------------------------------------------------------------Monitor AcerWiew 7279_G
http://www.4shared.com/file/12070459/bb4dabef/Acerview_7279_G.html>
--------------------------------------------------------------------------------------------------Compaq 441 e 472P
http://www.4shared.com/file/12101435/25612892/Compaq.html>
--------------------------------------------------------------------------------------------------philips 20PF 5120
http://www.4shared.com/file/12126332/595dc06d/20PF5120.html>
--------------------------------------------------------------------------------------------------Monitor Philips 473
http://www.4shared.com/file/12153725/5cd5e071/473.html>
--------------------------------------------------------------------------------------------------Monitor Philips 3CM9809
http://www.4shared.com/file/12154277/54b08f4a/PHILIPS_3CM9809.html>
--------------------------------------------------------------------------------------------------Monitor Samsung 15Ge, 15GLe, 4NE
http://www.4shared.com/file/12154921/ccf131db/15Ge_15GLe_4NE.html>
--------------------------------------------------------------------------------------------------Monitor Samsung 17GLM
http://www.4shared.com/file/12155315/559a44b2/17GLM.html>
--------------------------------------------------------------------------------------------------Monitor Samsung 400 B
http://www.4shared.com/file/12158587/9cb13ab8/400_B.html>
--------------------------------------------------------------------------------------------------Monitor Samsung 500_B
http://www.4shared.com/file/12158797/862edf97/500_B.html>
--------------------------------------------------------------------------------------------------Monitor Samsung 500 MP
http://www.4shared.com/file/12158998/1c0fef0c/500_MP.html>
--------------------------------------------------------------------------------------------------Monitor Samsung CFA767x - CFA768x
http://www.4shared.com/file/12159106/9cda4f9f/CFA767x_-_CFA768x.html>
--------------------------------------------------------------------------------------------------Monitor Samsung CSN 5987 SM4Ne
http://www.4shared.com/file/12159508/7c6bca44/CSN_5987_SM4Ne.html>

--------------------------------------------------------------------------------------------------Monitor AcerWiew 7279_G


http://www.4shared.com/file/12070459/bb4dabef/Acerview_7279_G.html>
--------------------------------------------------------------------------------------------------Monitor Acerview 7256 C.pdf
http://www.4shared.com/file/12070439/ed170c69/Acerview_7256_C.html>
--------------------------------------------------------------------------------------------------Monitor Acerview 7276 J
http://www.4shared.com/file/12070451/b59623dd/Acerview_7276_J.html>
--------------------------------------------------------------------------------------------------Monitor Acerview 7276 C
http://www.4shared.com/file/12070446/32e9873f/Acerview_7276_C.html>
--------------------------------------------------------------------------------------------------GOLDSTAR 7672
http://www.4shared.com/file/12195583/ac46cb7d/7672.html>
--------------------------------------------------------------------------------------------------GOLDSTAR 7671
http://www.4shared.com/file/12195549/e0266d6f/7671.html>
--------------------------------------------------------------------------------------------------Goldstar_CA_19
http://www.4shared.com/file/12195624/ca8b080d/Goldstar_CA_19.html>
--------------------------------------------------------------------------------------------------GoldstarCA_32
http://www.4shared.com/file/12195599/55881322/CA_32.html>
--------------------------------------------------------------------------------------------------Goldstar_CA_25
http://www.4shared.com/file/12195664/aee7cd09/Goldstar_CA_25.html>
--------------------------------------------------------------------------------------------------Goldstar_CA_26
http://www.4shared.com/file/12195761/df4f53b1/Goldstar_CA_26.html>
--------------------------------------------------------------------------------------------------Goldstar_MS_01
http://www.4shared.com/file/12195801/8249b30a/Goldstar_MS_01.html>
--------------------------------------------------------------------------------------------------GOLDSTAR GS_556
http://www.4shared.com/file/12195814/eb3876c4/GS_556.html>
--------------------------------------------------------------------------------------------------LG_56M
http://www.4shared.com/file/12196066/56d17f79/LG_56M.html>
--------------------------------------------------------------------------------------------------LG_57I
http://www.4shared.com/file/12196200/ea6ca9a4/LG_57I.html>
--------------------------------------------------------------------------------------------------LG_57M
http://www.4shared.com/file/12196365/cd9e909a/LG_57M.html>

--------------------------------------------------------------------------------------------------LG_771
http://www.4shared.com/file/12197028/6db9f01f/LG_771.html>
--------------------------------------------------------------------------------------------------LG_78D
http://www.4shared.com/file/12196597/a08591cb/LG_78D.html>
--------------------------------------------------------------------------------------------------LG_7D_-_5D
http://www.4shared.com/file/12196036/2ba68b3c/LG_7D_-_5D.html>
--------------------------------------------------------------------------------------------------LG_99T
http://www.4shared.com/file/12196853/385898d/LG_99T.html>
--------------------------------------------------------------------------------------------------SONY TX-D2162
http://www.4shared.com/file/12201982/d6bd8507/TX-D2162.html>
--------------------------------------------------------------------------------------------------sonyGDM-F400
http://www.4shared.com/file/12200630/68a71db8/sonyGDM-F400.html>
--------------------------------------------------------------------------------------------------sonyGDM-400PS
http://www.4shared.com/file/12200592/7e002a47/sonyGDM-400PS.htm>
--------------------------------------------------------------------------------------------------sonyCPD-210GS
http://www.4shared.com/file/12200570/e8d66e5/sonyCPD-210GS.html>
--------------------------------------------------------------------------------------------------Sony_CPD_200sf
http://www.4shared.com/file/12200539/133d1b45/Sony_CPD_200sf.html>
--------------------------------------------------------------------------------------------------Sony_CPD_15_SF1
http://www.4shared.com/file/12199222/6e37ba5c/Sony_CPD_15_SF1.html>
--------------------------------------------------------------------------------------------------SONY 100SF
http://www.4shared.com/file/12198568/577de7a6/100SF.html>
--------------------------------------------------------------------------------------------------CPD_17_SF2
http://www.4shared.com/file/12199138/95bfdc5a/CPD_17_SF2.html>
--------------------------------------------------------------------------------------------------CPD-L133
http://www.4shared.com/file/12199162/81dc101/CPD-L133.html>
--------------------------------------------------------------------------------------------------HMD-V200
http://www.4shared.com/file/12199178/f1d3195e/HMD-V200.html>
--------------------------------------------------------------------------------------------------MITSUBISHI-TC-3398
http://www.4shared.com/file/12206819/cb8b548/MANUAL_DE_SERVICO-MITSUBISHI-_TC-33

98.html>
--------------------------------------------------------------------------------------------------philips-chassis-L6.1_aa
http://www.4shared.com/file/12208004/85dede3f/manual_servio_philips-chassis-L61_
aa.html>
--------------------------------------------------------------------------------------------------defeitos_plasma-Lcd-philips
http://www.4shared.com/file/12208181/3cafca8f/defeitos_plasmaLcd-philips.html>
--------------------------------------------------------------------------------------------------MODULADOR-century
http://www.4shared.com/file/12208367/48cb965a/MODULADOR-century.html>
--------------------------------------------------------------------------------------------------dica-philips-FW-M589/779-no liga
http://www.4shared.com/file/12208501/f37fe85b/FWM589779noliga.html>
--------------------------------------------------------------------------------------------------seletores_de_canais_adaptao,varios
http://www.4shared.com/file/12208816/7cd8dfea/seletores_de_canais_adaptao.html>
--------------------------------------------------------------------------------------------------SyncMaster_500s_500Ms
http://www.4shared.com/file/12208428/b957584a/SyncMaster_500s_500Ms.html>
--------------------------------------------------------------------------------------------------SAMSUNG_CGP-1607
http://www.4shared.com/file/12206527/c8f558df/SAMSUNG_CGP-1607_.html>
--------------------------------------------------------------------------------------------------SAMSUNG_CHB-7707
http://www.4shared.com/file/12206614/7897e4ff/SAMSUNG_CHB-7707.html>
--------------------------------------------------------------------------------------------------SAMSUNG_CKA-4217
http://www.4shared.com/file/12206673/b0a9d6da/SAMSUNG_CKA-4217.html>
--------------------------------------------------------------------------------------------------SAMSUNG_CKA-5227
http://www.4shared.com/file/12206724/5278dd0b/SAMSUNG_CKA-5227.html>
--------------------------------------------------------------------------------------------------SAMSUNG_CKB-5237
http://www.4shared.com/file/12206784/a8973581/SAMSUNG_CKB-5237.html>
--------------------------------------------------------------------------------------------------SAMSUNG_CKE-5507
http://www.4shared.com/file/12206853/88019952/SAMSUNG_CKE-5507.html>
--------------------------------------------------------------------------------------------------SAMSUNG_CKF-5607
http://www.4shared.com/file/12206914/73cba3c2/SAMSUNG_CKF-5607.html>
--------------------------------------------------------------------------------------------------SAMSUNG_CKG-7507
http://www.4shared.com/file/12206973/bbf591e7/SAMSUNG_CKG-7507.html>
---------------------------------------------------------------------------------------------------

SAMSUNG_CSE-780
http://www.4shared.com/file/12207059/de7b4691/SAMSUNG_CSE-780.html>
--------------------------------------------------------------------------------------------------Samsung_CVL495X_CVM496X_CCB7577_CCB7571
http://www.4shared.com/file/12207314/c6e04171/Samsung_CVL495X_CVM496X_CCB7577_CC
B7571.html>
--------------------------------------------------------------------------------------------------SAMSUNG_DP-15HS
http://www.4shared.com/file/12207357/3b85d5cf/SAMSUNG_DP-15HS.html>
--------------------------------------------------------------------------------------------------SAMSUNG_DP-15LS
http://www.4shared.com/file/12207412/2accf2c1/SAMSUNG_DP-15LS.html>
--------------------------------------------------------------------------------------------------SAMSUNG_LXB-341
http://www.4shared.com/file/12207472/7c965547/SAMSUNG_LXB-341.html>
--------------------------------------------------------------------------------------------------SAMSUNG_LXB-550
http://www.4shared.com/file/12207492/e21578c9/SAMSUNG_LXB-550.html>
--------------------------------------------------------------------------------------------------SAMSUNG_PG-17HS
http://www.4shared.com/file/12207536/1e553e6d/SAMSUNG_PG-17HS.html>
--------------------------------------------------------------------------------------------------SAMSUNG_PG-19HS
http://www.4shared.com/file/12207603/47542778/SAMSUNG_PG-19HS.html>
--------------------------------------------------------------------------------------------------SAMSUNG_PG-19ISB
http://www.4shared.com/file/12207668/86dc5976/SAMSUNG_PG-19ISB.html>
--------------------------------------------------------------------------------------------------17GLsi_Training_Manual
http://www.4shared.com/file/12205312/858a2ccf/17GLsi_Training_Manual.html>
--------------------------------------------------------------------------------------------------CSN_5987_SM4Ne
http://www.4shared.com/file/12159508/7c6bca44/CSN_5987_SM4Ne.html>
--------------------------------------------------------------------------------------------------500_P
http://www.4shared.com/file/12158920/f120bef5/500_P.html>
--------------------------------------------------------------------------------------------------CST_7677_L
http://www.4shared.com/file/12205658/7f8c23e/CST_7677_L.html>
--------------------------------------------------------------------------------------------------CST_7687_L
http://www.4shared.com/file/12205710/6c8de53f/CST_7687_L.html>
--------------------------------------------------------------------------------------------------CVP423XP_CVP486XP
http://www.4shared.com/file/12205994/a9a78624/CVP423XP_CVP486XP.html>
--------------------------------------------------------------------------------

-------------------CVP432xP
http://www.4shared.com/file/12206261/40b52e6b/CVP432xP.html>
--------------------------------------------------------------------------------------------------ETJ
http://www.4shared.com/file/12206439/37942eae/ETJ.html>
--------------------------------------------------------------------------------------------------CPD-L133
http://www.4shared.com/file/12199162/81dc101/CPD-L133.html>
--------------------------------------------------------------------------------------------------CSQ-4387
http://www.4shared.com/file/12205471/4f96cc76/CSQ-4387.html>
--------------------------------------------------------------------------------------------------SONY KP53XBR45
http://www.4shared.com/file/12215731/14dc9e9b/SONY_RA1_CHASSIS_KP53XBR45_PROJECT
ION_TV_SM.html>
--------------------------------------------------------------------------------------------------SONY KP53XBR4CT
http://www.4shared.com/file/12240678/f790f64e/SONY_RA1_CHASSIS_KP53XBR4CT_PROJEC
TION_TV_SM.html>
--------------------------------------------------------------------------------------------------Monitor PANASONIC LC_40
http://www.4shared.com/file/12256033/18a8e01c/LC_40.html>
--------------------------------------------------------------------------------------------------Monitor PANASONIC P70
http://www.4shared.com/file/12256108/a5950060/P70.html>
--------------------------------------------------------------------------------------------------PanaSync_4G
http://www.4shared.com/file/12256121/ee7fda46/PanaSync_4G.html/>
--------------------------------------------------------------------------------------------------PanaSync_P110
http://www.4shared.com/file/12256148/c1f9c564/PanaSync_P110.html>
--------------------------------------------------------------------------------------------------Monitor PANASONIC TX-D1F72
http://www.4shared.com/file/12256993/ed963319/TX-D1F72.html>
--------------------------------------------------------------------------------------------------Monitor PANASONIC TX-D2162
http://www.4shared.com/file/12201982/d6bd8507/TX-D2162.html>
--------------------------------------------------------------------------------------------------Monitor PANASONIC TX-D7F54_-_P70
http://www.4shared.com/file/12257013/9222e5fb/TX-D7F54_-_P70.html>
--------------------------------------------------------------------------------------------------Monitor PANASONIC TX-T1562
http://www.4shared.com/file/12258352/db6cbe66/TX-T1562.html>
--------------------------------------------------------------------------------------------------Monitor PANASONIC TX-T5F69__S50

http://www.4shared.com/file/12258333/fa312976/TX-T5F69__S50_.html>
--------------------------------------------------------------------------------------------------Monitor PANASONIC PF_70
http://www.4shared.com/file/12256559/a8ec6c6f/PF_70.html>
--------------------------------------------------------------------------------------------------Monitor PANASONIC S_70
http://www.4shared.com/file/12256971/9d1b7fbb/S_70.html>
--------------------------------------------------------------------------------------------------panasonic dvd-s27lb
http://www.4shared.com/file/12299825/7b50d887/dvd_s27lb_s.html>
--------------------------------------------------------------------------------------------------sony mhc-rg222-br
http://www.4shared.com/file/12298380/453c4c06/MHC-RG222__BR_.html>
--------------------------------------------------------------------------------------------------SOM PHILIPS FWM589
http://www.4shared.com/file/11148401/b0414c9f/FWM_589.html>
--------------------------------------------------------------------------------------------------LG CP29K30 BR
http://www.4shared.com/file/12363202/fc240e60/cp29k30_BR.html>
--------------------------------------------------------------------------------------------------sony dvp ns 50p-br
http://www.4shared.com/file/12363836/ddf31c6c/DVP-NS50P__BR_.html>
--------------------------------------------------------------------------------------------------29gx 1899 chassis gr6ls
http://www.4shared.com/file/12185557/23e55899/29GX1899__GR6LS.html>
--------------------------------------------------------------------------------------------------gradiente d201 manual completo
http://www.4shared.com/file/12384544/5683fe0c/D201.html>
--------------------------------------------------------------------------------------------------CODIFICAAO_DE_ZENER-LINHA MA--panasonic
http://www.4shared.com/file/12491938/ed534be/CODIFICAO_DE_DIODOS_ZENER-panasonic
.html>
--------------------------------------------------------------------------------------------------LG_CP-20K70
http://www.4shared.com/file/12503489/febb37ef/Eaquema_LG_CP-20K70.html>
--------------------------------------------------------------------------------------------------LG_CP20B85
http://www.4shared.com/file/12503870/9e56ae0/Esquema_LG_CP20B85.html>
--------------------------------------------------------------------------------------------------LG_CP-20K76
http://www.4shared.com/file/12504137/61eb3971/Esquema_LG_CP-20K76.html>
--------------------------------------------------------------------------------------------------LG_CP-20K78
http://www.4shared.com/file/12504258/a5483d3f/Esquema_LG_CP-20K78.html>
---------------------------------------------------------------------------------------------------

LG_CP-25Q22
http://www.4shared.com/file/12504404/d504f9e3/Esquema_LG_CP-25Q22.html>
--------------------------------------------------------------------------------------------------LG_LP-20A20
http://www.4shared.com/file/12504528/ef46bd7d/Esquema_LG_LP-20A20.html>
--------------------------------------------------------------------------------------------------LG_PP-43A80P
http://www.4shared.com/file/12504614/cf9b1ccc/Esquema_LG_PP-43A80P.html>
--------------------------------------------------------------------------------------------------LG_RP-20CB62
http://www.4shared.com/file/12504717/57502741/Esquema_LG_RP-20CB62.html>
--------------------------------------------------------------------------------------------------Ajustes_CP-20J52
http://www.4shared.com/file/12503300/4af113c6/Ajustes_CP-20J52.html>
--------------------------------------------------------------------------------------------------Ajustes_CP-20K70
http://www.4shared.com/file/12503313/cae3733d/Ajustes_CP-20K70.html>
--------------------------------------------------------------------------------------------------Ajustes_CP-29K30A
http://www.4shared.com/file/12503336/88bfe530/Ajustes_CP-29K30A.html>
--------------------------------------------------------------------------------------------------Ajustes_CP20B85
http://www.4shared.com/file/12503286/6a8956cc/Ajustes_CP20B85.html>
--------------------------------------------------------------------------------------------------Ajustes_LP-20A20
http://www.4shared.com/file/12503353/ae8fb639/Ajustes_LP-20A20.html>
--------------------------------------------------------------------------------------------------Ajustes_RP-20CB62
http://www.4shared.com/file/12503369/65770ce4/Ajustes_RP-20CB62.html>
--------------------------------------------------------------------------------------------------Ajustes_RP-29FA30A
http://www.4shared.com/file/12503389/fbf4216a/Ajustes_RP-29FA30A.html>
--------------------------------------------------------------------------------------------------Monitor Viewsonic
http://www.4shared.com/file/12531762/1805cfeb/_3__17G.html>
--------------------------------------------------------------------------------------------------Monitor Viewsonic
http://www.4shared.com/file/12532338/901bd582/_2__E_641.html>
--------------------------------------------------------------------------------------------------Monitor Viewsonic
http://www.4shared.com/file/12532454/cab828aa/_2__GS771.html>
--------------------------------------------------------------------------------------------------Monitor Viewsonic
http://www.4shared.com/file/12532079/81369e49/_2__DTK_1448.html>
---------------------------------------------------------------------------------------------------

Monitor Viewsonic
http://www.4shared.com/file/12531343/5a3d3523/_2__15_ES.html>
--------------------------------------------------------------------------------------------------Monitor Viewsonic
http://www.4shared.com/file/12505605/193b7a7e/_2__1569S.html>
--------------------------------------------------------------------------------------------------Monitor Viewsonic
http://www.4shared.com/file/12505615/204b3f/_2__1765GM.html>
--------------------------------------------------------------------------------------------------cce hps-2981
http://www.4shared.com/file/9623829/45a5eef9/CCE___HPS_2981.html?s=1>
--------------------------------------------------------------------------------------------------philips G88
http://www.4shared.com/file/11497567/fe84614f/G88.html>
--------------------------------------------------------------------------------------------------cce-hps-1450rs-hps-2050rs
http://www.4shared.com/file/12603933/73d6e6c7/hps-1450RS_e_2050RS.html>
--------------------------------------------------------------------------------------------------toshiba-RG-8155__RG-8158CD,
http://www.4shared.com/file/12606712/ba769eb/RG-8155__RG-8158CD.html>
--------------------------------------------------------------------------------------------------FWC50 / FWC507 ALL SAME SHIT
http://www.4shared.com/file/11595482/70fac957/FWC507.html>
--------------------------------------------------------------------------------------------------LG RP29CC26
http://www.4shared.com/file/12682845/5cfa93a6/LG_MC049A_CHASSIS_RP29CC26_TV_SM.h
tml>
--------------------------------------------------------------------------------------------------Monitor Voltron
http://www.4shared.com/file/12533539/5b2dfec3/Voltron_1428.html>
--------------------------------------------------------------------------------------------------Monitor TCM
http://www.4shared.com/file/12533510/10c724e5/TCM_1564_HS.html>
--------------------------------------------------------------------------------------------------Nobreak_Manager_II_L
http://www.4shared.com/file/12686762/7496b4ed/Nobreak_Manager_II_L.html>
--------------------------------------------------------------------------------------------------Nobreak_Manger_III_-_Onda_Senoidal
http://www.4shared.com/file/12686771/f484d416/Nobreak_Manger_III_-_Onda_Senoidal
.html>
--------------------------------------------------------------------------------------------------Sinus_Single_2000-3000
http://www.4shared.com/file/12686785/74710cc0/Sinus_Single_2000-3000.html>
--------------------------------------------------------------------------------------------------SMS_uSS_2000Bi_-_3000Bi_nobreak
http://www.4shared.com/file/12686807/59faa0d9/SMS_uSS_2000Bi_-_3000Bi_nobreak.ht

ml>
--------------------------------------------------------------------------------------------------AIWA-NSX-A777-S777-A767
http://www.4shared.com/file/12707292/b65595c8/AIWA-NSX-A777-S777-A767.html>
--------------------------------------------------------------------------------------------------PANASONIC TH42PW3 PLASMA
http://www.4shared.com/file/12710037/9fe34caa/PANASONIC_GP3D_CHASSIS_TH42PW3_PLA
SMA_TV_SM.html>
--------------------------------------------------------------------------------------------------sony cdx-f5707x
http://www.4shared.com/file/12714563/6c50294a/CDX-F5707X.html>
--------------------------------------------------------------------------------------------------philips dvp3005
http://www.4shared.com/file/12715419/7aba5bc1/DVP_3005.html>
--------------------------------------------------------------------------------------------------philco pvt-2010
http://www.4shared.com/file/4831986/e283905e/Philco-PVT2010.html?s=1>
--------------------------------------------------------------------------------------------------Equivalencias_de_Integrados
http://www.4shared.com/file/12741267/914c8494/Equivalencias_de_Integrados.html>
--------------------------------------------------------------------------------------------------Monitor proview X558
http://www.4shared.com/file/12766427/16ba56fb/proviewX558_IJE558X_MONITORPROVIEW
.html>
--------------------------------------------------------------------------------------------------amplificador_ciclotom_-dbk3000
http://www.4shared.com/file/12765539/fb6e8f64/amplificador_ciclotom_-dbk3000.htm
l>
--------------------------------------------------------------------------------------------------Amw8-10-12-16
http://www.4shared.com/file/12765548/c3282935/Amw8-10-12-16.html>
--------------------------------------------------------------------------------------------------CICLOTRON
http://www.4shared.com/file/12765551/a3efa0d0/CICLOTRON.html>
--------------------------------------------------------------------------------------------------Ciclotron_Ctpr_420
http://www.4shared.com/file/12765604/acb41e43/Ciclotron_Ctpr_420_a.html>
--------------------------------------------------------------------------------------------------ciclotron_dbs3000
http://www.4shared.com/file/12765607/35bd4ff9/ciclotron_dbs3000.html>
--------------------------------------------------------------------------------------------------ciclotron_ic_placa_dissipador
http://www.4shared.com/file/12765621/eee8884e/ciclotron_ic_placa_dissipador.html
>
--------------------------------------------------------------------------------------------------ciclotron_tip5000h

http://www.4shared.com/file/12765643/56bc4ee4/ciclotron_tip5000h.html>
--------------------------------------------------------------------------------------------------DBS-1500
http://www.4shared.com/file/12765653/4fa77fa5/DBS-1500.html>
--------------------------------------------------------------------------------------------------DBS-2000
http://www.4shared.com/file/12765657/48cabbbc/DBS-2000.html>
--------------------------------------------------------------------------------------------------DBS-3000
http://www.4shared.com/file/12765661/8a844d4a/DBS-3000.html>
--------------------------------------------------------------------------------------------------DBS-360
http://www.4shared.com/file/12765648/c16e976c/DBS-360.html>
--------------------------------------------------------------------------------------------------DBS-4000
http://www.4shared.com/file/12765668/f358f5ee/DBS-4000.html>
--------------------------------------------------------------------------------------------------DBS-6000
http://www.4shared.com/file/12765674/e3f58884/DBS-6000.html>
--------------------------------------------------------------------------------------------------DBS-720
http://www.4shared.com/file/12765650/d6ae2e1f/DBS-720.html>
--------------------------------------------------------------------------------------------------Errata_DBS-720
http://www.4shared.com/file/12765676/dfbe9a8/Errata_DBS-720.html>
--------------------------------------------------------------------------------------------------NPRH-420
http://www.4shared.com/file/12765680/63005052/NPRH-420.html>
--------------------------------------------------------------------------------------------------PR200-todos
http://www.4shared.com/file/12766316/4fdf232b/PR200-todos.html>
--------------------------------------------------------------------------------------------------TIP-1000_4ab
http://www.4shared.com/file/12766346/32a8d76e/TIP-1000_4ab_ii.html>
--------------------------------------------------------------------------------------------------TIP-2000_2ab
http://www.4shared.com/file/12766354/c5bd8703/TIP-2000_2ab_ii.html>
--------------------------------------------------------------------------------------------------TIP-5000_2h
http://www.4shared.com/file/12766364/ee90d4c0/TIP-5000_2h_ii.html>
--------------------------------------------------------------------------------------------------TIP-600_4ab
http://www.4shared.com/file/12766324/8afc11c4/TIP-600_4ab_ii.html>
--------------------------------------------------------------------------------------------------TIP-800_2ab

http://www.4shared.com/file/12766337/aee713f/TIP-800_2ab_ii.html>
--------------------------------------------------------------------------------------------------PHILCO-PCS-2976/TPS-2063
http://www.4shared.com/file/12775243/6cd5cf88/esquema-pcs_2976_tps2063.html>
--------------------------------------------------------------------------------------------------cineral TS2932 e 2933
http://www.4shared.com/file/12778914/71f99952/CINERAL_TS2932_2933.html>
--------------------------------------------------------------------------------------------------dvd lg dz9311cnd
http://www.4shared.com/file/12780194/f0d7fddc/DZ9311CND1.html>
--------------------------------------------------------------------------------------------------roland g800
http://www.4shared.com/file/12790724/2ace7115/G-800.html>
--------------------------------------------------------------------------------------------------G1000 roland
http://www.4shared.com/file/12791932/6894af0e/G-1000.html>
--------------------------------------------------------------------------------------------------mini disc sony MDS-S50
http://www.4shared.com/file/12828505/2f495c44/MDS-S50.html>
--------------------------------------------------------------------------------------------------philips FWC 270
http://www.4shared.com/file/12834581/974b845d/fwc270.html>
--------------------------------------------------------------------------------------------------az 8051 philips
http://www.4shared.com/file/12835925/db6f36cf/AZ_8051.html>
--------------------------------------------------------------------------------------------------SAMSUNG CELULAR -e600
http://www.4shared.com/file/9560559/639d90ed/E600.html?s=1>
http://www.4shared.com/file/9560559/639d90ed/E600.html?s=1>
--------------------------------------------------------------------------------------------------fwc58 philips
http://www.4shared.com/file/10142373/dd8b4621/FWC_58.html>
--------------------------------------------------------------------------------------------------FWC 38 philips
http://www.4shared.com/file/12943520/fe086b4d/FW_C_38.html>
--------------------------------------------------------------------------------------------------TV AV-27820( JVC)
http://www.4shared.com/file/13007464/67516b8c/JVC_FA_CHASSIS_AV27820_TV_SM.html>
--------------------------------------------------------------------------------------------------SONY KPR46XBR15
http://www.4shared.com/file/13011349/3692155a/SONY_AP_CHASSIS_KPR46XBR15_PROJECT
ION_TV_SM.html>
--------------------------------------------------------------------------------------------------cce hps-2990-sem a parte da fonte
http://www.4shared.com/file/13017648/6235b8fb/hps-2990.html>
--------------------------------------------------------------------------------

-------------------LG RU-42PZ90
http://www.4shared.com/file/13009744/b7fec064/lg_online.html>
--------------------------------------------------------------------------------------------------Fonte da HPS2990
http://www.4shared.com/file/13017816/f2644cb3/-CCE_HPS_2990-2.html>
--------------------------------------------------------------------------------------------------semp toshiba-chassis u7
http://www.4shared.com/file/4927233/ae1ff732/Semp-Toshiba-U07.html?s=1>
--------------------------------------------------------------------------------------------------roland JV90
http://www.4shared.com/file/13094779/1d1855b6/JV-90.html>
--------------------------------------------------------------------------------------------------philips dvp3020 e 3040
http://www.4shared.com/file/13218001/6ea308b4/DVP3020_e_3040.html>
--------------------------------------------------------------------------------------------------samsung cn7266bp
http://www.4shared.com/file/13229847/12a32488/CN7266BP_chassisk56KA1_K56XQH_P67.
html>
--------------------------------------------------------------------------------------------------sharp-tvc-1482b
http://www.4shared.com/file/13258324/db398620/tvc-1482B.html>
--------------------------------------------------------------------------------------------------PHILIPS-FW-C155
http://www.eserviceinfo.com/download.php?fileid=12608>
http://www.eserviceinfo.com/download.php?fileid=12609>
http://www.eserviceinfo.com/download.php?fileid=12610>
http://www.eserviceinfo.com/download.php?fileid=12612>
http://www.eserviceinfo.com/download.php?fileid=12613>
http://www.eserviceinfo.com/download.php?fileid=12614>
--------------------------------------------------------------------------------------------------FWC155
http://www.4shared.com/file/13266146/c7969907/fw-c155.html>
--------------------------------------------------------------------------------------------------philips DVDR3450
http://www.4shared.com/file/13281238/4fce1a46/DVDR3450.html>
--------------------------------------------------------------------------------------------------DVDR 3380 philips
http://www.4shared.com/file/13281639/3fc0820c/dvdr3380.html>
--------------------------------------------------------------------------------------------------philips DVDR3350H
http://www.4shared.com/file/13281802/89a1254d/dvdr3350h.html>
--------------------------------------------------------------------------------------------------dvdr sem o H
http://www.4shared.com/file/13282024/4e521cac/dvdr3350.html>
--------------------------------------------------------------------------------------------------sony--KV-140MG_200MG_205MP

http://www.4shared.com/file/13293070/b1946225/KV-140MG_200MG_205MP.html>
--------------------------------------------------------------------------------------------------philco--TP-14u56
http://www.4shared.com/file/13305548/718e9537/TP-14u56.html>
--------------------------------------------------------------------------------------------------nsx-990
http://www.4shared.com/file/13306184/c1319122/nsx-990.html>
--------------------------------------------------------------------------------------------------NSX-430
http://www.4shared.com/file/13306175/31aebd7b/NSX-430.html>
--------------------------------------------------------------------------------------------------nsx-330
http://www.4shared.com/file/13306111/6099dee4/nsx-330.html>
--------------------------------------------------------------------------------------------------nsx-303
http://www.4shared.com/file/13306106/e7e67a06/nsx-303.html>
--------------------------------------------------------------------------------------------------NSX-SZ_200-205-NSX-AJ_200_205
http://www.4shared.com/file/10613232/a27b0129/NSX-SZ_200-205-NSX-AJ_200_205.html
>
--------------------------------------------------------------------------------------------------NSX-SZ6
http://www.4shared.com/file/8838384/bbb2515a/NSX-SZ6.html>
--------------------------------------------------------------------------------------------------aiwa-som-dicas-IMPORTANTES_VARIOS_MODELOS
http://www.4shared.com/file/8838810/6148c1eb/aiwa-som-dicas-IMPORTANTES_VARIOS_M
ODELOS.html>
--------------------------------------------------------------------------------------------------impressoras HP parte1
http://www.4shared.com/file/13258648/821eaf66/2500C.html>
http://www.4shared.com/file/13260657/89aed189/Color_Laserjet_1500-2500.html>
http://www.4shared.com/file/13261534/fc07fe89/Color_Laserjet_3500-3700.html>
http://www.4shared.com/file/13262980/331b5d1/Color_Laserjet_4550part1.html>
http://www.4shared.com/file/13264509/9e4521c5/Color_Laserjet_4550part2.html>
http://www.4shared.com/file/13265127/f47ea1f9/Color_Laserjet_4550part3.html>
http://www.4shared.com/file/13265821/12cc3f43/Color_Laserjet_4600.html>
http://www.4shared.com/file/13266892/7a8418dc/Color_Laserjet_5500.html>
http://www.4shared.com/file/13267252/631ab563/DeskJet_450.html>
http://www.4shared.com/file/13267195/538dd195/Deskjet_6xx.html>
--------------------------------------------------------------------------------------------------impressoras HP parte 2
http://www.4shared.com/file/13267301/86a67aab/Deskjet_970_CXI.html>
http://www.4shared.com/file/13267146/7f2afe62/deskjet300.html>
http://www.4shared.com/file/13267459/f0451059/Hp_Laserjet_Family_Quick_Reference
_Service_Guide_Vol_1_Servicemanual1.html>
http://www.4shared.com/file/13268085/13379ab5/LaserJet_1000.html>
http://www.4shared.com/file/13268215/c171f592/Laserjet_1010_12_15.html>
http://www.4shared.com/file/13268714/b0bd07ef/Laserjet_1100A.html>

http://www.4shared.com/file/13268896/9d36abf6/Laserjet_1150_1300.html>
http://www.4shared.com/file/13269072/b27774bc/Laserjet_2100.html>
http://www.4shared.com/file/13269287/46014892/Laserjet_2200.html>
http://www.4shared.com/file/13271487/ba58357f/LaserJet_2410-2420-2430.html>
http://www.4shared.com/file/13267951/f6460b38/Laserjet_4_-_5.html>
--------------------------------------------------------------------------------------------------impressoras HP parte 3
http://www.4shared.com/file/13271627/4333099b/Laserjet_4050.html>
http://www.4shared.com/file/13272226/21883e3f/Laserjet_4200_4300.html>
http://www.4shared.com/file/13272668/a5557ee0/Laserjet_5000.html>
http://www.4shared.com/file/13274424/ee607c7d/laserjet_5100.html>
http://www.4shared.com/file/13275434/4fc72a59/Laserjet_8150.html>
http://www.4shared.com/file/13276674/3a9a94dd/Laserjet_9000.html>
http://www.4shared.com/file/13277082/e85036f0/Laserjet_MFP_3300.html>
http://www.4shared.com/file/13278598/4f363c12/varios_servicepart1.html>
http://www.4shared.com/file/13281327/c7a85ca1/varios_servicepart2.html>
http://www.4shared.com/file/13281586/4ecdf80f/varios_servicepart3.html>
--------------------------------------------------------------------------------------------------TVC_2030A-1430A
http://www.4shared.com/file/13302269/ac27e91f/TVC_2030A-1430A.html>
--------------------------------------------------------------------------------------------------HPS_1495-2095
http://www.4shared.com/file/13305359/1b1fe852/HPS_1495-2095.html>
--------------------------------------------------------------------------------------------------SAMSUNG AL29AO CHASSIS LW29A13W LCD
http://www.4shared.com/file/13377649/1ce60f63/SAMSUNG_AL29AO_CHASSIS_LW29A13W_LC
D_TV_SM.html>
--------------------------------------------------------------------------------------------------SAMSUNG AL29JO CHASSIS LT29A13WX LCD
http://www.4shared.com/file/13378070/12f988e0/SAMSUNG_AL29JO_CHASSIS_LT29A13WX__
LCD_TV_SM.html>
--------------------------------------------------------------------------------------------------panasonic--TC-14RM10LP_TC-20RM10LP_TC-20RA10LP
http://www.4shared.com/file/13435256/d0c7d59c/TC-14RM10LP_TC-20RM10LP_TC-20RA10L
P_SERVICE.html>
--------------------------------------------------------------------------------------------------dvp530
http://www.4shared.com/file/13531352/92563f40/dvp530_bk_ms.html>
--------------------------------------------------------------------------------------------------Gradiente E-400
http://www.4shared.com/file/13538669/556a386a/E400.html>
--------------------------------------------------------------------------------------------------philips-chassis-GR1-R03-14gl-1019
http://www.4shared.com/file/13544166/386c50d6/chassis-GR1-R03-14gl1019-e_outros_
gl.html>
--------------------------------------------------------------------------------------------------philips fw 46 e 56
http://www.4shared.com/file/13564040/983bae36/FW_46_E_56.html>
--------------------------------------------------------------------------------

-------------------LCD151
http://www.4shared.com/file/13015066/193f4347/LCD151.html>
--------------------------------------------------------------------------------------------------LCD152
http://www.4shared.com/file/13015797/ecef799b/LCD152.html>
--------------------------------------------------------------------------------------------------LCD153
http://www.4shared.com/file/13015916/59afee0f/LCD153.html>
--------------------------------------------------------------------------------------------------LCD171
http://www.4shared.com/file/13018304/5147e369/LCD171.html>
--------------------------------------------------------------------------------------------------LCD172
http://www.4shared.com/file/13021635/310e778d/LCD172.html>
--------------------------------------------------------------------------------------------------LCD173p
http://www.4shared.com/file/13022562/c2ee07dc/LCD173p.html>
--------------------------------------------------------------------------------------------------LCD173s-VT
http://www.4shared.com/file/13024622/81af235d/LCD173s-VT.html>
--------------------------------------------------------------------------------------------------LCD191T__GH19BSASEDC_
http://www.4shared.com/file/13024933/e4ef65b7/LCD191T__GH19BSASEDC_.html>
--------------------------------------------------------------------------------------------------LCD530-570B
http://www.4shared.com/file/13025154/9a7e614f/LCD530-570B.html>
--------------------------------------------------------------------------------------------------LCD701N
http://www.4shared.com/file/13025348/8957c84b/LCD701N.html>
--------------------------------------------------------------------------------------------------LCD910mM
http://www.4shared.com/file/13028952/8f644d1f/LCD910mM.html>
--------------------------------------------------------------------------------------------------LCD910N__MJ19ASAS_
http://www.4shared.com/file/13029458/dfd55037/LCD910N__MJ19ASAS_.html>
--------------------------------------------------------------------------------------------------LCD913
http://www.4shared.com/file/13029746/2330f228/LCD913.html>
--------------------------------------------------------------------------------------------------LCD930BF
http://www.4shared.com/file/13030355/e4435c35/LCD930BF.html>
--------------------------------------------------------------------------------------------------LCD940BF
http://www.4shared.com/file/13031531/945247d/LCD940BF.html>
--------------------------------------------------------------------------------

-------------------LCD940BW
http://www.4shared.com/file/13032385/fbe4eaf3/LCD940BW.html>
--------------------------------------------------------------------------------------------------LCDtestes
http://www.4shared.com/file/13045907/ff5360a8/LCDtestes_.html>
--------------------------------------------------------------------------------------------------LCD710
http://www.4shared.com/file/13025651/ef5b8345/LCD710____n.html>
--------------------------------------------------------------------------------------------------LCD710MP__MH17ASSS
http://www.4shared.com/file/13026153/16af5b02/LCD710MP__MH17ASSS_.html>
--------------------------------------------------------------------------------------------------LCD710n
http://www.4shared.com/file/13026412/30f6c7b/LCD710n.html>
--------------------------------------------------------------------------------------------------LCD710V_GS17CSSS
http://www.4shared.com/file/13026779/c0c1ac2c/LCD710V_GS17CSSS_.html>
--------------------------------------------------------------------------------------------------LCD710V_GS17VSSS
http://www.4shared.com/file/13028026/c899244e/LCD710V_GS17VSSS_.html>
--------------------------------------------------------------------------------------------------LCD710V_GY17CSSS_part1
http://www.4shared.com/file/13028563/da54d72e/LCD710V_GY17CSSS_part1.html>
--------------------------------------------------------------------------------------------------LCD710V_GY17CSSS_part2
http://www.4shared.com/file/13028713/96919587/LCD710V_GY17CSSS_part2.html>
--------------------------------------------------------------------------------------------------dvdr3355
http://www.4shared.com/file/13588123/a34c33e4/dvdr3355.html>
--------------------------------------------------------------------------------------------------NM40__NM40PRT
http://www.4shared.com/file/13466852/68b4cd/NM40__NM40PRT.html>
--------------------------------------------------------------------------------------------------NM40__NM40PRTVpart1
http://www.4shared.com/file/13469698/1ef52f83/NM40__NM40PRTVpart1.html>
--------------------------------------------------------------------------------------------------NM40__NM40PRTVpart2
http://www.4shared.com/file/13473319/f53d9e22/NM40__NM40PRTVpart2.html>
--------------------------------------------------------------------------------------------------NM40_NM40TH0MGpart1
http://www.4shared.com/file/13478248/298eb7c7/NM40_NM40TH0MGpart1.html>
--------------------------------------------------------------------------------------------------NM40_NM40TH0MGpart2
http://www.4shared.com/file/13480031/5b73f2f4/NM40_NM40TH0MGpart2.html>
--------------------------------------------------------------------------------

-------------------NP-P29__NP-P29K002_SEPpart1
http://www.4shared.com/file/13565234/6b2f4fe3/NP-P29__NP-P29K002_SEPpart1.html>
--------------------------------------------------------------------------------------------------NP-P29__NP-P29K002_SEPpart2
http://www.4shared.com/file/13565936/8974c12e/NP-P29__NP-P29K002_SEPpart2.html>
--------------------------------------------------------------------------------------------------NP-P40
http://www.4shared.com/file/13567489/58ee5eac/NP-P40.html>
--------------------------------------------------------------------------------------------------NP-Q30
http://www.4shared.com/file/13568196/8fe2a0c1/NP-Q30.html>
--------------------------------------------------------------------------------------------------NP-R50
http://www.4shared.com/file/13569323/a7443e8e/NP-R50.html>
--------------------------------------------------------------------------------------------------DVDR 3355
http://www.4shared.com/file/13588123/a34c33e4/dvdr3355.html>
--------------------------------------------------------------------------------------------------samsung NOTEBOOK (1)
http://www.4shared.com/file/13466852/68b4cd/NM40__NM40PRT.html>
http://www.4shared.com/file/13469698/1ef52f83/NM40__NM40PRTVpart1.html>
http://www.4shared.com/file/13473319/f53d9e22/NM40__NM40PRTVpart2.html>
http://www.4shared.com/file/13478248/298eb7c7/NM40_NM40TH0MGpart1.html>
http://www.4shared.com/file/13480031/5b73f2f4/NM40_NM40TH0MGpart2.html>
http://www.4shared.com/file/13565234/6b2f4fe3/NP-P29__NP-P29K002_SEPpart1.html>
http://www.4shared.com/file/13565936/8974c12e/NP-P29__NP-P29K002_SEPpart2.html>
http://www.4shared.com/file/13567489/58ee5eac/NP-P40.html>
http://www.4shared.com/file/13568196/8fe2a0c1/NP-Q30.html>
http://www.4shared.com/file/13569323/a7443e8e/NP-R50.html>
--------------------------------------------------------------------------------------------------samsung NOTEBOOK (2)
http://www.4shared.com/file/13569605/7ada3bd2/NP-X20.html>
http://www.4shared.com/file/13572375/d931c14f/NP-X25.html>
http://www.4shared.com/file/13586796/d4801521/NP-X50.html>
http://www.4shared.com/file/13554360/efeb083d/NP25FP0D3X.html>
http://www.4shared.com/file/13556312/e4ad375d/NP28__NP28PRK001part1.html>
http://www.4shared.com/file/13558065/d711fd53/NP28__NP28PRK001part2.html>
http://www.4shared.com/file/13563288/a40685df/NP28__NP28PRKY01part1.html>
http://www.4shared.com/file/13564109/8449b9a1/NP28__NP28PRKY01part2.html>
http://www.4shared.com/file/13587023/faed4985/NV25CH0342.html>
http://www.4shared.com/file/13587178/118a0e7f/NV25NH0GTX.html>
http://www.4shared.com/file/13587541/44724dc4/NX10RW85MZ.html>
--------------------------------------------------------------------------------------------------samsung NOTEBOOK (3)
http://www.4shared.com/file/13591531/1338ad6f/NX15_NX15TVCWNVpart1.html>
http://www.4shared.com/file/13591975/79235516/NX15_NX15TVCWNVpart2.html>
http://www.4shared.com/file/13594478/38944aca/NX15_PRTV01part1.html>
http://www.4shared.com/file/13602257/307f0668/NX15_PRTV01part2.html>

http://www.4shared.com/file/13603094/befbabd5/NX15PRCV01part1.html>
http://www.4shared.com/file/13605139/1e0c0a09/NX15PRCV01part2.html>
http://www.4shared.com/file/13605289/ffbe6d9b/NX15TVCWNV.html>
http://www.4shared.com/file/13606112/a95d1eed/NX30__NX30TH5CJ.html>
http://www.4shared.com/file/13607096/df975dae/NX30__NX30TH5LNW.html>
http://www.4shared.com/file/13611408/f6ef1550/NX30.html>
http://www.4shared.com/file/13611539/ab071c32/SP10-4R231.html>
--------------------------------------------------------------------------------------------------samsung LCD
http://www.4shared.com/file/13015066/193f4347/LCD151.html>
http://www.4shared.com/file/13015797/ecef799b/LCD152.html>
http://www.4shared.com/file/13015916/59afee0f/LCD153.html>
http://www.4shared.com/file/13018304/5147e369/LCD171.html>
http://www.4shared.com/file/13021635/310e778d/LCD172.html>
http://www.4shared.com/file/13022562/c2ee07dc/LCD173p.html>
http://www.4shared.com/file/13024622/81af235d/LCD173s-VT.html>
http://www.4shared.com/file/13024933/e4ef65b7/LCD191T__GH19BSASEDC_.html>
http://www.4shared.com/file/13025154/9a7e614f/LCD530-570B.html>
http://www.4shared.com/file/13025348/8957c84b/LCD701N.html>
http://www.4shared.com/file/13028952/8f644d1f/LCD910mM.html>
http://www.4shared.com/file/13029458/dfd55037/LCD910N__MJ19ASAS_.html>
http://www.4shared.com/file/13029746/2330f228/LCD913.html>
http://www.4shared.com/file/13030355/e4435c35/LCD930BF.html>
http://www.4shared.com/file/13031531/945247d/LCD940BF.html>
http://www.4shared.com/file/13032385/fbe4eaf3/LCD940BW.html>
http://www.4shared.com/file/13045907/ff5360a8/LCDtestes_.html>
http://www.4shared.com/file/13025651/ef5b8345/LCD710____n.html>
http://www.4shared.com/file/13026153/16af5b02/LCD710MP__MH17ASSS_.html>
http://www.4shared.com/file/13026412/30f6c7b/LCD710n.html>
http://www.4shared.com/file/13026779/c0c1ac2c/LCD710V_GS17CSSS_.html>
http://www.4shared.com/file/13028026/c899244e/LCD710V_GS17VSSS_.html>
http://www.4shared.com/file/13028563/da54d72e/LCD710V_GY17CSSS_part1.html>
http://www.4shared.com/file/13028713/96919587/LCD710V_GY17CSSS_part2.html>
--------------------------------------------------------------------------------------------------SAMSUNG S56A CHASSIS CS21K10MQ4XSIG TV
http://www.4shared.com/file/13734629/3618e3dd/_2__SAMSUNG_S56A_CHASSIS_CS21K10MQ
4XSIG_TV_SM.html>
--------------------------------------------------------------------------------------------------LG AF03BA CHASSIS DU50PZ60 PLASMA TV
http://www.4shared.com/file/13755485/f13901d7/LG_AF03BA_CHASSIS_DU50PZ60_PLASMA_
TV_SM.html>
--------------------------------------------------------------------------------------------------samsung notebook
http://www.4shared.com/file/13556312/e4ad375d/NP28__NP28PRK001part1.html>
http://www.4shared.com/file/13756944/30e642f0/NP28__NP28PRK001part2.html>
http://www.4shared.com/file/13757830/c1b41d7c/NP28__NP28PRKY01part1.html>
http://www.4shared.com/file/13564109/8449b9a1/NP28__NP28PRKY01part2.html>
--------------------------------------------------------------------------------------------------LG MC83A CHASSIS CP21D70M TV D.pdf
http://www.4shared.com/file/13800044/23ea1b06/LG_MC83A_CHASSIS__CP21D70M_TV_D.ht
ml>
--------------------------------------------------------------------------------------------------RECEIVER GRADIENTE DS-20 E DS-40

http://www.4shared.com/file/13945063/86ba6970/DS_20_e_40.html>
--------------------------------------------------------------------------------------------------tv-cineral--TC-PL2910_2012
http://www.4shared.com/file/13920002/1f79fbf2/TC-PL2910_2012.html>
--------------------------------------------------------------------------------------------------tv-cineral-manual de servio-TC-1470
http://www.4shared.com/file/13911379/3ab01751/MServTC1470.html>
--------------------------------------------------------------------------------------------------NSX_303
http://www.4shared.com/file/13956697/2d174b4a/NSX_303.html>
--------------------------------------------------------------------------------------------------NSX-SZ300_AJ300_AJ305
http://www.4shared.com/file/13960810/13ff5ce7/NSX-SZ300_AJ300_AJ305.html>
--------------------------------------------------------------------------------------------------samsung_793
http://www.4shared.com/file/8851223/2cb3fc6e/samsung_793.html?s=1>
--------------------------------------------------------------------------------------------------philips 50 e 55YP43C chassis GR9D
http://www.4shared.com/file/13980933/632bb89/50YP43C_55YP43c_chassis_gr9d.html>
--------------------------------------------------------------------------------------------------tv lg cp-29k30
http://www.4shared.com/file/13982497/5961ccc2/CP-29K30.html>
--------------------------------------------------------------------------------------------------tv lg cp-29k30 A
http://www.4shared.com/file/13983438/8b8d5ebc/CP-29K30A.html>
--------------------------------------------------------------------------------------------------MANUAL DE SERVIO DO SOM AZ-1575 -19
http://www.4shared.com/file/13782466/93f481eb>
--------------------------------------------------------------------------------------------------LG_RP29CC25 PART 1
http://www.4shared.com/file/13882560/8a03fc3c>
--------------------------------------------------------------------------------------------------ESQUEMA TV PHILIPS 20PT3131
http://www.4shared.com/file/13753241/7b07a9ac>
--------------------------------------------------------------------------------------------------ESQUEMA TV CCE MOD. HPS2706C_EE
http://www.4shared.com/file/13752816/2d3f2af9>
--------------------------------------------------------------------------------------------------ESQUEMA TV 28PW6521
http://www.4shared.com/file/13751688/36e3e53>
--------------------------------------------------------------------------------------------------ESQUEMA DO TV PHILIPS 29MT4515 CHASSIS L01.1L AC
http://www.4shared.com/file/13752791/70de726f>
--------------------------------------------------------------------------------------------------ESQUEMA DO SOM PHILIPS FW332

http://www.4shared.com/file/13752258/a37c472c>
--------------------------------------------------------------------------------------------------ESQUEMA DO DVD MOD. DVP3005-BK 4806 727 17301
http://www.4shared.com/file/13752115/bbe740cc>
--------------------------------------------------------------------------------------------------ESQUEMA DE VDEO K7 MOD. VR756
http://www.4shared.com/file/13752003/4a5dbe8f>
--------------------------------------------------------------------------------------------------ESQUEMA DE TV PHILIPS MODELO 29PT554A
http://www.4shared.com/file/13592219/382ffeb4>
--------------------------------------------------------------------------------------------------ESQUEMA DE TV PHILIPS MODELO 20PT120A
http://www.4shared.com/file/13590872/5e39cde7>
--------------------------------------------------------------------------------------------------ESQUEMA DE TV PHILIPS 20PT4331
http://www.4shared.com/file/13700777/65d7bd2f>
--------------------------------------------------------------------------------------------------ESQUEMA DE SOM PHILIPS FW390C
http://www.4shared.com/file/13700170/ff3e543e>
--------------------------------------------------------------------------------------------------ESQUEMA DE DVD PHILIPS DVP530-BK
http://www.4shared.com/file/13698254/cbdbd5c7>
--------------------------------------------------------------------------------------------------ESQUEMA DA TV PHILIPS MODELO 21PT5433
http://www.4shared.com/file/13697466/52168bcc>
--------------------------------------------------------------------------------------------------ESQUEMA DA TV PHILIPS MOD. 25GX1888
http://www.4shared.com/file/13698225/f39d7396>
--------------------------------------------------------------------------------------------------ESQUEMA DA TV ANUBIS-VA AA MOD. 29GX1898
http://www.4shared.com/file/13697789/5e6c058a>
--------------------------------------------------------------------------------------------------Esquema do Tecsat T3200 plus
http://www.rogepost.com/n/0403343146>
--------------------------------------------------------------------------------------------------+ de 15 megas de pony's
http://www.4shared.com/file/14064544/cf707f9/memrias_vip.html>
--------------------------------------------------------------------------------------------------dvd Britania fama 2
http://www.4shared.com/file/14093217/f2411beb/DVDFAMA2.html>
--------------------------------------------------------------------------------------------------ANUBIS_VA_21GX1668
http://www.4shared.com/file/14210560/49264b2e/ANUBIS_VA_21GX1668.html>
--------------------------------------------------------------------------------------------------sony HCD EP 707

http://www.4shared.com/file/14219480/ab6f431d/HCD-EP_707__v17___.html>
--------------------------------------------------------------------------------------------------PIONEER_PDP502MX/PDP434PE_PLASMA_TV pdf
http://www.4shared.com/file/14204647/5530bcb1/PIONEER_PDP502MX_PLASMA_TV_SM.html
>
http://www.4shared.com/file/14201837/2731f74e/PIONEER_PDP434PE_PLASMA_TV_SM.html
>
--------------------------------------------------------------------------------------------------Pioneer automotivo DEH-P1Y
http://www.4shared.com/file/14296474/4389c05c/DEH-P8MP_P80MP_P1Y.html>
--------------------------------------------------------------------------------------------------philco-pc-1428u- chassis cph02
http://www.4shared.com/file/14379259/278cdf43/CPH-02.html>
--------------------------------------------------------------------------------------------------sony KP-43t75 e 53SV75
http://www.4shared.com/file/14386165/dd62f975/KP-43T75B-53SV75B.html>
--------------------------------------------------------------------------------------------------SOM Goldstar RN-800AW
http://www.4shared.com/file/14392855/4b9c2fde/Goldstar_RN-800AW.html>
--------------------------------------------------------------------------------------------------FONTE COMPLETA TV GOLDSTAR CNT-4175 e CNT- 9175 (CHASSIS MK)
http://www.4shared.com/file/14392171/7116b2ca/FONTE_COMPLETA__TV_GOLDSTAR_CNT-41
75_e_CNT-_9175__CHASSIS_MK_.html>
--------------------------------------------------------------------------------------------------FONTE PARCIAL TV GOLDSTAR CNT-4175 e CNT- 9175 (CHASSIS MK)
http://www.4shared.com/file/14392191/ef959f44/FONTE_PARCIAL_TV_GOLDSTAR_CNT-4175
_e_CNT-_9175__CHASSIS_MK_.html>
--------------------------------------------------------------------------------------------------TV GOLDSTAR CHASSIS MC14A
http://www.4shared.com/file/14392215/22676f0c/GOLDSTAR_CHASSIS_MC14A.html>
--------------------------------------------------------------------------------------------------TV Goldstar Chassis PC08X8X
http://www.4shared.com/file/14392228/77fb4072/Goldstar_Chassis_PC08X8X.html>
--------------------------------------------------------------------------------------------------GOLDSTAR CI-14A50___CI-20A50
http://www.4shared.com/file/14392166/f6691628/GOLDSTAR_CI-14A50___CI-20A50.html>
--------------------------------------------------------------------------------------------------apostila da mecnica B de filmadoras Sony
http://www.4shared.com/file/14282749/a651ef9c/Mecnica_B_Sony.html>
http://www.4shared.com/file/14282748/d156df0a/Mecnica_B_Sonyvcd.html>
--------------------------------------------------------------------------------------------------cce-md-3200 completo
http://www.4shared.com/file/14409349/9070689d/md-3200.html>
--------------------------------------------------------------------------------------------------LG_PC82A_CHASSIS_WF32A22D1_TV_
http://www.4shared.com/file/14664553/5dd14006/LG_PC82A_CHASSIS_WF32A22D1_TV_D.ht
ml>

--------------------------------------------------------------------------------------------------toshiba-chassis-lem
http://www.4shared.com/file/14675604/3958d16c/chassis-lem-tv-2998_E_2987_CSU_-_.
html>
--------------------------------------------------------------------------------------------------dvd-semp toshiba-sd-7062slx
http://www.4shared.com/file/14725972/979af976/DVD_SEMP_SD7062SLX.html>
--------------------------------------------------------------------------------------------------FW 548 philips
http://www.4shared.com/file/14735143/f8c3e22b/FW_548.html>
--------------------------------------------------------------------------------------------------DVD TOSHIBA SD6080VK
http://www.4shared.com/file/9191585/7ef81029/dvd-toshiba_SD6080.html>
--------------------------------------------------------------------------------------------------Esq.TV DAEWOOD -TH14Q1FS\DTH1450FS
http://www.4shared.com/file/14809889/4752080b/DAEWOO_CM530A_CHASSIS_DTH1450FS_TV
_SM.html>
http://www.4shared.com/file/14809936/35dba666/DAEWOO_CM537_CHASSIS_DTH14Q1FS_TV_
SM.html>
--------------------------------------------------------------------------------------------------Pioneer_DEH-2750MP_2770MP_2790MP
http://www.4shared.com/file/14847780/208d2661/Pioneer_DEH-2750MP_2770MP_2790MP.h
tml>
--------------------------------------------------------------------------------------------------Pioneer_DEH-2950MP_CRT3820
http://www.4shared.com/file/14848288/70fe7cee/Pioneer_DEH-2950MP_CRT3820.html>
--------------------------------------------------------------------------------------------------philips home dvd MX2600
http://www.4shared.com/file/14855906/9cc0c56d/mx2600.html>
--------------------------------------------------------------------------------------------------PHILIPS MCM570
http://www.4shared.com/file/14778566/ba7ca2e7/MC-M570.html>
--------------------------------------------------------------------------------------------------MHC-HCD-DP800AV
http://www.4shared.com/file/14817083/742bee2e/HCD-DP800AV.html>
--------------------------------------------------------------------------------------------------diagnostico pela imagem [plasma]
http://www.4shared.com/file/14890524/bbcc2294/061108_Plasma_Symptom_Pictures1.ht
ml>
--------------------------------------------------------------------------------------------------Sony Wega 21
http://www.4shared.com/file/14498132/fecbf6a8/KV-21FS140_BX-1S.html>
--------------------------------------------------------------------------------------------------treinamento tv projeo toshiba
http://www.4shared.com/file/14862757/46596edd/NTDMOD03.html>
---------------------------------------------------------------------------------------------------

philips AZ101
http://www.4shared.com/file/14874815/df6cfba4/AZ101.html>
--------------------------------------------------------------------------------------------------curso inverter microondas
http://www.4shared.com/file/14855981/ca7ddac6/Treinamento_Forno_Inverter.html>
--------------------------------------------------------------------------------------------------micro system Lenoxx Sound CD-768
http://www.4shared.com/file/14878941/ee621e77/CD768_Lenoxx.html>
--------------------------------------------------------------------------------------------------curso de tv plasma
http://www.4shared.com/file/14865987/64be0523/CURSO_DE_TV_PLASMA_part_I.html>
http://www.4shared.com/file/14865657/da4c3c53/CURSO_DE_TV_PLASMA_part11_II.html>
http://www.4shared.com/file/14866248/465417b1/CURSO_DE_TV_PLASMA_part_III.html>
http://www.4shared.com/file/14866439/7a9fcd52/CURSO_DE_TV_PLASMA_part_IV.html>
--------------------------------------------------------------------------------------------------System Toshiba MS 6536CD
http://www.mediamax.com/esquemasvip/Hosted/system%206536_MS6537CD.pdf>
--------------------------------------------------------------------------------------------------apostila da mecnica B de filmadoras Sony
http://www.4shared.com/file/14282749/a651ef9c/Mecnica_B_Sony.html>
http://www.4shared.com/file/14282748/d156df0a/Mecnica_B_Sonyvcd.html>
--------------------------------------------------------------------------------------------------MHC-DX1-NACIONAL
http://www.4shared.com/file/14927639/ff7b0b3c/MHC-DX1-NACIONAL.html-NACIONAL.htm
l>
--------------------------------------------------------------------------------------------------Monitor Samsung Syncmaster 795MB
http://www.4shared.com/file/14932444/c7b1ecaa/SAMSUNG_795MB.html>
--------------------------------------------------------------------------------------------------quase todos os esquemas cce
http://www.4shared.com/dir/2757403/5db045bd/CCE.html>
--------------------------------------------------------------------------------------------------philips anubis va
http://www.4shared.com/file/14843578/2528f1a5/AnubisVA.html>
-------------------------------------------------------------------------------------------------PHILIPS MCM570
http://www.4shared.com/file/14778566/ba7ca2e7/MC-M570.html>
-------------------------------------------------------------------------------------------------manual sansung cn 7207
http://www.4shared.com/file/14944409/4a27d6df/CN7207_Chassis_KCT52a_1_.html>
-------------------------------------------------------------------------------------------------curso philps lc04
http://www.4shared.com/file/14943750/d11d1cde/SUBO_CURSO_CHASIS_PHILIPS_LC0411pa
rt1.html>
http://www.4shared.com/file/14943853/43480a59/SUBO_CURSO_CHASIS_PHILIPS_LC0411pa
rt2.html>
http://www.4shared.com/file/14943934/8ab4524b/SUBO_CURSO_CHASIS_PHILIPS_LC0411pa
rt3.html>

http://www.4shared.com/file/14944045/20f4f72c/SUBO_CURSO_CHASIS_PHILIPS_LC0411pa
rt4.html>
-------------------------------------------------------------------------------------------------MODO SERVIO SOM AIWA
http://www.4shared.com/file/14905528/43e82f59/Modo-serv-aiwa.html>
-------------------------------------------------------------------------------------------------CCE__HPS_2981
http://www.4shared.com/file/14907783/875802be/CCE__HPS_2981.html>
-------------------------------------------------------------------------------------------------Philips DSR3401
http://www.4shared.com/file/14932044/c0b84476/Philips_DSR3401-78.html>
-------------------------------------------------------------------------------------------------Toshiba TS207CR
http://www.4shared.com/file/14922055/93c46c11/Toshiba_ts207cr.html>
-------------------------------------------------------------------------------------------------curso projetores sony
http://www.4shared.com/file/14921556/1eb350ae/_2__Curso_proyectores_2005.html>
--------------------------------------------------------------------------------------------------LG 21FX5RL
http://www.4shared.com/file/15046102/f04f5f4b/21FX5RL.html>
--------------------------------------------------------------------------------------------------philips fw670
http://www.4shared.com/file/15076752/ce15ad6c/FW670.html>
--------------------------------------------------------------------------------------------------plasma fujitsu manual,4208w
http://www.4shared.com/file/15080076/593ad57f/fujitsu_pds4208wb.html>
--------------------------------------------------------------------------------------------------teoria e falhas tft lcd [ pequeno curso]
http://www.4shared.com/file/15080251/f6ecf630/Que_es_el_TFT_LCD.html>
--------------------------------------------------------------------------------------------------retroprojetor philips dptv 210
http://www.4shared.com/file/15079060/561a9950/Philips_chassis_DPTV210-211-215-21
6-220-225_64PP975_Rearprojectorsma.html>
--------------------------------------------------------------------------------------------------104B19MONITOR PHILIPS.pdf
http://www.eggdisk.com/files/347271_wkzlx/104B19MONITOR%20PHILIPS.pdf]104B19MONI
TOR> PHILIPS.pdf
--------------------------------------------------------------------------------------------------4cm2789 plhilips.pdf
http://www.eggdisk.com/files/347272_wji7a/4cm2789%20plhilips.pdf]4cm2789> plhili
ps.pdf
--------------------------------------------------------------------------------------------------cm1800 philips.pdf
http://www.eggdisk.com/files/347273_h8t0l/4cm8274_8290_8294_ch_cm1800%20philips.
pdf]4cm8274_8290_8294_ch_cm1800> philips.pdf
---------------------------------------------------------------------------------------------------

910SCompaq.pdf
http://www.eggdisk.com/files/347274_99fra/910SCompaq.pdf]910SCompaq.pdf>
--------------------------------------------------------------------------------------------------aoc_5e.rar]aoc_5e.rar
http://www.eggdisk.com/files/347275_faeqi/aoc_5e.rar]aoc_5e.rar>
--------------------------------------------------------------------------------------------------aoc_s992x_full.pdf
http://www.eggdisk.com/files/347276_8lhor/aoc_s992x_full.pdf]aoc_s992x_full.pdf>
--------------------------------------------------------------------------------------------------compaq 441.zip
http://www.eggdisk.com/files/347277_ga4zt/compaq%20441.zip]compaq> 441.zip
--------------------------------------------------------------------------------------------------compaq 472p.zip
http://www.eggdisk.com/files/347278_ckhpr/compaq%20472p.zip]compaq> 472p.zip
--------------------------------------------------------------------------------------------------compaq_140.zip
http://www.eggdisk.com/files/347279_fhq35/compaq_140.zip]compaq_140.zip>
--------------------------------------------------------------------------------------------------COMPAQ420.zip
http://www.eggdisk.com/files/347280_e6cmy/COMPAQ420.zip]COMPAQ420.zip>
--------------------------------------------------------------------------------------------------cpd-110gs_110est_chassis_x-110.pdf
http://www.eggdisk.com/files/347281_rr5pt/cpd-110gs_110est_chassis_x-110.pdf]cpd
-110gs_110est_chassis_x-110.pdf>
--------------------------------------------------------------------------------------------------http://www.eggdisk.com/files/347282_avnse/cpd-g400__f99_chassis__training_manual
.pdf]cpd-g400__f99_chassis__training_manual.pdf>
--------------------------------------------------------------------------------------------------cpd-g400__f99_chassis__training_manual.pdf
http://www.eggdisk.com/files/347283_rlhrj/cse780bt.pdf]cse780bt.pdf>
--------------------------------------------------------------------------------------------------dell_d1428e-ls_cv-m496_cvm-478.pdf
http://www.eggdisk.com/files/347284_7iqys/dell_d1428e-ls_cv-m496_cvm-478.pdf]del
l_d1428e-ls_cv-m496_cvm-478.pdf>
--------------------------------------------------------------------------------------------------cb777.pdf]lg cb777.pdf
http://www.eggdisk.com/files/347285_3mijf/lg%20cb777.pdf]lg> cb777.pdf
--------------------------------------------------------------------------------------------------LG RT-21FB20RQ.rar
http://www.eggdisk.com/files/347286_w629t/LG%20RT-21FB20RQ.rar]LG> RT-21FB20RQ.r
ar
--------------------------------------------------------------------------------------------------LG STUDIOWORKS 45I.rar
http://www.eggdisk.com/files/347287_vcs3x/LG%20STUDIOWORKS%2045I.rar]LG> STUDIOW
ORKS 45I.rar
--------------------------------------------------------------------------------

-------------------LG_57M.zip
http://www.eggdisk.com/files/347288_hmsa5/LG_57M.zip]LG_57M.zip>
--------------------------------------------------------------------------------------------------philips 473.zip
http://www.eggdisk.com/files/347297_fjj2a/philips%20473.zip]philips> 473.zip
--------------------------------------------------------------------------------------------------philips_cm6800_sm.pdf
http://www.eggdisk.com/files/347298_rwelm/philips_cm6800_sm.pdf]philips_cm6800_s
m.pdf>
--------------------------------------------------------------------------------------------------Philips-104B.e2p
http://www.eggdisk.com/files/347299_uiyao/Philips-104B.e2p]Philips-104B.e2p>
--------------------------------------------------------------------------------------------------Philips-104B.rar
http://www.eggdisk.com/files/347300_bukx5/Philips-104B.rar]Philips-104B.rar>
--------------------------------------------------------------------------------------------------Philips-104Boriginal
http://www.eggdisk.com/files/347301_3fptk/Philips-104Boriginal.BIN]Philips-104Bo
riginal.BIN>
--------------------------------------------------------------------------------------------------phillips_brilliance_109_p40.zip
http://www.eggdisk.com/files/347302_he2e0/phillips_brilliance_109_p40.zip]philli
ps_brilliance_109_p40.zip>
--------------------------------------------------------------------------------------------------pro98_series.zip
http://www.eggdisk.com/files/347303_guklv/pro98_series.zip]pro98_series.zip>
--------------------------------------------------------------------------------------------------Proview 564DN-DA-DP.pdf
http://www.eggdisk.com/files/347304_depxp/Proview%20564DN-DA-DP.pdf]Proview> 564
DN-DA-DP.pdf
--------------------------------------------------------------------------------------------------Proview 998A.rar
http://www.eggdisk.com/files/347305_yfcp1/Proview%20998A.rar]Proview> 998A.rar
--------------------------------------------------------------------------------------------------proview PV564DA, PV564DN, PV564DP.zip
http://www.eggdisk.com/files/347306_iia0j/proview%20PV564DA%2C%20PV564DN%2C%20PV
564DP.zip]proview> PV564DA, PV564DN, PV564DP.zip
--------------------------------------------------------------------------------------------------PROVIEW-564.pdf
http://www.eggdisk.com/files/347307_0bmnj/PROVIEW-564.pdf]PROVIEW-564.pdf>
--------------------------------------------------------------------------------------------------samsung_757dfx_aq17hs9u.pdf
http://www.eggdisk.com/files/347308_4cjva/samsung_757dfx_aq17hs9u.pdf]samsung_75
7dfx_aq17hs9u.pdf>
--------------------------------------------------------------------------------------------------studioworks_710bk_710e-s-b_ca-131.pdf

http://www.eggdisk.com/files/347309_nxnll/studioworks_710bk_710e-s-b_ca-131.pdf]
studioworks_710bk_710e-s-b_ca-131.pdf>
--------------------------------------------------------------------------------------------------StudioWorks-44I.pdf
http://www.eggdisk.com/files/347310_rfhs1/StudioWorks-44I.pdf]StudioWorks-44I.pd
f>
--------------------------------------------------------------------------------------------------cf-14_20_21a80v, cf21a90v, cf20_21b70v, cf14b80, cf14d10.rar
http://www.eggdisk.com/files/288912_xqma8/cf-14_20_21a80v%2C%20cf21a90v%2C%20cf2
0_21b70v%2C%20cf14b80%2C%20cf14d10.rar]cf-14_20_21a80v>, cf21a90v, cf20_21b70v,
cf14b80, cf14d10.rar
--------------------------------------------------------------------------------------------------cf-14_20_21d60, cf14_20_21d70r, cf20_21d70x mc-64a.rar
http://www.eggdisk.com/files/288913_mtnsu/cf-14_20_21d60%2C%20cf14_20_21d70r%2C%
20cf20_21d70x%20mc-64a.rar]cf-14_20_21d60>, cf14_20_21d70r, cf20_21d70x mc-64a.r
ar
--------------------------------------------------------------------------------------------------LG CF-14E20B.pdf
http://www.eggdisk.com/files/288914_eaw6x/LG%20CF-14E20B.pdf]LG> CF-14E20B.pdf
--------------------------------------------------------------------------------------------------LG CF-2944.pdf
http://www.eggdisk.com/files/288915_a728l/LG%20CF-2944.pdf]LG> CF-2944.pdf
--------------------------------------------------------------------------------------------------LG_CP-20B84.pdf
http://www.eggdisk.com/files/288916_tli1l/LG_CP-20B84.pdf]LG_CP-20B84.pdf>
--------------------------------------------------------------------------------------------------LG_CP-20K78.pdf
http://www.eggdisk.com/files/288917_ec2fz/LG_CP-20K78.pdf]LG_CP-20K78.pdf>
--------------------------------------------------------------------------------------------------lg_KF-142021U70.zip
http://www.eggdisk.com/files/288918_vxem0/lg_KF-142021U70.zip]lg_KF-142021U70.zi
p>
--------------------------------------------------------------------------------------------------LG+CP29K30.rar
http://www.eggdisk.com/files/288919_fzm89/LG%2BCP29K30.rar]LG+CP29K30.rar>
--------------------------------------------------------------------------------------------------LG-20CP29K30-20CHASSIS-20MC-005A.zip
http://www.eggdisk.com/files/288920_87uds/LG-20CP29K30-20CHASSIS-20MC-005A.zip]L
G-20CP29K30-20CHASSIS-20MC-005A.zip>
--------------------------------------------------------------------------------------------------Lg-GoldStar_mc-64a_chassis.rar
http://www.eggdisk.com/files/288921_sid2b/Lg-GoldStar_mc-64a_chassis.rar]Lg-Gold
Star_mc-64a_chassis.rar>
--------------------------------------------------------------------------------------------------LGRP-20CC95_20CC97.pdf
http://www.eggdisk.com/files/288922_qbjaz/LGRP-20CC95_20CC97.pdf]LGRP-20CC95_20C
C97.pdf>
--------------------------------------------------------------------------------

-------------------LGRP-21FC40.pdf
http://www.eggdisk.com/files/288923_oixsi/LGRP-21FC40.pdf]LGRP-21FC40.pdf>
--------------------------------------------------------------------------------------------------Ajustes CP20B85.pdf
http://www.eggdisk.com/files/293000_mx7tf/Ajustes%20CP20B85.pdf]Ajustes> CP20B85
.pdf
--------------------------------------------------------------------------------------------------Ajustes CP-20J52.pdf
http://www.eggdisk.com/files/293001_cxz14/Ajustes%20CP-20J52.pdf]Ajustes> CP-20J
52.pdf
--------------------------------------------------------------------------------------------------Ajustes CP-20K70.pdf
http://www.eggdisk.com/files/293002_bqwpx/Ajustes%20CP-20K70.pdf]Ajustes> CP-20K
70.pdf
--------------------------------------------------------------------------------------------------Ajustes CP-29K30A.pdf
http://www.eggdisk.com/files/293003_ichw2/Ajustes%20CP-29K30A.pdf]Ajustes> CP-29
K30A.pdf
--------------------------------------------------------------------------------------------------Ajustes LP-20A20.pdf
http://www.eggdisk.com/files/293004_728yx/Ajustes%20LP-20A20.pdf]Ajustes> LP-20A
20.pdf
--------------------------------------------------------------------------------------------------Ajustes RP-20CB62.pdf
http://www.eggdisk.com/files/293005_1lnzi/Ajustes%20RP-20CB62.pdf]Ajustes> RP-20
CB62.pdf
--------------------------------------------------------------------------------------------------Ajustes RP-29FA30A.pdf
http://www.eggdisk.com/files/293006_yngrz/Ajustes%20RP-29FA30A.pdf]Ajustes> RP-2
9FA30A.pdf
--------------------------------------------------------------------------------------------------Esquema LG CP-20K70.pdf
http://www.eggdisk.com/files/293007_kwlh6/Eaquema%20LG%20CP-20K70.pdf]Eaquema> L
G CP-20K70.pdf
--------------------------------------------------------------------------------------------------Esquema LG CP-209K30A.pdf
http://www.eggdisk.com/files/293008_qbq8y/Esquema%20LG%20CP-209K30A.pdf]Esquema>
LG CP-209K30A.pdf
--------------------------------------------------------------------------------------------------Esquema LG CP20B85.pdf
http://www.eggdisk.com/files/293009_fucog/Esquema%20LG%20CP20B85.pdf]Esquema> LG
CP20B85.pdf
--------------------------------------------------------------------------------------------------Esquema LG CP20K40.pdf
http://www.eggdisk.com/files/293010_zei0s/Esquema%20LG%20CP20K40.pdf]Esquema> LG
CP20K40.pdf
---------------------------------------------------------------------------------------------------

Esquema LG CP-20J52A.pdf
http://www.eggdisk.com/files/293011_absac/Esquema%20LG%20CP-20J52A.pdf]Esquema>
LG CP-20J52A.pdf
--------------------------------------------------------------------------------------------------Esquema LG CP-20K76.pdf
http://www.eggdisk.com/files/293012_yebcs/Esquema%20LG%20CP-20K76.pdf]Esquema> L
G CP-20K76.pdf
--------------------------------------------------------------------------------------------------Esquema LG CP-20K78.pdf
http://www.eggdisk.com/files/293013_lzwnu/Esquema%20LG%20CP-20K78.pdf]Esquema> L
G CP-20K78.pdf
--------------------------------------------------------------------------------------------------Esquema LG CP-25Q22.pdf
http://www.eggdisk.com/files/293014_qlzid/Esquema%20LG%20CP-25Q22.pdf]Esquema> L
G CP-25Q22.pdf
--------------------------------------------------------------------------------------------------Esquema LG LP-20A20.pdf
http://www.eggdisk.com/files/293015_h8r8b/Esquema%20LG%20LP-20A20.pdf]Esquema> L
G LP-20A20.pdf
--------------------------------------------------------------------------------------------------Esquema LG MP-50Z41V.pdf
http://www.eggdisk.com/files/293016_vm5hk/Esquema%20LG%20MP-50Z41V.pdf]Esquema>
LG MP-50Z41V.pdf
--------------------------------------------------------------------------------------------------Esquema LG PP-43A80P.pdf
http://www.eggdisk.com/files/293017_3mr8d/Esquema%20LG%20PP-43A80P.pdf]Esquema>
LG PP-43A80P.pdf
--------------------------------------------------------------------------------------------------Esquema LG RP 29FA30A.pdf
http://www.eggdisk.com/files/293018_hnnvy/Esquema%20LG%20RP%2029FA30A.pdf]Esquem
a> LG RP 29FA30A.pdf
--------------------------------------------------------------------------------------------------Esquema LG RP-20CB62.pdf
http://www.eggdisk.com/files/293019_w2nwl/Esquema%20LG%20RP-20CB62.pdf]Esquema>
LG RP-20CB62.pdf
--------------------------------------------------------------------------------------------------esquema lg.pdf
http://www.eggdisk.com/files/293020_lnhfq/esquema%20lg.pdf]esquema> lg.pdf
--------------------------------------------------------------------------------------------------LG MC049A CHASSIS RP29CC26 TV SM.pdf
http://www.eggdisk.com/files/347883_peoeu/LG%20MC049A%20CHASSIS%20RP29CC26%20TV%
20SM.pdf]LG> MC049A CHASSIS RP29CC26 TV SM.pdf
--------------------------------------------------------------------------------------------------Cph-01.pdf
http://www.eggdisk.com/files/302022_fu1la/Cph-01.pdf]Cph-01.pdf>
--------------------------------------------------------------------------------------------------CPH-02.pdf
http://www.eggdisk.com/files/302023_8jddh/CPH-02.pdf]CPH-02.pdf>

--------------------------------------------------------------------------------------------------CPH-03.pdf
http://www.eggdisk.com/files/302024_ttqo4/CPH-03.pdf]CPH-03.pdf>
--------------------------------------------------------------------------------------------------CPH-04.pdf
http://www.eggdisk.com/files/302025_gg6ja/CPH-04.pdf]CPH-04.pdf>
--------------------------------------------------------------------------------------------------CPH-05.pdf
http://www.eggdisk.com/files/302026_at4fx/CPH-05.pdf]CPH-05.pdf>
--------------------------------------------------------------------------------------------------CPH-06m.pdf
http://www.eggdisk.com/files/302027_nsick/CPH-06m.pdf]CPH-06m.pdf>
--------------------------------------------------------------------------------------------------pavm2054.pdf
http://www.eggdisk.com/files/302028_3n52k/pavm2054.pdf]pavm2054.pdf>
--------------------------------------------------------------------------------------------------pc-1435.pdf
http://www.eggdisk.com/files/302029_zotak/pc-1435.pdf]pc-1435.pdf>
--------------------------------------------------------------------------------------------------pc-1603_2004.pdf
http://www.eggdisk.com/files/302031_s95o4/pc-1603_2004.pdf]pc-1603_2004.pdf>
--------------------------------------------------------------------------------------------------pc-1613_2013.pdf
http://www.eggdisk.com/files/303233_x2iqu/pc-1613_2013.pdf]pc-1613_2013.pdf>
--------------------------------------------------------------------------------------------------pc-2036__pc20r36.pdf
http://www.eggdisk.com/files/303234_d8qyd/pc-2036__pc20r36.pdf]pc-2036__pc20r36.
pdf>
--------------------------------------------------------------------------------------------------pcm_2044.pdf
http://www.eggdisk.com/files/303235_xwjyd/pcm_2044.pdf]pcm_2044.pdf>
--------------------------------------------------------------------------------------------------pcm-1446-2046_e_2146-cph-05.zip
http://www.eggdisk.com/files/303236_rbxkp/pcm-1446-2046_e_2146-cph-05.zip]pcm-14
46-2046_e_2146-cph-05.zip>
--------------------------------------------------------------------------------------------------pcs_2700.zip
http://www.eggdisk.com/files/303237_kydos/pcs_2700.zip]pcs_2700.zip>
--------------------------------------------------------------------------------------------------Philco CPT-1471.pdf
http://www.eggdisk.com/files/303238_ka9xd/Philco%20CPT-1471.pdf]Philco> CPT-1471
.pdf
--------------------------------------------------------------------------------------------------Philco CPT-1473.pdf
http://www.eggdisk.com/files/303239_itnhp/Philco%20CPT-1473.pdf]Philco> CPT-1473
.pdf

--------------------------------------------------------------------------------------------------Philco PC-1443.pdf
http://www.eggdisk.com/files/303240_rhi09/Philco%20PC-1443.pdf]Philco> PC-1443.p
df
--------------------------------------------------------------------------------------------------Philco PC-1444.pdf
http://www.eggdisk.com/files/303241_glgct/Philco%20PC-1444.pdf]Philco> PC-1444.p
df
--------------------------------------------------------------------------------------------------Philco PC-2007.pdf
http://www.eggdisk.com/files/303242_dmrqr/Philco%20PC-2007.pdf]Philco> PC-2007.p
df
--------------------------------------------------------------------------------------------------Philco PC-2025.pdf
http://www.eggdisk.com/files/303243_b0z7i/Philco%20PC-2025.pdf]Philco> PC-2025.p
df
--------------------------------------------------------------------------------------------------Philco PCM-2144.pdf
http://www.eggdisk.com/files/303244_pi0pg/Philco%20PCM-2144.pdf]Philco> PCM-2144
.pdf
--------------------------------------------------------------------------------------------------Philco PCM-2168.pdf
http://www.eggdisk.com/files/304183_qe916/Philco%20PCM-2168.pdf]Philco> PCM-2168
.pdf
--------------------------------------------------------------------------------------------------Philco PCR-1447.pdf
http://www.eggdisk.com/files/304184_b6hpw/Philco%20PCR-1447.pdf]Philco> PCR-1447
.pdf
--------------------------------------------------------------------------------------------------Philco PCR-1449.pdf
http://www.eggdisk.com/files/304185_q52hc/Philco%20PCR-1449.pdf]Philco> PCR-1449
.pdf
--------------------------------------------------------------------------------------------------SAMSUNG SOFTWARE
http://www.eggdisk.com/files/317150_cvnxq/ddc-files_334.rar]ddc-files_334.rar>
--------------------------------------------------------------------------------------------------SAMSUNG SOFTWARE
http://www.eggdisk.com/files/317151_p8asg/edid_editer_for_edid1.2_ver3.0_840.rar
]edid_editer_for_edid1.2_ver3.0_840.rar>
--------------------------------------------------------------------------------------------------SAMSUNG SOFTWARE
http://www.eggdisk.com/files/317152_vv1gq/lb_lh_204.rar]lb_lh_204.rar>
--------------------------------------------------------------------------------------------------SAMSUNG SOFTWARE
http://www.eggdisk.com/files/317153_pzipb/leo_project_657.zip]leo_project_657.zi
p>
---------------------------------------------------------------------------------------------------

lg_soft.part01.rar
http://www.eggdisk.com/files/317154_zlq19/lg_soft.part01.rar]lg_soft.part01.rar>
--------------------------------------------------------------------------------------------------lg_soft.part02.rar
http://www.eggdisk.com/files/317155_v4qkg/lg_soft.part02.rar]lg_soft.part02.rar>
--------------------------------------------------------------------------------------------------lg_soft.part03.rar
http://www.eggdisk.com/files/317156_w6wqn/lg_soft.part03.rar]lg_soft.part03.rar>
--------------------------------------------------------------------------------------------------lg_soft.part04.rar
http://www.eggdisk.com/files/317157_oyfix/lg_soft.part04.rar]lg_soft.part04.rar>
--------------------------------------------------------------------------------------------------files_109.rar
http://www.eggdisk.com/files/317158_atyer/mdl-files_109.rar]mdl-files_109.rar>
--------------------------------------------------------------------------------------------------reset_asset_management_data_127.rar
http://www.eggdisk.com/files/317159_m6xvv/reset_asset_management_data_127.rar]re
set_asset_management_data_127.rar>
--------------------------------------------------------------------------------------------------samsung_monitor_jig_2.3a.rar
http://www.eggdisk.com/files/317160_s80cf/samsung_monitor_jig_2.3a.rar]samsung_m
onitor_jig_2.3a.rar>
--------------------------------------------------------------------------------------------------samsung_monitor_jig_3.0b.rar
http://www.eggdisk.com/files/317161_pdqe5/samsung_monitor_jig_3.0b.rar]samsung_m
onitor_jig_3.0b.rar>
--------------------------------------------------------------------------------------------------Ambw 8-10-12-16.pdf
http://www.eggdisk.com/files/319609_uwyuz/Ambw%208-10-12-16.pdf]Ambw> 8-10-12-16
.pdf
--------------------------------------------------------------------------------------------------Amw 8-10-12-16.pdf
http://www.eggdisk.com/files/319610_e31um/Amw%208-10-12-16.pdf]Amw> 8-10-12-16.p
df
--------------------------------------------------------------------------------------------------Cmbw 24.pdf
http://www.eggdisk.com/files/319611_0m6yu/Cmbw%2024.pdf]Cmbw> 24.pdf
--------------------------------------------------------------------------------------------------Csm 12-16isr-isc.pdf
http://www.eggdisk.com/files/319612_mdkye/Csm%2012-16isr-isc.pdf]Csm> 12-16isr-i
sc.pdf
--------------------------------------------------------------------------------------------------Csm 8r-10r-12r-16r-16c.pdf
http://www.eggdisk.com/files/319613_qyrkv/Csm%208r-10r-12r-16r-16c.pdf]Csm> 8r-1
0r-12r-16r-16c.pdf
--------------------------------------------------------------------------------------------------Ctpr_420_a.pdf

http://www.eggdisk.com/files/319614_8jqil/Ctpr_420_a.pdf]Ctpr_420_a.pdf>
--------------------------------------------------------------------------------------------------Dbk 1500.pdf
http://www.eggdisk.com/files/319615_a7dyv/Dbk%201500.pdf]Dbk> 1500.pdf
--------------------------------------------------------------------------------------------------Dbk 2000.pdf
http://www.eggdisk.com/files/319616_cdgr3/Dbk%202000.pdf]Dbk> 2000.pdf
--------------------------------------------------------------------------------------------------Dbk 3000.pdf
http://www.eggdisk.com/files/319617_15zzh/Dbk%203000.pdf]Dbk> 3000.pdf
--------------------------------------------------------------------------------------------------Dbk 6000.pdf
http://www.eggdisk.com/files/319618_sqacc/Dbk%206000.pdf]Dbk> 6000.pdf
--------------------------------------------------------------------------------------------------Mxs 6-8-10-12ii.pdf
http://www.eggdisk.com/files/319657_crvgr/Mxs%206-8-10-12ii.pdf]Mxs> 6-8-10-12ii
.pdf
--------------------------------------------------------------------------------------------------Pwp 16000 2h.pdf
http://www.eggdisk.com/files/319658_s2q8t/Pwp%2016000%202h.pdf]Pwp> 16000 2h.pdf
--------------------------------------------------------------------------------------------------Pwp 2000 4ab.pdf
http://www.eggdisk.com/files/319659_edj4o/Pwp%202000%204ab.pdf]Pwp> 2000 4ab.pdf
--------------------------------------------------------------------------------------------------Gradiente - Amplificador - LAB100 - Esquema Eletrnico.pdf
http://www.eggdisk.com/files/319622_owqtk/Gradiente%20-%20Amplificador%20-%20LAB
100%20-%20Esquema%20Eletr%C3%B4nico.pdf]Gradiente> - Amplificador - LAB100 - Esq
uema Eletrnico.pdf
--------------------------------------------------------------------------------------------------Amplificador - LAB40 - Esquema Eletrnico.pdf
http://www.eggdisk.com/files/319623_udvav/Gradiente%20-%20Amplificador%20-%20LAB
40%20-%20Esquema%20Eletr%C3%B4nico.pdf]Gradiente> - Amplificador - LAB40 - Esque
ma Eletrnico.pdf
--------------------------------------------------------------------------------------------------LAB40 srie II - Esquema Eletrni.pdf
http://www.eggdisk.com/files/319624_xcmsk/Gradiente%20-%20Amplificador%20-%20LAB
40%20s%C3%A9rie%20II%20-%20Esquema%20Eletr%C3%B4ni.pdf]Gradiente> - Amplificador
- LAB40 srie II - Esquema Eletrni.pdf
--------------------------------------------------------------------------------------------------LAB45 - Esquema Eletrnico.pdf
http://www.eggdisk.com/files/319625_qtdk9/Gradiente%20-%20Amplificador%20-%20LAB
45%20-%20Esquema%20Eletr%C3%B4nico.pdf]Gradiente> - Amplificador - LAB45 - Esque
ma Eletrnico.pdf
--------------------------------------------------------------------------------------------------LAB500 - Esquema Eletrnico.pdf
http://www.eggdisk.com/files/319626_3b05x/Gradiente%20-%20Amplificador%20-%20LAB
500%20-%20Esquema%20Eletr%C3%B4nico.pdf]Gradiente> - Amplificador - LAB500 - Esq
uema Eletrnico.pdf

--------------------------------------------------------------------------------------------------LAB70 - Esquema Eletrnico.pdf


http://www.eggdisk.com/files/319627_e29en/Gradiente%20-%20Amplificador%20-%20LAB
70%20-%20Esquema%20Eletr%C3%B4nico.pdf]Gradiente> - Amplificador - LAB70 - Esque
ma Eletrnico.pdf
--------------------------------------------------------------------------------------------------LAB70 srie II - Esquema Eletrni.pdf
http://www.eggdisk.com/files/319628_jhypa/Gradiente%20-%20Amplificador%20-%20LAB
70%20s%C3%A9rie%20II%20-%20Esquema%20Eletr%C3%B4ni.pdf]Gradiente> - Amplificador
- LAB70 srie II - Esquema Eletrni.pdf
--------------------------------------------------------------------------------------------------Amplificador - LAB75 - Esquema Eletrnico.pdf
http://www.eggdisk.com/files/319629_ks9fv/Gradiente%20-%20Amplificador%20-%20LAB
75%20-%20Esquema%20Eletr%C3%B4nico.pdf]Gradiente> - Amplificador - LAB75 - Esque
ma Eletrnico.pdf
--------------------------------------------------------------------------------------------------LAB95 - Esquema Eletrnico.pdf
http://www.eggdisk.com/files/319630_zsnqd/Gradiente%20-%20Amplificador%20-%20LAB
95%20-%20Esquema%20Eletr%C3%B4nico.pdf]Gradiente> - Amplificador - LAB95 - Esque
ma Eletrnico.pdf
--------------------------------------------------------------------------------------------------M120 - Esquema Eletrnico.pdf
http://www.eggdisk.com/files/319631_20pht/Gradiente%20-%20Amplificador%20-%20M12
0%20-%20Esquema%20Eletr%C3%B4nico.pdf]Gradiente> - Amplificador - M120 - Esquema
Eletrnico.pdf
--------------------------------------------------------------------------------------------------M136 - Esquema Eletrnico.pdf
http://www.eggdisk.com/files/319632_fqacz/Gradiente%20-%20Amplificador%20-%20M13
6%20-%20Esquema%20Eletr%C3%B4nico.pdf]Gradiente> - Amplificador - M136 - Esquema
Eletrnico.pdf
--------------------------------------------------------------------------------------------------M160 - Esquema Eletrnico.pdf
http://www.eggdisk.com/files/319633_mk4iq/Gradiente%20-%20Amplificador%20-%20M16
0%20-%20Esquema%20Eletr%C3%B4nico.pdf]Gradiente> - Amplificador - M160 - Esquema
Eletrnico.pdf
--------------------------------------------------------------------------------------------------M166E-G-U-A-MEX - Esquema Eletrn.pdf
http://www.eggdisk.com/files/319634_iz9js/Gradiente%20-%20Amplificador%20-%20M16
6E-G-U-A-MEX%20-%20Esquema%20Eletr%C3%B4n.pdf]Gradiente> - Amplificador - M166EG-U-A-MEX - Esquema Eletrn.pdf
--------------------------------------------------------------------------------------------------M246 E-G-U-A-MEX - Esquema Eletr.pdf
http://www.eggdisk.com/files/319635_dwyqt/Gradiente%20-%20Amplificador%20-%20M24
6%20E-G-U-A-MEX%20-%20Esquema%20Eletr%C3%B4.pdf]Gradiente> - Amplificador - M246
E-G-U-A-MEX - Esquema Eletr.pdf
--------------------------------------------------------------------------------------------------M360 - Esquema Eletrnico.pdf
http://www.eggdisk.com/files/319636_ge6vy/Gradiente%20-%20Amplificador%20-%20M36
0%20-%20Esquema%20Eletr%C3%B4nico.pdf]Gradiente> - Amplificador - M360 - Esquema
Eletrnico.pdf

--------------------------------------------------------------------------------------------------M360 PCI149 - Esquema Eletrnico.pdf


http://www.eggdisk.com/files/319637_rqjz2/Gradiente%20-%20Amplificador%20-%20M36
0%20PCI149%20-%20Esquema%20Eletr%C3%B4nico.pdf]Gradiente> - Amplificador - M360
PCI149 - Esquema Eletrnico.pdf
--------------------------------------------------------------------------------------------------M360 PCI150 - Esquema Eletrnico.pdf
http://www.eggdisk.com/files/319638_eaf2v/Gradiente%20-%20Amplificador%20-%20M36
0%20PCI150%20-%20Esquema%20Eletr%C3%B4nico.pdf]Gradiente> - Amplificador - M360
PCI150 - Esquema Eletrnico.pdf
--------------------------------------------------------------------------------------------------M360 PCI151 - Esquema Eletrnico.pdf
http://www.eggdisk.com/files/319639_hgark/Gradiente%20-%20Amplificador%20-%20M36
0%20PCI151%20-%20Esquema%20Eletr%C3%B4nico.pdf]Gradiente> - Amplificador - M360
PCI151 - Esquema Eletrnico.pdf
--------------------------------------------------------------------------------------------------M360 PCI158 PCI159 - Esquema Elet.pdf
http://www.eggdisk.com/files/319640_fvjv2/Gradiente%20-%20Amplificador%20-%20M36
0%20PCI158%20PCI159%20-%20Esquema%20Elet.pdf]Gradiente> - Amplificador - M360 PC
I158 PCI159 - Esquema Elet.pdf
--------------------------------------------------------------------------------------------------M360 PCI160 - Esquema Eletrnico.pdf
http://www.eggdisk.com/files/319641_8hcj6/Gradiente%20-%20Amplificador%20-%20M36
0%20PCI160%20-%20Esquema%20Eletr%C3%B4nico.pdf]Gradiente> - Amplificador - M360
PCI160 - Esquema Eletrnico.pdf
--------------------------------------------------------------------------------------------------M360 PCI173 - Esquema Eletrnico.pdf
http://www.eggdisk.com/files/319642_h2ldh/Gradiente%20-%20Amplificador%20-%20M36
0%20PCI173%20-%20Esquema%20Eletr%C3%B4nico.pdf]Gradiente> - Amplificador - M360
PCI173 - Esquema Eletrnico.pdf
--------------------------------------------------------------------------------------------------M360 PCI181 PCI182 no VU - Esquem.pdf
http://www.eggdisk.com/files/319643_g5i5w/Gradiente%20-%20Amplificador%20-%20M36
0%20PCI181%20PCI182%20no%20VU%20-%20Esquem.pdf]Gradiente> - Amplificador - M360
PCI181 PCI182 no VU - Esquem.pdf
--------------------------------------------------------------------------------------------------M360 VU LM3915 - Esquema Eletrni.pdf
http://www.eggdisk.com/files/319644_hypkr/Gradiente%20-%20Amplificador%20-%20M36
0%20VU%20LM3915%20-%20Esquema%20Eletr%C3%B4ni.pdf]Gradiente> - Amplificador - M3
60 VU LM3915 - Esquema Eletrni.pdf
--------------------------------------------------------------------------------------------------M366 E-G-U-A - Esquema Eletrnico.pdf
http://www.eggdisk.com/files/319645_q0kb2/Gradiente%20-%20Amplificador%20-%20M36
6%20E-G-U-A%20-%20Esquema%20Eletr%C3%B4nico.pdf]Gradiente> - Amplificador - M366
E-G-U-A - Esquema Eletrnico.pdf
--------------------------------------------------------------------------------------------------M76 - Esquema Eletrnico.pdf
http://www.eggdisk.com/files/319646_bzuog/Gradiente%20-%20Amplificador%20-%20M76
%20-%20Esquema%20Eletr%C3%B4nico.pdf]Gradiente> - Amplificador - M76 - Esquema E
letrnico.pdf

--------------------------------------------------------------------------------------------------M80 - Esquema Eletrnico.pdf


http://www.eggdisk.com/files/319647_m7oit/Gradiente%20-%20Amplificador%20-%20M80
%20-%20Esquema%20Eletr%C3%B4nico.pdf]Gradiente> - Amplificador - M80 - Esquema E
letrnico.pdf
--------------------------------------------------------------------------------------------------M86 - Esquema Eletrnico.pdf
http://www.eggdisk.com/files/319648_pq8va/Gradiente%20-%20Amplificador%20-%20M86
%20-%20Esquema%20Eletr%C3%B4nico.pdf]Gradiente> - Amplificador - M86 - Esquema E
letrnico.pdf
--------------------------------------------------------------------------------------------------PRO1200S - Esquema Eletrnico.pdf
http://www.eggdisk.com/files/319649_snckw/Gradiente%20-%20Amplificador%20-%20PRO
1200S%20-%20Esquema%20Eletr%C3%B4nico.pdf]Gradiente> - Amplificador - PRO1200S Esquema Eletrnico.pdf
--------------------------------------------------------------------------------------------------PRO2000 MKII - Esquema Eletrnico.pdf
http://www.eggdisk.com/files/319650_mglpp/Gradiente%20-%20Amplificador%20-%20PRO
2000%20MKII%20-%20Esquema%20Eletr%C3%B4nico.pdf]Gradiente> - Amplificador - PRO2
000 MKII - Esquema Eletrnico.pdf
--------------------------------------------------------------------------------------------------SPT100 - Esquema Eletrnico.pdf
http://www.eggdisk.com/files/319651_gf1wl/Gradiente%20-%20Amplificador%20-%20SPT
100%20-%20Esquema%20Eletr%C3%B4nico.pdf]Gradiente> - Amplificador - SPT100 - Esq
uema Eletrnico.pdf
--------------------------------------------------------------------------------------------------ST20 srie II - Esquema Eletrnic.pdf
http://www.eggdisk.com/files/319652_mfhe0/Gradiente%20-%20Amplificador%20-%20ST2
0%20s%C3%A9rie%20II%20-%20Esquema%20Eletr%C3%B4nic.pdf]Gradiente> - Amplificador
- ST20 srie II - Esquema Eletrnic.pdf
--------------------------------------------------------------------------------------------------ST36S - Esquema Eletrnico.pdf
http://www.eggdisk.com/files/319653_yo3r6/Gradiente%20-%20Amplificador%20-%20ST3
6S%20-%20Esquema%20Eletr%C3%B4nico.pdf]Gradiente> - Amplificador - ST36S - Esque
ma Eletrnico.pdf
--------------------------------------------------------------------------------------------------STA900 - Esquema Eletrnico.pdf
http://www.eggdisk.com/files/319654_9mq6t/Gradiente%20-%20Amplificador%20-%20STA
900%20-%20Esquema%20Eletr%C3%B4nico.pdf]Gradiente> - Amplificador - STA900 - Esq
uema Eletrnico.pdf
--------------------------------------------------------------------------------------------------STA950 - Esquema Eletrnico.pdf
http://www.eggdisk.com/files/319655_vgayh/Gradiente%20-%20Amplificador%20-%20STA
950%20-%20Esquema%20Eletr%C3%B4nico.pdf]Gradiente> - Amplificador - STA950 - Esq
uema Eletrnico.pdf
--------------------------------------------------------------------------------------------------STC100MTC50 - Esquema Eletrnico.pdf
http://www.eggdisk.com/files/319656_flkbp/Gradiente%20-%20Amplificador%20-%20STC
100MTC50%20-%20Esquema%20Eletr%C3%B4nico.pdf]Gradiente> - Amplificador - STC100M
TC50 - Esquema Eletrnico.pdf

--------------------------------------------------------------------------------------------------SANYO_CLP-1451-2051-2151.html
http://www.4shared.com/file/15145910/d0a022d5/SANYO_CLP-1451-2051-2151.html>
--------------------------------------------------------------------------------------------------AIWA_CX-ZR800%20_Inf_14.pdf
http://www.videosistemas-net.com/tips/AIWA_CX-ZR800%20_Inf_14.pdf>
--------------------------------------------------------------------------------------------------MANUAL_VIDEOCAMARAS_SAMSUNG.pdf
http://www.videosistemas-net.com/tips/MANUAL_VIDEOCAMARAS_SAMSUNG.pdf>
--------------------------------------------------------------------------------------------------ESQUEMA CCE HPS 2181
http://www.4shared.com/file/4458744/2f2ce925/hps_2181.html?s=1>
--------------------------------------------------------------------------------------------------esquemarios
http://www.geocities.com/sosmonitores_es/esquemarios.html>
--------------------------------------------------------------------------------------------------20PT3336 philips
http://www.4shared.com/file/15165002/52a41a57/20pt3336.html>
--------------------------------------------------------------------------------------------------29 SX8879 philips para todos chassis G8
http://www.4shared.com/file/15172661/39cd81d0/G8_29SX8879.html>
--------------------------------------------------------------------------------------------------Panasonic SA-AK28
http://www.4shared.com/file/15210751/b0fff7a1/SAAK28.html>
--------------------------------------------------------------------------------------------------HOME philips LX700
http://www.4shared.com/file/15219090/130ad134/lx700_home.html>
--------------------------------------------------------------------------------------------------SONY_AA2C_CHASSIS_KV32XBR48_TV
http://www.4shared.com/file/15306913/e354db4a/SONY_AA2C_CHASSIS_KV32XBR48_TV_SM.
html>
--------------------------------------------------------------------------------------------------philips-ak-630
http://www.4shared.com/file/15488802/4120bce0/AK-630.html>
--------------------------------------------------------------------------------------------------sharp-tvc-1440B_1467B_20S01_20R11
http://www.4shared.com/file/10097681/b6c41e0f/tvc-1440B_1467B_20S01_20R11.html>
--------------------------------------------------------------------------------------------------LG_SC023A_CHASSIS_RP21FD10_TV_
http://www.4shared.com/file/15508998/8ad91ce4/LG_SC023A_CHASSIS_RP21FD10_TV_SM.h
tml>
--------------------------------------------------------------------------------------------------LG__MC017A_CHASSIS__RE29FA31PX_TV_
http://www.4shared.com/file/15574383/f1711253/LG__MC017A_CHASSIS__RE29FA31PX_TV_
SM.html>
--------------------------------------------------------------------------------

-------------------LG__PC08X8_KKV9012_TV-VCR
http://www.4shared.com/file/15574735/fcefc671/_2__LG__PC08X8_KKV9012_TV-VCR_SM.h
tml>
--------------------------------------------------------------------------------------------------LG LMU1350A
http://www.4shared.com/file/15580229/e7bb7976/LM-U1350A.html>
--------------------------------------------------------------------------------------------------philips AZ2000
http://www.4shared.com/file/15581856/8d6e1093/AZ_2000.html>
--------------------------------------------------------------------------------------------------fwc 253
http://www.4shared.com/file/15192632/62839a4e/FWC253.html>
--------------------------------------------------------------------------------------------------Samsung_SyncMaster753DFX 76DF_753V_753S_76V_76E_Chassis_AN17K_17L_17KS
http://www.4shared.com/file/15473387/a0973d56/Samsung_SyncMaster_753DFX_76DF_753
V_753S_76V_76E_Chassis_AN17K_17L_17KS.html?s=1>
--------------------------------------------------------------------------------------------------AV-32S2
http://www.4shared.com/file/18635526/d506a02f/AV-32S2_EKGR.html>
--------------------------------------------------------------------------------------------------sony lcd .klv19a10t
http://www.4shared.com/file/15446220/b5a0a0aa/KLV-S19A10T.html>
--------------------------------------------------------------------------------------------------sony lcd klv s 26at10
http://www.4shared.com/file/15481028/e0d8294e/KLV-S26A10T.html>
--------------------------------------------------------------------------------------------------FWM 372 e 572 philips
http://www.4shared.com/file/15611716/69da8275/FWM_372_e_572.html>
--------------------------------------------------------------------------------------------------PANASONIC_21GF10R_TV
http://www.4shared.com/file/15618632/204b0153/PANASONIC_21GF10R_TV_D.html>
--------------------------------------------------------------------------------------------------PANASONIC_21V50R_TV
http://www.4shared.com/file/15618688/236a3186/PANASONIC_21V50R_TV_D.html>
--------------------------------------------------------------------------------------------------sony-kv-34fv310-manual completo
http://www.4shared.com/file/15617704/bba48dc4/kv-34fv310.html>
--------------------------------------------------------------------------------------------------samsung CN-5038
http://www.4shared.com/file/15180594/e4208893/CN-5038.html>
--------------------------------------------------------------------------------------------------philips AZ2000
http://www.4shared.com/file/15581856/8d6e1093/AZ_2000.html>
--------------------------------------------------------------------------------------------------FWM 372 e 572 philips

http://www.4shared.com/file/15611716/69da8275/FWM_372_e_572.html>
--------------------------------------------------------------------------------------------------ponyprogV206f
http://www.4shared.com/file/15560270/5c208bf6/ponyprogV206f.html>
--------------------------------------------------------------------------------------------------HOTSpecs
http://www.4shared.com/file/14806593/ee275351/HOTSpecs.html>
-------------------------------------------------------------------------------------------------Pioneer_DEH-P490IB_P4900IB__CRT3846
http://www.4shared.com/file/15605942/ab5c21c4/Pioneer_DEH-P490IB_P4900IB__CRT384
6_.html>
--------------------------------------------------------------------------------------------------Pioneer_DEH-P590IB_P5900IB__CRT3851
http://www.4shared.com/file/15588362/d0732722/Pioneer_DEH-P590IB_P5900IB__CRT385
1_.html>
--------------------------------------------------------------------------------------------------Chassis GR1 AL
14GL1010, 14GL1310, 14GL1410, 16GL1030, 16GL1330, 20GL1040, 20GL1340, 20GL1440
http://www.4shared.com/file/14189427/44602eeb/gr1al.html>
--------------------------------------------------------------------------------------------------29gx1898 chassis ANUBIS VA AA
http://www.4shared.com/file/15654737/eeb58693/AnubisVA_AA.html>
--------------------------------------------------------------------------------------------------PIONEER_DEH-P7000R
http://www.4shared.com/file/15656660/a66d45c9/PIONEER_DEH-P7000R.html>
--------------------------------------------------------------------------------------------------DEX-P1R_DEH946
http://www.4shared.com/file/15654054/24a9662a/DEX-P1R_DEH946.html>
--------------------------------------------------------------------------------------------------MEX-1GP
http://www.4shared.com/file/15652138/5fecb86c/MEX-1GP.html>
-------------------------------------------------------------------------------------------------DEH-P840MP_DEH-P8400MP_DEH-P8450MP
http://www.4shared.com/file/15672122/dce23353/DEH-P840MP_DEH-P8400MP_DEH-P8450MP
.html>
-------------------------------------------------------------------------------------------------DEH-P8MP_P80MP_P1Y
http://www.4shared.com/file/14296474/4389c05c/DEH-P8MP_P80MP_P1Y.html>
-------------------------------------------------------------------------------------------------KEH-P4800_P4850_CRT2261
http://www.4shared.com/file/15655768/bbc10822/KEH-P4800_P4850_CRT2261.html>
-------------------------------------------------------------------------------------------------Pioneer_DEH-30MP
http://www.4shared.com/file/15588809/1daeb6cd/Pioneer_DEH-30MP.html>
-------------------------------------------------------------------------------------------------Pioneer20DEH-1400R_1400RB_1430R2028TDA738629

http://www.4shared.com/file/15672462/be4534bc/Pioneer20DEH-1400R_1400RB_1430R202
8TDA738629.html>
-------------------------------------------------------------------------------------------------PIONEER20DEH-230
http://www.4shared.com/file/15672613/85874683/PIONEER20DEH-230.html>
-------------------------------------------------------------------------------------------------PHILIPS FWC 555
http://www.4shared.com/file/15711825/1bfe1494/FWC555.html>
--------------------------------------------------------------------------------------------------MEH-P9000R
http://www.4shared.com/file/15714087/36d23cb8/MEH-P9000R.html>
--------------------------------------------------------------------------------------------------DEH-1700
http://www.4shared.com/file/15653120/f090667a/DEH-1700>
--------------------------------------------------------------------------------------------------DEH-3750MP_3770MP
http://www.4shared.com/file/15717151/79682219/DEH-3750MP_3770MP.html>
--------------------------------------------------------------------------------------------------DEH-P680MP_P6800MP_P6850MP
http://www.4shared.com/file/15716264/98d55c69/DEH-P680MP_P6800MP_P6850MP.html>
--------------------------------------------------------------------------------------------------DEH-P9400MP
http://www.4shared.com/file/15715775/e2b730bb/DEH-P9400MP.html>
--------------------------------------------------------------------------------------------------TOSHIBA_CN27C90_TV
http://www.4shared.com/file/15723243/44f921aa/TOSHIBA_CN27C90_TV_D.html>
--------------------------------------------------------------------------------------------------TOSHIBA_F3LW_CHASSIS_32WL36P_LCD_TV
http://www.4shared.com/file/15723862/c5ff668/TOSHIBA_F3LW_CHASSIS_32WL36P_LCD_TV
_SM.html>
--------------------------------------------------------------------------------------------------philco-TPF2130-TF2140TP14102010TV1423
http://www.4shared.com/file/15730687/c7fd843d/TPF2130-TF2140TP14102010TV1423.htm
l>
--------------------------------------------------------------------------------------------------gradiente- tv-1423 - tv-2023
http://www.4shared.com/file/15745782/33ab36a7/tv-1423-2023.html>
--------------------------------------------------------------------------------------------------dvd novo DVP5965K
http://www.4shared.com/file/15771396/e21686a4/dvp5965k.html>
--------------------------------------------------------------------------------------------------DVD5100 philips
http://www.4shared.com/file/15771954/ad3a2d52/DVD_5100.html>
--------------------------------------------------------------------------------------------------philips DVP 3020 e 3040
http://www.4shared.com/file/13218001/6ea308b4/DVP3020_e_3040.html>

--------------------------------------------------------------------------------------------------philips AZ2055
http://www.4shared.com/file/15777757/1bc60e3e/AZ2055.html>
--------------------------------------------------------------------------------------------------PIONNER GM-X372
http://www.4shared.com/file/15655555/edd9f332/GM-X372.html>
--------------------------------------------------------------------------------------------------PIONNER
http://www.4shared.com/file/15655406/8653cfa/GM-X434_X334.html>
--------------------------------------------------------------------------------------------------PIONNER GM-X574
http://www.4shared.com/file/15672829/44e1d154/GM-X574.html>
--------------------------------------------------------------------------------------------------PIONNER GM-X942
http://www.4shared.com/file/15655179/d1507547/GM-X942.html>
-------------- ------------------------------------------------------------------------------------PIONNER GMX-622
http://www.4shared.com/file/15654865/769054c7/GMX-622.html>
--------------------------------------------------------------------------------------------------PIONNER GM-3000T
http://www.4shared.com/file/15654639/8cfc1a3/Pioneer_GM-3000T.html>
--------------------------------------------------------------------------------------------------Provador_TSH_Yokes
http://www.4shared.com/file/15770566/d9bf81bc/Provador_TSH_Yokes.html>
--------------------------------------------------------------------------------------------------TV Toshiba TS-103 VSCR
http://www.4shared.com/file/15752911/d149e057/TVC_102_CR_102_TS_103_VSCR.html>
--------------------------------------------------------------------------------------------------philco tp 1410 tv-1423-2023
http://www.4shared.com/file/15745782/33ab36a7/tv-1423-2023.html>
--------------------------------------------------------------------------------------------------Esquema Toshiba -CE-27C10
http://www.4shared.com/file/15723243/44f921aa/TOSHIBA_CN27C90_TV_D.html>
--------------------------------------------------------------------------------------------------TABELA DE "ID" SONY KV & KP
http://www.4shared.com/file/15739547/14063ae2/Tabela_ID_s_KV_e_KP_2004.html>
--------------------------------------------------------------------------------------------------Manual de servio.Philco.TPF2130/TF2140/TP1410
http://www.4shared.com/file/15730687/c7fd843d/TPF2130-TF2140TP14102010TV1423.htm
l>
--------------------------------------------------------------------------------------------------TOSHIBA_F3LW_CHASSIS_32WL36P_LCD_TV
http://www.4shared.com/file/15723862/c5ff668/TOSHIBA_F3LW_CHASSIS_32WL36P_LCD_TV
_SM.html>
---------------------------------------------------------------------------------------------------

HPS-1490E
http://www.4shared.com/file/15816394/efd99844/HPS-1490E.html>
--------------------------------------------------------------------------------------------------HPS-1490F
http://www.4shared.com/file/15816517/ba843f44/HPS-1490F.html>
--------------------------------------------------------------------------------------------------HPS-1490I
http://www.4shared.com/file/15816618/287d9c8c/HPS-1490I.html>
--------------------------------------------------------------------------------------------------HPS-1403B_EE
http://www.4shared.com/file/14719122/e98899e3/HPS-1403B_EE.html>
--------------------------------------------------------------------------------------------------hps-2081
http://www.4shared.com/file/13393041/26e2d2d5/hps-2081.html>
--------------------------------------------------------------------------------------------------HPS2071B_EE
http://www.4shared.com/file/12742755/4011db7e/HPS2071B_EE.html>
--------------------------------------------------------------------------------------------------HPS2071_EE
http://www.4shared.com/file/12742642/c6ac15ab/HPS2071_EE.html>
--------------------------------------------------------------------------------------------------HPS-2070F
http://www.4shared.com/file/12740857/f4a35e4/HPS-2070F.html>
--------------------------------------------------------------------------------------------------hps-2070p
http://www.4shared.com/file/12740775/d82e7177/hps-2070p.html>
--------------------------------------------------------------------------------------------------hps-1450RS_e_2050RS
http://www.4shared.com/file/12603933/73d6e6c7/hps-1450RS_e_2050RS.html>
--------------------------------------------------------------------------------------------------HPS-_2092
http://www.4shared.com/file/9285503/6bd4f35d/HPS-_2092.html>
--------------------------------------------------------------------------------------------------hps-_2092b
http://www.4shared.com/file/9285856/6e1160c4/hps-_2092b.html>
--------------------------------------------------------------------------------------------------CCE DVD 2600
http://www.4shared.com/file/15840121/9248b1c2/DVD2600.html>
--------------------------------------------------------------------------------------------------philips AZ2558
http://www.4shared.com/file/15880024/2610c27b/AZ2558.html>
--------------------------------------------------------------------------------------------------philips AZ101
http://www.4shared.com/file/14874815/df6cfba4/AZ101.html>
---------------------------------------------------------------------------------------------------

philips AZ2045
http://www.4shared.com/file/15882228/862b92b5/AZ2045.html>
--------------------------------------------------------------------------------------------------philips AZ2000
http://www.4shared.com/file/15581856/8d6e1093/AZ_2000.html>
--------------------------------------------------------------------------------------------------philips FW270
http://www.4shared.com/file/12834581/974b845d/fwc270.html>
--------------------------------------------------------------------------------------------------harman kardon AVR230
http://www.4shared.com/file/12682024/73b4550e/HARMAN_KARDON__AVR230_sm.html>
--------------------------------------------------------------------------------------------------sony MHC-DX90
http://www.4shared.com/file/11914869/8fbf28ea/MHC-DX90.html>
--------------------------------------------------------------------------------------------------philips AZ1010
http://www.4shared.com/file/15885003/bd9cc568/AZ_1010.html>
--------------------------------------------------------------------------------------------------sony MHC-GN880-BR
http://www.4shared.com/file/10236342/3a771c9d/MHC-GN880__BR_.html>
--------------------------------------------------------------------------------------------------philco-pavm-2920
http://www.4shared.com/file/15893880/fa54390e/pavm_2920.html>
--------------------------------------------------------------------------------------------------philips MC 70
http://www.4shared.com/file/15938418/7ababf14/MC_70_21.html>
--------------------------------------------------------------------------------------------------sony_kp-65wv600
http://www.4shared.com/file/15995449/c810bbbb/sony_kp-65wv600_da-4x.html>
--------------------------------------------------------------------------------------------------sony_kdp-65ws550
http://www.4shared.com/file/15997186/58d8e346/sony_kdp-65ws550.html>
--------------------------------------------------------------------------------------------------philips chassis-L011Lac_2K3--_29PT4631A-21pt-5432-29pt4635-29pt-4640_e_outros
http://www.4shared.com/file/16040252/9bfd5016/chassis-L011Lac_2K3--_29PT4631A-21
pt-5432-29pt4635-29pt-4640_e_outros.html>
--------------------------------------------------------------------------------------------------RCA_CTC175A_CHASSIS_TV
http://www.4shared.com/file/16055647/ff3be486/RCA_CTC175A_CHASSIS_TV_SM.html>
chassis ref.a vrios modelos.
F20201WNFA1 CTC175A
F20201WNJX1 CTC175A
F20201WNTX1 CTC175A
F20203BKJX1 CTC175A
F20203BKTX1 CTC175A
F20301SFFA1 CTC175A
F20301SFJX1 CTC175A
F20601SEFA1 CTC175A

F20601SEJX1 CTC175A
X20101GSJX1 CTC175A
X20101GSTX1 CTC175A
--------------------------------------------------------------------------------------------------MONITOR Proview_AY565_LCD
http://www.4shared.com/file/16057954/de7c0bcb/_2__Proview_AY565_LCD_Service_Maun
al.html>
--------------------------------------------------------------------------------------------------philips 32PW978
http://www.4shared.com/file/16028479/70604ae1/32PW978.html>
--------------------------------------------------------------------------------------------------sony dvp-ns50p
http://www.4shared.com/file/12363836/ddf31c6c/DVP-NS50P__BR_.html>
--------------------------------------------------------------------------------------------------sony KV-29-38FV15
http://www.4shared.com/file/16031577/d6726beb/KV-29_38FV15B.html>
--------------------------------------------------------------------------------------------------philips magnavox MDV434
http://www.4shared.com/file/16095628/fc2eb390/mdv434.html>
--------------------------------------------------------------------------------------------------Panasonic 29V60
http://www.4shared.com/file/16141456/ebfd5c7d/29V60.html>
--------------------------------------------------------------------------------------------------philips AZ 1550
http://www.4shared.com/file/16157574/2e0c4388/AZ1550.html>
--------------------------------------------------------------------------------------------------tutorial sansung lcd
http://www.4shared.com/file/16185150/4ec741f5/Samsung_PDP_ALEXANDER_training.htm
l>
--------------------------------------------------------------------------------------------------sansung lcd tft as 17
http://www.4shared.com/file/16183745/650a755/sansung__TFT-LCD_Chassis_AS17_wdiag
.html>
--------------------------------------------------------------------------------------------------pioneer g6 lcd treinamento
http://www.4shared.com/file/16184321/cdb954af/g6_presentation_panel_592.html>
--------------------------------------------------------------------------------------------------jvc lcd trobleshooting
http://www.4shared.com/file/16183632/d6b7ce06/LCD_Troubleshooting.html>
--------------------------------------------------------------------------------------------------MUITO_BOM__MENU_DE_SERVISO_TV
http://www.4shared.com/file/14806831/f21e49a4/MUITO_BOM__MENU_DE_SERVISO_TV.html
>
--------------------------------------------------------------------------------------------------capacitores
http://www.4shared.com/file/14905152/eb75f85c/capacitores.html>
--------------------------------------------------------------------------------

-------------------DVDCougar_CVD550
http://www.4shared.com/file/12578339/7d21a3b0/DVDCougar_CVD550.html>
--------------------------------------------------------------------------------------------------Pioneer DEH-P6100R_7100R
http://www.4shared.com/file/16168557/9af01a36/DEH-P6100R_7100R.html>
--------------------------------------------------------------------------------------------------Esquema DVD TOSHIBA SD7050_7070
http://www.4shared.com/file/16164712/c7a4406b/MS_SD_7050_SD_7070.html>
--------------------------------------------------------------------------------------------------SAMSUNG CL29K40MQ
http://www.4shared.com/file/16056744/754570e5/Samsung_CL29K40MQ.html>
--------------------------------------------------------------------------------------------------guia de sintomas e soluoes plasma panasonic
http://www.4shared.com/file/16156663/13893e56/9_Gen_Plasma_Symptoms_Cures.html>
--------------------------------------------------------------------------------------------------philips 33FL1785
http://www.4shared.com/file/16222405/14e2d162/33FL1785__chassis_FL10S.html>
--------------------------------------------------------------------------------------------------panassonic chassi l48
http://www.4shared.com/file/16216644/cccf1d19/TC32LX50_TC26LX50_CASSIS_LH48.html
>
--------------------------------------------------------------------------------------------------plasma lg de 60 treinamento
http://www.4shared.com/file/16217095/b2574815/LG_PLASMA_60_INCH_PDP_TRAINING_MAN
UAL.html>
--------------------------------------------------------------------------------------------------lg lcd ml024 treinamento
http://www.4shared.com/file/16217406/fd950a3a/L_G___-LCD_TV_training_manual_ML02
4.html>
--------------------------------------------------------------------------------------------------Amplificadores automotivos Pioneer
http://www.4shared.com/file/15655555/edd9f332/GM-X372.html>
http://www.4shared.com/file/15655406/8653cfa/GM-X434_X334.html>
http://www.4shared.com/file/15672829/44e1d154/GM-X574.html>
http://www.4shared.com/file/15655179/d1507547/GM-X942.html>
http://www.4shared.com/file/15654865/769054c7/GMX-622.html>
http://www.4shared.com/file/15654639/8cfc1a3/Pioneer_GM-3000T.html>
--------------------------------------------------------------------------------------------------SEMP-TOSHIBA, - TVC 10" IL
http://www.4shared.com/file/16187664/cdc10821/TV_SEMP_10IL.html>
--------------------------------------------------------------------------------------------------DICAS_PHILCO_CPH-02
http://www.4shared.com/file/16223796/e6d3e2ad/DICAS_PHILCO_CPH-02.html>
--------------------------------------------------------------------------------------------------Disco virtual do Paulo
http://tec-som.4shared.com/>
--------------------------------------------------------------------------------

-------------------LG_AL04DA_CHASSIS_32LP1DUA_LCD_TV
http://www.4shared.com/file/16247093/93d46250/LG_AL04DA_CHASSIS_32LP1DUA_LCD_TV_
SM.html>
--------------------------------------------------------------------------------------------------LG_AL04DA_CHASSIS_32LX1DUA_LCD_TV
http://www.4shared.com/file/16247254/a2816c91/LG_AL04DA_CHASSIS_32LX1DUA_LCD_TV_
SM.html>
--------------------------------------------------------------------------------------------------MITSUBISHI TC2999
http://www.4shared.com/file/16224033/f4ced094/TC_2999.html>
--------------------------------------------------------------------------------------------------Philips DVP 3015K - 3020 - K3040 - K3002 - 3026 - K3046 - 3042 - 3028
http://www.4shared.com/file/16277803/ba5f271/Philips_DVP_3015K-3020-K3040-K30023026-K3046-3042-3028.html>
--------------------------------------------------------------------------------------------------SHARP__CD_-_BK_190-1600-1800_V
http://www.4shared.com/file/16229452/20f03785/SHARP__CD_-_BK_190-1600-1800_V.htm
l>
--------------------------------------------------------------------------------------------------SHARP_BP1200_SHARP_CD
http://www.4shared.com/file/16229523/1974fbe3/SHARP_BP1200_SHARP_CD.html>
--------------------------------------------------------------------------------------------------SHARP_CD_C1600C
http://www.4shared.com/file/16229676/162f4570/SHARP_CD_C1600C.html>
--------------------------------------------------------------------------------------------------SHARP_CD_E800W
http://www.4shared.com/file/16275812/cfb03b2d/SHARP_CD_E800W.html>
--------------------------------------------------------------------------------------------------Sharp_CD-BA_150
http://www.4shared.com/file/16275996/1c61f0b/Sharp_CD-BA_150.html>
--------------------------------------------------------------------------------------------------Sharp_CD-BA1300H
http://www.4shared.com/file/16275853/dcdbcebf/Sharp_CD-BA1300H.html>
--------------------------------------------------------------------------------------------------Sharp_CD-BA1500
http://www.4shared.com/file/16275926/e232c6c0/Sharp_CD-BA1500.html>
--------------------------------------------------------------------------------------------------Sharp_CD-BK1600V
http://www.4shared.com/file/16311514/e575bc19/Sharp_CD-BK1600V.html>
--------------------------------------------------------------------------------------------------SHARP_CD-BP160W
http://www.4shared.com/file/16311765/deb7ce26/SHARP_CD-BP160W.html>
--------------------------------------------------------------------------------------------------SHARP_CD-BP2000W
http://www.4shared.com/file/16311881/4c05608c/SHARP_CD-BP2000W.html>
--------------------------------------------------------------------------------

-------------------Sharp_CD-C451H
http://www.4shared.com/file/16312015/860ce18a/Sharp_CD-C451H.html>
--------------------------------------------------------------------------------------------------SONY_KEP42M1_PLASMA_TV
http://www.4shared.com/file/16341311/5972bb54/SONY_KEP42M1_PLASMA_TV_SM.html>
--------------------------------------------------------------------------------------------------SONY_KZ42TS1U_PLASMA_TV
http://www.4shared.com/file/16341010/2c33359b/SONY_KZ42TS1U_PLASMA_TV_SM.html>
--------------------------------------------------------------------------------------------------LG PP-43A80P
http://www.4shared.com/file/14041698/ffb72894/Esquema_LG_PP-43A80P.html>
--------------------------------------------------------------------------------------------------Gradiente tv2922.pdf
http://www.4shared.com/file/16349442/7df720c1/tv2922.html>
--------------------------------------------------------------------------------------------------BOLETINS PHILIPS 2006
http://www.4shared.com/dir/2571878/9e5a5e21/sharing.html>
--------------------------------------------------------------------------------------------------Apostila de treinamento para TVs Toshiba
http://www.4shared.com/file/16313513/d118e131/Treinamento_TV_Toshiba.html>
--------------------------------------------------------------------------------------------------LG_AL04DA_CHASSIS_32LP1DUA_LCD_TV
http://www.4shared.com/file/16247093/93d46250/LG_AL04DA_CHASSIS_32LP1DUA_LCD_TV_
SM.html>
--------------------------------------------------------------------------------------------------SONY_LA2_CHASSIS_KF42WE610_LCD_PROJECTION_TV
http://www.4shared.com/file/16380926/9ce07286/SONY_LA2_CHASSIS_KF42WE610_LCD_PRO
JECTION_TV_SM.html>
--------------------------------------------------------------------------------------------------esquemas dvd CCE
http://www.4shared.com/dir/2757410/dda22546/DVD.html>
--------------------------------------------------------------------------------------------------lenoxx
http://www.4shared.com/file/5901853/c0ed26a/Lenoxx.html>
senha=membrosvip
--------------------------------------------------------------------------------------------------ESQUEMAS DE SOM CCE
http://www.4shared.com/dir/2757406/2ddab132/SOM.html>
--------------------------------------------------------------------------------------------------Proview_566__Pro98_Serie
http://www.4shared.com/file/16397563/214bab60/Proview_566__Pro98_Series_.html>
--------------------------------------------------------------------------------------------------britania BSI 9000
http://www.4shared.com/file/16429195/c2b3ccdc/Britania_-_Audio_Home_Theater_BSI9000_-_Esquema_Eletrico.html>
--------------------------------------------------------------------------------

-------------------britania BSI9000 verso B


http://www.4shared.com/file/16429429/2e3a9bd7/Britania_-_Audio_Home_Theater_BSI9000_e_Versao_B_-_Esquema_Eletrico.html>
--------------------------------------------------------------------------------------------------tvs cce quase todos
http://www.4shared.com/dir/2757408/ca629c35/TVsharing.html>
--------------------------------------------------------------------------------------------------Panasonic 20C7 20C21
http://www.4shared.com/file/16457644/57aa3fa1/TC-20C21.html>
--------------------------------------------------------------------------------------------------samsung_20cn-5051_20z_20-_20cn-5055_20z
http://www.4shared.com/file/16464144/7f0fc1a/samsung_20cn-5051_20z_20-_20cn-5055
_20z.html>
--------------------------------------------------------------------------------------------------MS-6232CD_MS6233CD
http://www.4shared.com/file/16460023/416e335f/MS-6232CD_MS6233CD.html>
senha v i p
--------------------------------------------------------------------------------------------------SANYO_80P_CHASSIS_CTP3132_TV
http://www.4shared.com/file/16537662/c8e3de13/SANYO_80P_CHASSIS_CTP3132_TV_SM.ht
ml>
--------------------------------------------------------------------------------------------------SANYO_83SC21_CHASSIS__CTP7375_TV
http://www.4shared.com/file/16537840/1e45f0b7/SANYO_83SC21_CHASSIS__CTP7375_TV_D
.html>
--------------------------------------------------------------------------------------------------SANYO_83SC21_CHASSIS__CTP7375_TV
http://www.4shared.com/file/16537840/1e45f0b7/SANYO_83SC21_CHASSIS__CTP7375_TV_D
.html>
--------------------------------------------------------------------------------------------------ctp6791
http://www.4shared.com/file/16537860/2c739235/ctp6791_ee.html>
--------------------------------------------------------------------------------------------------Gradiente Ampli_Modelo126
http://www.4shared.com/file/16560250/5ffef3e9/Ampli_Modelo126.html>
--------------------------------------------------------------------------------------------------sanyo ctp-6771
http://www.4shared.com/file/16605056/8b13f58e/ctp-6771.html>
--------------------------------------------------------------------------------------------------guia de reparo ps2
http://www.4shared.com/file/16614568/c4910774/Ps2_Repair_Guide.html>
--------------------------------------------------------------------------------------------------guia de conserto ipod nano
http://www.4shared.com/file/16587444/67e2fcdb/iPod_Nano_Click_Wheel.html>
--------------------------------------------------------------------------------------------------treinamento philips 3 dtc [audio]

http://www.4shared.com/file/16613084/c8b89c83/Philips_L05HDTM_Training_Manual.ht
ml>
--------------------------------------------------------------------------------------------------philips l05 treinamento
http://www.4shared.com/file/16613084/c8b89c83/Philips_L05HDTM_Training_Manual.ht
ml>
--------------------------------------------------------------------------------------------------philips queima do an7591 nos diversos FW'S
http://www.4shared.com/file/16642627/df8fb114/queima_do_ci_an7591.html>
--------------------------------------------------------------------------------------------------projetor sony ra [ ingles]
http://www.4shared.com/file/16716684/30b7c3a6/proyector_RA_chasis.html>
--------------------------------------------------------------------------------------------------EQUIVALNCIAS DE CIs DE MONITORES
http://www.4shared.com/file/16674832/deab7cdc/EQUIVALNCIAS_DE_CIs_DE_MONITORES.h
tml>
--------------------------------------------------------------------------------------------------CIRCULARES DIVERSAS MARCAS
http://www.4shared.com/dir/2519254/e2b92811/CIRCULARES_TCNICAS.html>
--------------------------------------------------------------------------------------------------philips MCM 530 e 590
http://www.4shared.com/file/16761714/cf40f671/MCM_530-590.html>
--------------------------------------------------------------------------------------------------Apostila de treinamento em DVD Toshiba
http://www.4shared.com/file/16746790/e7e3d3b9/Apostila_de_DVD_RF02.html>
--------------------------------------------------------------------------------------------------ESQUEMA TPF 29S4F
http://www.4shared.com/file/15458768/46371f4/manualtecnicotpf29s4f_pf2121f.html>
--------------------------------------------------------------------------------------------------Notebook toshiba tecra 8000
http://www.4shared.com/file/16720622/41f0ab15/Tecra_8000.html>
--------------------------------------------------------------------------------------------------esquema aiwa Z-R990
http://www.4shared.com/file/16690775/1fad4270/MANUAL_DE_SERVIO_Z-R990.html>
--------------------------------------------------------------------------------------------------DVP 5965K com HDMI
http://www.4shared.com/file/16839340/4e517bbb/_2__dvp5965k.html>
--------------------------------------------------------------------------------------------------AS9604
http://www.4shared.com/file/16768189/19b602bd/AS_9604.html>
--------------------------------------------------------------------------------------------------mcm595
http://www.4shared.com/file/16765452/cf6bbf4e/MCM595-19.html>
--------------------------------------------------------------------------------------------------mc118
http://www.4shared.com/file/16767652/66e6a3ab/MC_118.html>

--------------------------------------------------------------------------------------------------mcs240
http://www.4shared.com/file/16774269/f2c50762/MCS_240.html>
--------------------------------------------------------------------------------------------------pet 725 compacto da philips xinaronga
http://www.4shared.com/file/16773312/b6431aa3/PET_725.html>
--------------------------------------------------------------------------------------------------mcm 250
http://www.4shared.com/file/16766533/fd41ed87/MC_M_250.html>
--------------------------------------------------------------------------------------------------MC320
http://www.4shared.com/file/16771383/ba8f59f7/MC_320-21.html>
--------------------------------------------------------------------------------------------------mcm530 590
http://www.4shared.com/file/16761714/cf40f671/MCM_530-590.html>
--------------------------------------------------------------------------------------------------mc 260
http://www.4shared.com/file/16767182/d607cb63/MC_260.html>
--------------------------------------------------------------------------------------------------mcw 770
http://www.4shared.com/file/16764016/13df71ea/MCW_770.html>
--------------------------------------------------------------------------------------------------power's de audio
http://www.network54.com/Forum/183758/thread/1180274167/last-1180306959/para+que
m+gosta+de+audio+e+quer+se+divertir>
--------------------------------------------------------------------------------------------------fwc38
http://www.4shared.com/file/12943520/fe086b4d/FW_C_38.html>
--------------------------------------------------------------------------------------------------mcm 108
http://www.4shared.com/file/16768487/f8c5ed51/MCM108.html>
--------------------------------------------------------------------------------------------------mecanismos aiwa para estudos
http://www.4shared.com/file/16905726/304bc719/mecanismos_CD.html>
--------------------------------------------------------------------------------------------------DICAS_SHARP_C-_2017
http://www.4shared.com/file/16872363/c7ef6942/DICAS_SHARP_C-_2017.html>
--------------------------------------------------------------------------------------------------Phillips_21PT543178R_543278R_553178R_28PW643178R... chassis L011L2K
http://www.4shared.com/file/16876482/a446f588/Phillips_21PT543178R_543278R_55317
8R_28PW643178R_653278R_29PT463178R_563278R_32PW653278R__L011L2K.html>
senha: p16c3z23
--------------------------------------------------------------------------------------------------sony mhc-gnx90-br
http://www.4shared.com/file/16952930/9f9ac9ae/MHC-GNX90__BR_.html>
--------------------------------------------------------------------------------

-------------------GX e GR dominem como se programa a memo


http://www.4shared.com/file/17001575/d9ab7ba3/SCANER_DADOS_DE_EPROM.html>
--------------------------------------------------------------------------------------------------15,5 megas de memos
http://www.4shared.com/file/14064544/cf707f9/memrias_vip.html>
--------------------------------------------------------------------------------------------------philips vr355 e 455
http://www.4shared.com/file/17020019/42f066e0/VR_355_E455.html>
--------------------------------------------------------------------------------------------------philips chassis A8
http://www.4shared.com/file/11887532/b93b884e/4806_727_17216.html>
--------------------------------------------------------------------------------------------------memorias do leandro 130 megas senha forum
http://www.4shared.com/dir/2835819/797beb78/ARQUIVOS_DE_EEPROM.html>
--------------------------------------------------------------------------------------------------33PT670 chassis Z5
http://www.4shared.com/file/17030464/49690df6/33PT670_chassis_z5.html>
--------------------------------------------------------------------------------------------------AZ 2060
http://www.4shared.com/file/17078112/d9b472c0/AZ_2060.html>
--------------------------------------------------------------------------------------------------SONY MDS-JE530
http://www.4shared.com/file/17082334/ec8816ac/sony_MDS-JE530_service_manual.html
>
--------------------------------------------------------------------------------------------------Sony HCD - A290
http://www.4shared.com/file/17029016/af4734fb/HCD-A290.html>
--------------------------------------------------------------------------------------------------DVP3120 DVP3120K p/ todos
http://www.4shared.com/file/17087758/83b3a5ef/DVP3120_DVP3120K.html>
--------------------------------------------------------------------------------------------------DVP3140_3142.html
http://www.4shared.com/file/17087914/e4f701ca/DVP3140_3142.html>
--------------------------------------------------------------------------------------------------DVP5160_5166_5168
http://www.4shared.com/file/17088163/63a24340/DVP5160_5166_5168_.html>
--------------------------------------------------------------------------------------------------DVP5980_5982_5986
http://www.4shared.com/file/17088339/fd848a75/DVP5980_5982_5986.html>
--------------------------------------------------------------------------------------------------LG 29FE8RL
http://www.4shared.com/file/17116096/b30107d0/29FE8RL_LG_otimizado.html>
--------------------------------------------------------------------------------------------------dvd daewoo dg-k23
http://www.4shared.com/file/16662615/606cd09b/DG-K23.html>

--------------------------------------------------------------------------------------------------sony hcd-grx-700
http://www.4shared.com/file/17122058/30ce885c/HCD-GRX70_X__MHC_GRX_700.html>
--------------------------------------------------------------------------------------------------SONY TV LCD KLV27HR3 CHASSIS WA1
http://www.4shared.com/file/17145223/f94ede64/SONY_WA1_CHASSIS_KLV27HR3_LCD_TV_S
M.html>
--------------------------------------------------------------------------------------------------SONY TV PLASMA KZ32TS1U
http://www.4shared.com/file/17145937/eb6dc4dd/SONY_KZ32TS1U_PLASMA_TV_SMpdf.html
>
--------------------------------------------------------------------------------------------------300W_MJ15003_15004
http://www.4shared.com/file/16741327/ad0fb4/300W_MJ15003_15004.html>
--------------------------------------------------------------------------------------------------500W_MJL21193_21194
http://www.4shared.com/file/16741211/c3219375/500W_MJL21193_21194.html>
--------------------------------------------------------------------------------------------------1000w_ampli_com_fets
http://www.4shared.com/file/16741133/1d5f2e82/1000w_ampli_com_fets.html>
--------------------------------------------------------------------------------------------------boletins da sony
http://www.4shared.com/file/17181194/cc0a5603/kv_online.html>
--------------------------------------------------------------------------------------------------Pioneer XR-A670
http://www.4shared.com/file/17208750/a8b3d741/XR-A670.html>
--------------------------------------------------------------------------------------------------dvp4000
http://www.4shared.com/file/17218917/6545835c/DVP4000.html>
--------------------------------------------------------------------------------------------------Circuito IK dos Tvs Sony
http://www.4shared.com/file/17254317/d7841ff2/Circuito_IK_dos_Tvs_Sony.html>
--------------------------------------------------------------------------------------------------ESQUEMA SONY LBT-N555AV
http://www.4shared.com/file/7792360/4f8234/Sony_LBT_-_N555AV.html?s=1>
--------------------------------------------------------------------------------------------------ARQUIVOS DE EEPROM
http://www.4shared.com/dir/2835819/797beb78/ARQUIVOS_DE_EEPROM.html>
SENHA = forum
--------------------------------------------------------------------------------------------------MANUAL SONY MHC-GNX100
http://www.4shared.com/file/17212391/26d5c9d3/MHC-GNX100_Ver13__BR_.html>
--------------------------------------------------------------------------------------------------MANUAL SONY MHC GNX 800
http://www.4shared.com/file/17209998/b8ff5a10/MHC-GNX800__BR_.html>
--------------------------------------------------------------------------------

-------------------esquema som pioneer XR-A670


http://www.4shared.com/file/17208750/a8b3d741/XR-A670.html>
--------------------------------------------------------------------------------------------------Pioneer_VSX-D711
http://www.4shared.com/file/17213413/bdf15317/Pioneer_VSX-D711.html>
--------------------------------------------------------------------------------------------------Pioneer_VSX-D710S
http://www.4shared.com/file/17214098/782490f2/Pioneer_VSX-D710S.html>
--------------------------------------------------------------------------------------------------Sony KV-29XTR30
http://www.4shared.com/file/17307973/9a2d0a80/TV_SONY_KV29XT30_CHASSIS_GP1A.html
>
--------------------------------------------------------------------------------------------------plasma philips LC4.7 U AA
http://www.4shared.com/file/17323445/a519ab12/LC47_U_AA.html>
--------------------------------------------------------------------------------------------------SAMSUNG
http://www.4shared.com/dir/2785397/dcc92052/sharing.html>
--------------------------------------------------------------------------------------------------MONITOR PHILLIPS CM23
http://www.4shared.com/file/17332365/17bc91c0/CM23.html>
--------------------------------------------------------------------------------------------------PHILIPS AS560__AS660C__AS565__AS665C__AS765C
http://www.4shared.com/file/15927545/1dbd643d/AS560__AS660C__AS565__AS665C__AS76
5C.html?s=1>
--------------------------------------------------------------------------------------------------plasma philips LC4.6Uaa
http://www.4shared.com/file/17428052/ef6b1095/LC46U.html>
--------------------------------------------------------------------------------------------------plasma philips LC4.3Uaa
http://www.4shared.com/file/17427636/e2b21fee/LC43Uaa.html>
--------------------------------------------------------------------------------------------------plasma philpis LC4.9AA
http://www.4shared.com/file/17428685/c02c87c9/LC49A.html>
--------------------------------------------------------------------------------------------------philips LCD 1.20e
http://www.4shared.com/file/17429278/86b02802/lcd120e.html>
--------------------------------------------------------------------------------------------------HERCULES.EXE
http://www.4shared.com/file/17436913/2e6e800b/Herculesexe_programa_dele.html>
--------------------------------------------------------------------------------------------------HERCULES esquema layout e software aproveitem
http://www.4shared.com/file/17435942/36abeb36/hercules.html>
--------------------------------------------------------------------------------------------------DSC-TI SONY

http://www.4shared.com/file/17496562/5582c79f/dsc-l1.html>
--------------------------------------------------------------------------------------------------DSC- P10 E P12
http://www.4shared.com/file/17497442/decaa84f/dsc-p10_e_p12.html>
--------------------------------------------------------------------------------------------------DSC-P73 SONY
http://www.4shared.com/file/17499663/78a05906/dsc-p73.html>
--------------------------------------------------------------------------------------------------dsc-f828 sony
http://www.4shared.com/file/17494800/4f075aed/dsc-f828.html>
--------------------------------------------------------------------------------------------------DSC-P150 SONY
http://www.4shared.com/file/17494225/cc4936/dsc-p150.html>
--------------------------------------------------------------------------------------------------DSC - P93A SONY
http://www.4shared.com/file/17501440/d3e3276b/dsc-p93a.html>
--------------------------------------------------------------------------------------------------DSC-S40 SONY
http://www.4shared.com/file/17503401/6a811a72/dsc-s40.html>
--------------------------------------------------------------------------------------------------DSC - P 200 SONY
http://www.4shared.com/file/17502302/4e7b3a28/dsc-p200.html>
--------------------------------------------------------------------------------------------------DSC - T1 SONY
http://www.4shared.com/file/17505906/d956435e/dsc-t1.html>
--------------------------------------------------------------------------------------------------DSC - T5 SONY
http://www.4shared.com/file/17508319/af0f3285/dsc-t5.html>
--------------------------------------------------------------------------------------------------DSC - S80 SONY
http://www.4shared.com/file/17504698/5cccf548/dsc-s80.html>
--------------------------------------------------------------------------------------------------DSC - W1 SONY
http://www.4shared.com/file/17510711/5e091334/dsc-w1.html>
--------------------------------------------------------------------------------------------------DSC - T7 SONY
http://www.4shared.com/file/17509112/83e55806/dsc-t7.html>
--------------------------------------------------------------------------------------------------DSC-P41 E P43
http://www.4shared.com/file/17498089/bac78641/dsc-p41_e_p43.html>
--------------------------------------------------------------------------------------------------DSC - W5 SONY
http://www.4shared.com/file/17512365/bb2521bd/dsc-w5.html>
--------------------------------------------------------------------------------------------------DSC - P93 SONY

http://www.4shared.com/file/17500456/9b27d47a/dsc-p93.html>
--------------------------------------------------------------------------------------------------DSC - P9 SONY
http://www.4shared.com/file/17518811/90e17ce6/dsc-p9.html>
--------------------------------------------------------------------------------------------------DSC - W5 E W7
http://www.4shared.com/file/17513318/3269aca2/dsc-w5_e_w7.html> DSC - W100 http:
//www.4shared.com/file/17517352/39b217ef/dsc-w100.html>
--------------------------------------------------------------------------------------------------samsung 794 training
http://www.4shared.com/file/17562484/e5cef630/Training_Manual_794MB.html>
--------------------------------------------------------------------------------------------------LC43Uaa
http://www.4shared.com/file/17427636/e2b21fee/LC43Uaa.html>
--------------------------------------------------------------------------------------------------lcd120e
http://www.4shared.com/file/17429278/86b02802/lcd120e.html>
--------------------------------------------------------------------------------------------------LC46U
http://www.4shared.com/file/17428052/ef6b1095/LC46U.html>
--------------------------------------------------------------------------------------------------LC49A
http://www.4shared.com/file/17428685/c02c87c9/LC49A.html>
--------------------------------------------------------------------------------------------------LC47_U_AA
http://www.4shared.com/file/17323445/a519ab12/LC47_U_AA.html>
--------------------------------------------------------------------------------------------------Circulares Gradiente/Philco plasma/dvd p/ todos!!!!.....
http://www.2shared.com/file/1958901/df12c9dd/service_grd_philco.html>
--------------------------------------------------------------------------------------------------TV Philco PS2914
http://www.4shared.com/file/17612297/55e544c7/Philco_PS2914.html>
--------------------------------------------------------------------------------------------------DCR-TVR60:
http://www.4shared.com/file/17695759/b584975f/DCR-TVR60.html>
--------------------------------------------------------------------------------------------------DCR-PC105:
http://www.4shared.com/file/17689280/88b0555/DCR-PC105.html>
--------------------------------------------------------------------------------------------------DCR-HC43:
http://www.4shared.com/file/17688656/ebf31194/DCR-HC43.html>
--------------------------------------------------------------------------------------------------DCR-HC40:
http://www.4shared.com/file/17687107/bcafd394/DCR-HC40.html>
---------------------------------------------------------------------------------------------------

DCR-HC30:
http://www.4shared.com/file/17685239/d875db82/DCR-HC30.html>
--------------------------------------------------------------------------------------------------DCR-HC21:
http://www.4shared.com/file/17681548/6a1efc01/DCR-HC21.html>
--------------------------------------------------------------------------------------------------DCR-HC15:
http://www.4shared.com/file/17679984/81e3b97c/DCR-HC15.html>
--------------------------------------------------------------------------------------------------DVR-DVD203:
http://www.4shared.com/file/17678128/c4152b00/DCR-DVD203.html>
--------------------------------------------------------------------------------------------------DCR-DVD101:
http://www.4shared.com/file/17647632/27578f5c/DCR-DVD101.html>
--------------------------------------------------------------------------------------------------CCD-TVR138:
http://www.4shared.com/file/17642565/f1dca0d1/CCD-TVR138.html>
--------------------------------------------------------------------------------------------------CCD-TR128:
http://www.4shared.com/file/17641653/23614790/CCD-TVR128.html>
--------------------------------------------------------------------------------------------------CCD-TR317:
http://www.4shared.com/file/17639053/5078cfdd/CCD-TR317-517-TVR37-67.html>
--------------------------------------------------------------------------------------------------34PT8422 chassis L05UAA
http://www.4shared.com/file/17817327/ba076679/34PT8422.html>
--------------------------------------------------------------------------------------------------lg todos
http://136.166.4.200/contents/Files/Displays/>
http://136.166.4.200/contents/Files/>
http://136.166.4.200/contents/>
http://136.166.4.200/video.htm>
http://136.166.4.200/appliance.htm>
http://136.166.4.200/computer.htm>
--------------------------------------------------------------------------------------------------FWM352/371
http://www.4shared.com/file/17885824/884272d8/FWM352.html>
--------------------------------------------------------------------------------------------------anubis 2 verso
http://www.4shared.com/file/17908753/5b7d7638/ANUBIS-14GX1616-20GX1656-21GX1666.
html>
--------------------------------------------------------------------------------------------------philips-14PV-461-A
http://www.4shared.com/file/18030779/dacd8eba/14PV-461-A.html>
--------------------------------------------------------------------------------------------------philips 14 e 20 PV461 cangur
http://www.4shared.com/file/18140271/aba1cbd6/14PV461.html>

--------------------------------------------------------------------------------------------------tv cce hps 2904


http://www.4shared.com/file/18241611/c4dad147/HPS2904_EE.html>
--------------------------------------------------------------------------------------------------treinamento P72 sony
http://www.4shared.com/file/18096496/b96c4781/treinamento_p72_sony.html>
--------------------------------------------------------------------------------------------------treinamento sony BA-5D
http://www.4shared.com/file/18175304/e536494b/BA-5D.html>
--------------------------------------------------------------------------------------------------samsung cl29k40mq
http://www.4shared.com/file/18297242/fa564709/CL29K40MQ.html>>;; samsung
--------------------------------------------------------------------------------------------------SAMSUNG LCD SP403JHAX CHASSIS PT51A
http://www.4shared.com/file/18335911/39980e98/SAMSUNG_PLT51A_CHASSIS_SP403JHAX_L
CD_PROJECTION_TV_SM.html>
--------------------------------------------------------------------------------------------------SAMSUNG LCD LW22A13W CHASSIS PD22EO
http://www.4shared.com/file/18336191/ede77ac6/SAMSUNG_PD22EO_CHASSIS_LW22A13W__L
CD_TV_SM.html>
--------------------------------------------------------------------------------------------------projetor sony VPL-CS7 e VPL-ES2
http://www.4shared.com/file/18359371/a7c366d0/VPL-CS7_e_VPL-ES2.html>
--------------------------------------------------------------------------------------------------SONY KV32S40 CHASSIS AA2D
http://www.4shared.com/file/18381396/9a0032a3/SONY_AA2D_CHASSIS_KV32S40_TV_SM.ht
ml>
--------------------------------------------------------------------------------------------------PLASMA 42PF7321
http://www.4shared.com/file/17428685/c02c87c9/LC49A.html>
--------------------------------------------------------------------------------------------------Manual LG LM-730 A
http://www.4shared.com/file/18432475/e0a5f655/LG_LM-M730A.html>
--------------------------------------------------------------------------------------------------treinamento sony wega parte 2.chassi ba-6 e xbr
http://www.4shared.com/file/18409771/752f71c4/TREINAMENTO_SONY_WEGA_2.html>
--------------------------------------------------------------------------------------------------FWC700
http://www.4shared.com/file/18449055/b0bb671a/FWC700.html>
--------------------------------------------------------------------------------------------------VIDEO AULA - 10 PASSOS PARA LOCALIZAR FALHAS EM MICROCONTROLADORES DA TV SONY WE
GA
Parte 1:
http://www.4shared.com/file/18049007/b853b065/parte_1.html>
Parte 2:
http://www.4shared.com/file/18049441/32557888/parte_2.html>
Parte 3:

http://www.4shared.com/file/18071190/7423a687/parte_3.html>
Parte 4:
http://www.4shared.com/file/18072935/e20044d4/parte_4.html>
--------------------------------------------------------------------------------------------------TREINAMENTO SOM AIWA DOS NOVOS
http://www.4shared.com/file/18471785/824e5ded/JAX-PK5.html>
--------------------------------------------------------------------------------------------------REPARANDO PLAYSTATION
http://www.brasilmodchip.com.br/index8.htm>
--------------------------------------------------------------------------------------------------LG: RP-29fa30
http://www.4shared.com/file/12003648/76400da8/RP-29FA30A_CP-29Q54A-chassis_mc-02
2a.html>
--------------------------------------------------------------------------------------------------Zenith - Manuais de Treinamento de TVC
http://www.4shared.com/dir/3053136/342c8c41/Zenith.html>
--------------------------------------------------------------------------------------------------espao virtual Casio - 124 Manuais de Servio
http://www.4shared.com/dir/3053619/93eae5d7/Casio.html>
--------------------------------------------------------------------------------------------------Aiwa CX-N990
http://www.4shared.com/file/18639425/71b241a/Aiwa_CX-N990.html>
--------------------------------------------------------------------------------------------------TV GRADIENTE M-29I
http://www.4shared.com/file/8809729/c7f97004/Gradiene_M-29i__M-34i__M-38i.html>
--------------------------------------------------------------------------------------------------Disco virtual do Antonio Anceski
http://www.4shared.com/dir/2757403/5db045bd/CCE.html>
--------------------------------------------------------------------------------------------------CN 3338
http://www.4shared.com/file/18452585/e9bf750d/Esquema_TV_Samsung_TVCN3338.html>
--------------------------------------------------------------------------------------------------sony MHC-DX9
http://www.4shared.com/file/18474550/73d0f373/MHC-DX9.html>
--------------------------------------------------------------------------------------------------SAMSUNG SP42W5HFX CHASSIS J52A
http://www.4shared.com/file/18477155/160600ce/SAMSUNG_J52A_CHASSIS_SP42W5HFX_PRO
JECTION_TV_SM.html>
--------------------------------------------------------------------------------------------------SAMSUNG SP61J5HFX CHASSIS J51A
http://www.4shared.com/file/18476665/80d822ed/SAMSUNG_J51A_CHASSIS_SP61J5HFX__PR
OJECTION_TV_SM.html>
--------------------------------------------------------------------------------------------------philips dvd 711
http://www.4shared.com/file/18531714/1a57a357/DVD711.html>
---------------------------------------------------------------------------------------------------

28gr7585
http://www.4shared.com/file/18532213/904d5bf1/28GR7585_GR1CL2_VERSO.html>
--------------------------------------------------------------------------------------------------dvd 703
http://www.4shared.com/file/18532572/b45fda64/DVD_703.html>
--------------------------------------------------------------------------------------------------dvd707
http://www.4shared.com/file/18533202/46ed3d43/DVD707.html>
--------------------------------------------------------------------------------------------------dvp642
http://www.4shared.com/file/18533456/387a71ad/dvp642.html>
--------------------------------------------------------------------------------------------------dvd625
http://www.4shared.com/file/11333470/a0ee10d4/DVD625.html>
--------------------------------------------------------------------------------------------------dvd39dvx
http://www.4shared.com/file/9484527/306ad1be/DVD39DVX.html>
--------------------------------------------------------------------------------------------------dvd720
http://www.4shared.com/file/18534835/63e4464c/DVD_720.html>
--------------------------------------------------------------------------------------------------dvd627
http://www.4shared.com/file/18539131/99326107/DVD_627.html>
--------------------------------------------------------------------------------------------------dvd 727
http://www.4shared.com/file/18535664/dbb6c8f0/DVD727k.html>
--------------------------------------------------------------------------------------------------dvd 736
http://www.4shared.com/file/18539827/669bcefc/DVD_736.html>
--------------------------------------------------------------------------------------------------dvd 625
http://www.4shared.com/file/18540260/5e2c8817/DVD625.html>
--------------------------------------------------------------------------------------------------20pt529 e 14pt519
http://www.4shared.com/file/18541085/bfde21d/20pt529_e_14pt519.html>
--------------------------------------------------------------------------------------------------treinamento dvd sony
http://www.4shared.com/file/18556277/c1585a99/TREINAMENTO_DVD_SONY_DVP_NS50P-DVP
_NS325.html>
--------------------------------------------------------------------------------------------------treinamento aiwa
http://www.4shared.com/file/18471785/824e5ded/JAX-PK5.html>
--------------------------------------------------------------------------------------------------esquemas csio
http://www.4shared.com/dir/3053619/93eae5d7/Casio.html>
--------------------------------------------------------------------------------

-------------------TV JVC AVT 2122 chassis GA2


http://www.4shared.com/file/18570007/d236148c/JVC_GA2_CHASSIS_AVT2122_TV_SM.html
>
--------------------------------------------------------------------------------------------------LG TV PLASMA RU42PZ90 CHASSIS RF03GA
http://www.4shared.com/file/18534573/e633b52e/LG_RF03GA_CHASSIS_RU42PZ90_PLASMA_
TV_SM.html>
--------------------------------------------------------------------------------------------------LG TV PLASMA 42PX4D CHASSIS AFO5FB
http://www.4shared.com/file/18591744/2d904fb3/LG_AF05FB_CHASSIS_42PX4D_PLASMA_TV
_SM.html>
--------------------------------------------------------------------------------------------------TV LG RP-21FD15
http://www.4shared.com/file/18616911/12063a5/LG_RP-21FD15.html>
--------------------------------------------------------------------------------------------------LG que o wilson upou senha dt830b
http://www.4shared.com/dir/2029309/f7d021bd/sharing.html>
--------------------------------------------------------------------------------------------------SONY MHC-DX3
http://www.4shared.com/file/18623730/3ef19659/MHC-DX3.html>
--------------------------------------------------------------------------------------------------jvc AV-32S2
http://www.4shared.com/file/18635526/d506a02f/AV-32S2_EKGR.html>
--------------------------------------------------------------------------------------------------TV CCE HPS2910
http://www.4shared.com/file/18642199/8eb32800/HPS2910_EE.html>
--------------------------------------------------------------------------------------------------philco PVT2014
http://www.4shared.com/file/18665908/c17299be/PVT2014.html>
--------------------------------------------------------------------------------------------------sony DAV-SC5
http://www.4shared.com/file/18664835/2d90bb92/Sony_HCD-SC5-SC6-SC8DAV-SC5.html>
--------------------------------------------------------------------------------------------------PANASONIC TC29G9
http://www.4shared.com/file/18666867/14e0e670/DE-TC29G9A.html>
--------------------------------------------------------------------------------------------------panasonic TC20C5
http://www.4shared.com/file/18696427/fbc64dc1/TC20C5.html>
--------------------------------------------------------------------------------------------------MONITOR SONY LCD CPDL133
http://www.4shared.com/file/18705279/b17df60b/CPDL133.html>
--------------------------------------------------------------------------------------------------MONITOR SONY LCD CPDL150
http://www.4shared.com/file/18705767/491528a6/CPDL150.html>
---------------------------------------------------------------------------------------------------

MONITOR SONY LCD CPDL181A


http://www.4shared.com/file/18706115/fe620c11/CPDL181A.html>
--------------------------------------------------------------------------------------------------MONITOR SONY LCD CPDM151
http://www.4shared.com/file/18706373/42dfdacc/CPDM151.html>
--------------------------------------------------------------------------------------------------MONITOR SONY LCD SDM-M51
http://www.4shared.com/file/18706861/b99f6540/_2__SDMM51.html>
--------------------------------------------------------------------------------------------------MONITOR SONY LCD SDM-N50
http://www.4shared.com/file/18707260/7bb3b765/SDMN50.html>
--------------------------------------------------------------------------------------------------MONITOR SONY LCD SDM-N50PS
http://www.4shared.com/file/18707526/f3f3c1d1/SDMN50PS.html>
--------------------------------------------------------------------------------------------------samsung 753V
http://www.4shared.com/file/18742279/d92a6872/753V.html>
--------------------------------------------------------------------------------------------------MCM595-19
http://www.4shared.com/file/16765452/cf6bbf4e/MCM595-19.html>
--------------------------------------------------------------------------------------------------32PW978
http://www.4shared.com/file/16028479/70604ae1/32PW978.html>
--------------------------------------------------------------------------------------------------PET_725
http://www.4shared.com/file/16773312/b6431aa3/PET_725.html>
--------------------------------------------------------------------------------------------------MC_260
http://www.4shared.com/file/16767182/d607cb63/MC_260.html>
--------------------------------------------------------------------------------------------------MC_118
http://www.4shared.com/file/16767652/66e6a3ab/MC_118.html>
--------------------------------------------------------------------------------------------------AS_9604
http://www.4shared.com/file/16768189/19b602bd/AS_9604.html>
--------------------------------------------------------------------------------------------------MCM108
http://www.4shared.com/file/16768487/f8c5ed51/MCM108.html>
--------------------------------------------------------------------------------------------------MCS_240
http://www.4shared.com/file/16774269/f2c50762/MCS_240.html>
--------------------------------------------------------------------------------------------------MC_320-21
http://www.4shared.com/file/16771383/ba8f59f7/MC_320-21.html>
---------------------------------------------------------------------------------------------------

dvp5965K
http://www.4shared.com/file/16839340/4e517bbb/_2_dvp5965K.html>
--------------------------------------------------------------------------------------------------FWM_37
http://www.4shared.com/file/12842808/b9dda66e/FWM_37.html>
--------------------------------------------------------------------------------------------------MCM_530-590
http://www.4shared.com/file/16761714/cf40f671/MCM_530-590.html>
--------------------------------------------------------------------------------------------------mecanismos_CD
http://www.4shared.com/file/16905726/304bc719/mecanismos_CD.html>
--------------------------------------------------------------------------------------------------MC_250
http://www.4shared.com/file/16766533/fd41ed87/MC_250.html>
--------------------------------------------------------------------------------------------------MCW_770
http://www.4shared.com/file/16764016/13df71ea/MCW_770.html>
--------------------------------------------------------------------------------------------------memorias_vip
http://www.4shared.com/file/14064544/cf707f9/memorias_vip.html>
--------------------------------------------------------------------------------------------------33PT670_chassi_z5
http://www.4shared.com/file/17030464/49690df6/33PT670_chassi_z5.html>
--------------------------------------------------------------------------------------------------VR_335_E455
http://www.4shared.com/file/17020019/42f066e0/VR_335_E455.html>
--------------------------------------------------------------------------------------------------A8
http://www.4shared.com/file/11887532/b93b884e/4806_727_17216.html>
--------------------------------------------------------------------------------------------------AZ_2060
http://www.4shared.com/file/17078112/d9b472c0/AZ_2060.html>
--------------------------------------------------------------------------------------------------?
http://www.4shared.com/file/11572481/cb141e35/4806_727_17168.html>
--------------------------------------------------------------------------------------------------?
http://www.4shared.com/file/11579466/1cf22119/4806_17182.html>
--------------------------------------------------------------------------------------------------?
http://www.4shared.com/file/11886678/87787d68/4806_727_17202.html>
--------------------------------------------------------------------------------------------------?
http://www.4shared.com/file/11583185/f05ee873/4806_727_171191.html>
---------------------------------------------------------------------------------------------------

?
http://www.4shared.com/file/11578183/4c6c5d96/4806_727_17234.html>
--------------------------------------------------------------------------------------------------?
http://www.4shared.com/file/11583185/f05ee873/4806_17191.html>
--------------------------------------------------------------------------------------------------29PT5642
http://www.4shared.com/file/5187444/7b23199c/Philips-L04U_AA.html>
--------------------------------------------------------------------------------------------------Philips-L011I_AC_2K3
http://www.4shared.com/file/4795383/abfadc24/Philips-L011I_AC_2K3.html>
--------------------------------------------------------------------------------------------------20PT3336
http://www.4shared.com/file/15165002/52a41a57/20PT3336.html>
--------------------------------------------------------------------------------------------------LC47_U_AA
http://www.4shared.com/file/17323445/a519ab12/LC47_U_AA.html>
--------------------------------------------------------------------------------------------------Philips_L05H_TrainingManual
http://www.4shared.com/file/16580474/d11897a1/Philips_L05H_TrainingManual.htm>
--------------------------------------------------------------------------------------------------lcd120a
http://www.4shared.com/file/17429278/86b02802/lcd120a.html>
--------------------------------------------------------------------------------------------------LC49A
http://www.4shared.com/file/17428685/c02c87c9/LC49A.html>
--------------------------------------------------------------------------------------------------Hercules_programa_dele
http://www.4shared.com/file/17436913/2e6e800b/Hercules_programa_dele.html>
--------------------------------------------------------------------------------------------------hercules
http://www.4shared.com/file/17435942/36abeb36/hercules.html>
--------------------------------------------------------------------------------------------------lcd120e
http://www.4shared.com/file/17429278/86b02802;lcd120e.html>
--------------------------------------------------------------------------------------------------LC49A
http://www.4shared.com/file/17428685/c02c87c9/LC49A.html>
--------------------------------------------------------------------------------------------------LC43Uaa
http://www.4shared.com/file/17427636/e2b21fee/LC43Uaa.html>
--------------------------------------------------------------------------------------------------LC46U
http://www.4shared.com/file/17428052/ef6b1095/LC46U.html>
---------------------------------------------------------------------------------------------------

LC47_U_AA
http://www.4shared.com/file/17323445/a519ab12/LC47_U_AA.html>
--------------------------------------------------------------------------------------------------Training_MANUAL_794Mb
http://www.4shared.com/file/17562484/e5cef630/Training_MANUAL_794Mb.html>
--------------------------------------------------------------------------------------------------34PT8422
http://www.4shared.com/file/17817327/ba076679/34PT8422.html>
--------------------------------------------------------------------------------------------------FWM352
http://www.4shared.com/file/17885824/884272d8/FWM352.html>
--------------------------------------------------------------------------------------------------29PT558
http://www.4shared.com/file/5215417/bed06437/Philips-L01IL_AA.html>
--------------------------------------------------------------------------------------------------107E49
http://www.4shared.com/file/11248436/839cf851/107E49.html>
--------------------------------------------------------------------------------------------------14PV461
http://www.4shared.com/file/18140271/aba1cbd6/14PV461.html>
--------------------------------------------------------------------------------------------------philips-FW-360
http://www.4shared.com/file/18714462/bee52ca5/FW-360.html>
--------------------------------------------------------------------------------------------------SHARP 2199
http://www.4shared.com/file/18800514/5a517952/2199b.html>
--------------------------------------------------------------------------------------------------Senha: p16c3z23
http://www.4shared.com/file/17180712/518162e9/14pt314a_14pt316a_14pt414a_14pt616
_20pt324a_20pt326a_20pt424a_20pt524a_21pt434a_21pt534a_Chassi-L.html>
--------------------------------------------------------------------------------------------------Senha: p16c3z23
http://www.4shared.com/file/17181279/2e7eb969/14PT418A_mn.html>
--------------------------------------------------------------------------------------------------Senha: p16c3z23
http://www.4shared.com/file/17182376/adb66121/20PT529.html>
--------------------------------------------------------------------------------------------------Senha: p16c3z23
http://www.4shared.com/file/17184129/66910347/21PT_639A_e_839A.html>
--------------------------------------------------------------------------------------------------Senha: p16c3z23
http://www.4shared.com/file/17186311/eaeac453/21PT1557__sm_L01H_1_12e.html>
--------------------------------------------------------------------------------------------------Senha: p16c3z23
http://www.4shared.com/file/17186501/f77c89a0/21PT230.html>
--------------------------------------------------------------------------------

-------------------Senha: p16c3z23
http://www.4shared.com/file/17187381/8394187f/21pt5431.html>
--------------------------------------------------------------------------------------------------Senha: p16c3z23
http://www.4shared.com/file/17296687/6f7443da/21PT836_29PT554_33PT574.html>
--------------------------------------------------------------------------------------------------Senha: p16c3z23
http://www.4shared.com/file/17296835/6810d637/29pt5642_28pw644132pw6542_29pt5642
.html>
--------------------------------------------------------------------------------------------------Senha: p16c3z23
http://www.4shared.com/file/17297074/cdd41578/32pt639_739_839_6421_32pw6421.html
>
--------------------------------------------------------------------------------------------------Senha: p16c3z23
http://www.4shared.com/file/17297212/7169c3a5/Philips_L031L_20PT4331_3331_14PT31
31_4131_21PT5435.html>
--------------------------------------------------------------------------------------------------Senha: p16c3z23
http://www.4shared.com/file/17297276/205ea03a/PHILIPS_29PT4631.html>
--------------------------------------------------------------------------------------------------Senha: p16c3z23
http://www.4shared.com/file/17297363/48ed0fc3/Phillips_14PT_316A_616A_20PT326A_4
24A_524A_21PT434A_534A_836A_29PT554A_-_L9L2A__Esquema_e_Aposti.html>
--------------------------------------------------------------------------------------------------Senha: p16c3z23
http://www.4shared.com/file/17297388/41bcfbc5/Phillips_14PT110A_14PT111A_14PT210
A_20PT120A_20PT121A_20PT220A_Chassis_L7L.html>
--------------------------------------------------------------------------------------------------Senha: p16c3z23
http://www.4shared.com/file/17297404/859c2b63/Phillips_14PT165-21PT165.html>
--------------------------------------------------------------------------------------------------Senha: p16c3z23
http://www.4shared.com/file/17297436/40bf198c/Phillips_14PT218A_20PT228A_20PT428
A_20PT528A_Chassis_L01-2L.html>
--------------------------------------------------------------------------------------------------Senha: p16c3z23
http://www.4shared.com/file/17297476/24d3dc88/Phillips_14PT313178R_413178R_20PT3
33178R_433178R_L031LAA.html>
--------------------------------------------------------------------------------------------------Senha: p16c3z23
http://www.4shared.com/file/17297608/8faeb326/Phillips_14pt314a_14pt316a_14pt414
a_14pt616_20pt324a_20pt326a_20pt424a_20pt524a_21pt434a_21pt534a.html>
--------------------------------------------------------------------------------------------------Senha: p16c3z23
http://www.4shared.com/file/17297659/85de77f5/Phillips_14PT519A_78R_20PT529A_78R
_Chassis_L01-2L.html>

--------------------------------------------------------------------------------------------------Senha: p16c3z23
http://www.4shared.com/file/17297688/4777392e/Phillips_21PT230A_Chassis_L7-Plus.
html>
--------------------------------------------------------------------------------------------------Senha: p16c3z23
http://www.4shared.com/file/17297721/c5860337/Phillips_21PT543178R_543278R_55317
8R_28PW643178R_653278R_29PT463178R_563278R_32PW653278R__L011L2K.html>
--------------------------------------------------------------------------------------------------Senha: p16c3z23
http://www.4shared.com/file/17297753/64c9f4dc/Phillips_21PT639A78R_739A78R_839A7
8R_839B78R_28PW642178R_32PW642178R__L011LAB-2K2.html>
--------------------------------------------------------------------------------------------------Senha: p16c3z23
http://www.4shared.com/file/17297842/189b236/Phillips_29PT552A.html>
--------------------------------------------------------------------------------------------------Senha: p16c3z23
http://www.4shared.com/file/17297894/5d44694e/Phillips_29PT652A_78R_29PT752A_78R
_33PT772A_78R_37PT782A_78R_37PT784A_78R_Chassis_A8.html>
--------------------------------------------------------------------------------------------------Senha: p16c3z23
http://www.4shared.com/file/17297986/ab935314/Phillips_29PT656A_78R_29PT856A_78R
_34PT786A_78R_Chassis_A10.html>
--------------------------------------------------------------------------------------------------Senha: p16c3z23
http://www.4shared.com/file/17298067/15a565d5/Phillips_29PT785C_Chassis_G88-1.ht
ml>
--------------------------------------------------------------------------------------------------Senha: p16c3z23
http://www.4shared.com/file/17298187/8ae4226c/Phillips_29PT854A.html>
--------------------------------------------------------------------------------------------------Senha: p16c3z23
http://www.4shared.com/file/17298208/d0c40bac/Phillips_33PT670A_Chassis_Z5.html>
--------------------------------------------------------------------------------------------------Senha: p16c3z23
http://www.4shared.com/file/17298250/a36877db/Phillips_34PT8419_78R_Chassis_EM1L
.html>
--------------------------------------------------------------------------------------------------SERIES PLASMA TV TRAINING MAUAL
http://www.4shared.com/file/18769543/ba5c104b/LG_L_SERIES_PLASMA_TV_TRAINING_MAU
AL.html>
--------------------------------------------------------------------------------------------------LG L SERIES PLASMA TV TRAINING MAUAL
http://www.4shared.com/file/18836234/fe32859/29pt558_desligando_por_volume_alto_
anotem.html> ( ALAIN )
senha v i p
---------------------------------------------------------------------------------------------------

SONY STR-DE 475


http://www.4shared.com/file/18872812/a3c35baf/STR-DE475.html>
--------------------------------------------------------------------------------------------------jvc ga2 chassis avt2122
http://www.4shared.com/file/18570007/d236148c/JVC_GA2_CHASSIS_AVT2122_TV_SM.html
>
--------------------------------------------------------------------------------------------------LG RP 29FA30
http://www.4shared.com/file/19015956/99b37445/RP-29FA30.html>
--------------------------------------------------------------------------------------------------aiwa---6ZG-1-5cd-mecanismo_com_esquema
http://www.4shared.com/file/19054519/29469411/6ZG-1-5cd-mecanismo_com_esquema.ht
ml>
--------------------------------------------------------------------------------------------------HPS 2906C
http://www.4shared.com/file/19065754/cf03e473/HPS_2906C.html>
--------------------------------------------------------------------------------------------------mecanismo do panasonic SA AK15
http://www.4shared.com/file/19063788/567089c9/desmontagem_e_montagem_mecanismo_d
o_cd_som_panasonic_sa-ak15_traduo.html>
--------------------------------------------------------------------------------------------------HPS 2910C
http://www.4shared.com/file/19065675/8bf0dc50/HPS_2910C_EE.html>
--------------------------------------------------------------------------------------------------HPS 2912B
http://www.4shared.com/file/19065562/ec9c6eb/HPS_2912B.html>
--------------------------------------------------------------------------------------------------CCE RD 82 X
http://www.4shared.com/file/19066337/15ec157d/RD82X_EE.html>
--------------------------------------------------------------------------------------------------SONY RG3 CHASSIS PROJECTOR TV
http://www.4shared.com/file/19075666/3682951b/SONY_RG3__CHASSIS_PROJECTOR_TV_D.h
tml>
--------------------------------------------------------------------------------------------------aiwa cxzm 2900
http://www.4shared.com/file/19058427/aec73f5a>
--------------------------------------------------------------------------------------------------SONY RG2 CHASSIS KPEF61HK2 PROJECTION TV
http://www.4shared.com/file/19105033/466ee6d6/SONY_RG2_CHASSIS_KPEF61HK2_PROJECT
ION_TV_SM.html>
--------------------------------------------------------------------------------------------------SONY RX1E CHASSIS KP46S4 PROJECTION TV
http://www.4shared.com/file/19105669/df41873f/SONY_RX1E_CHASSIS_KP46S4_PROJECTIO
N_TV_SM.html>
--------------------------------------------------------------------------------------------------monitor philips 105E19-68
http://www.4shared.com/file/19126392/a1b57c1d/105E19-68.html>

--------------------------------------------------------------------------------------------------LG 21FX5RL
http://www.4shared.com/file/19189279/bbf5eadb/21FX5RL.html>
--------------------------------------------------------------------------------------------------sharp-tvc-1417-2017
http://www.4shared.com/file/16111788/734d3e1e/tvc-14-2017.html>
--------------------------------------------------------------------------------------------------ESQUEMAS CASIO
http://www.4shared.com/dir/3053619/93eae5d7/Casio.html>
--------------------------------------------------------------------------------------------------HPS_2910C
http://www.4shared.com/file/19214823/522eba54/_2__HPS_2910C_EE.html>
--------------------------------------------------------------------------------------------------JC20B
http://www.4shared.com/file/19214661/d2d23376/JC20B_EE.html>
--------------------------------------------------------------------------------------------------HPS_2904
http://www.4shared.com/file/19214424/c550d693/HPS_2904.html>
--------------------------------------------------------------------------------------------------HPS_2902
http://www.4shared.com/file/19214558/82656648/HPS_2902.html>
--------------------------------------------------------------------------------------------------LG-rp-29fa35a_cp_29k35a
http://www.4shared.com/file/19217706/99bc48a/rp-29fa35a_cp_29k35a.html>
--------------------------------------------------------------------------------------------------CD DA brastemP
http://www.network54.com/Forum/183758/thread/1183381309/last-1183467428/CD+DA+BR
ASTEMP+PARA+TODOS>
--------------------------------------------------------------------------------------------------philips cdr 570 completo
http://www.woofiles.com/dl-61209-ZStT7X5y-CDR570.pdf>
--------------------------------------------------------------------------------------------------sony cdp-c322
http://www.4shared.com/file/19321848/28849d1d/SONY_CDP-C322.html>
--------------------------------------------------------------------------------------------------jvc ux-p7
http://www.4shared.com/file/19318192/4886049b/JVC_UX-P7.html>
--------------------------------------------------------------------------------------------------esquemas de radio amador
http://hamradio.online.ru/ftp/>
--------------------------------------------------------------------------------------------------SAMSUNG DVD P355K
http://www.4shared.com/file/19258705/3d7123a6/DVD-P355K.html?s=1>
--------------------------------------------------------------------------------------------------philips mas55

http://www.4shared.com/file/19346490/887c5f1f/MAS_55.html>
--------------------------------------------------------------------------------------------------14pt519 e 20 pt 529
http://www.4shared.com/file/19353582/7415bcc7/14pt519_20pt529.html>
--------------------------------------------------------------------------------------------------ANUBIS VA AA 25GX1888 - 29GX1898/78R
http://www.4shared.com/file/19367783/c854b5b8/ANUBIS-VA_AA___25GX1888_29GX1898_7
8R.html>
--------------------------------------------------------------------------------------------------gradiente kas520
http://www.4shared.com/file/19388647/851dfaad/KAS520.html>
--------------------------------------------------------------------------------------------------CCE DVD813DV
http://www.4shared.com/file/19445011/3f1bd20b/DVD813DV_EE.html>
--------------------------------------------------------------------------------------------------SONY MHC-RG88
http://www.4shared.com/file/19467110/99171341/MHC-RG88.html>
--------------------------------------------------------------------------------------------------Sony- KP-41T65
http://www.4shared.com/file/19502374/b8667287/SONY_KP-41T65.html>
--------------------------------------------------------------------------------------------------Gradiente - AL-10
http://www.4shared.com/file/19509523/88f9e8d2/SYSTEM_GRADIENTE_AL10.html>
--------------------------------------------------------------------------------------------------28PD6921 chassis A10
http://www.4shared.com/file/19533277/dfb154bf/28PD6921_78R_2.html>
--------------------------------------------------------------------------------------------------aiwa nsx sz 30
http://www.4shared.com/file/19567772/ee927afc/nsx-sz30_sz30e.html>
--------------------------------------------------------------------------------------------------FW 339 316 356
http://www.4shared.com/file/19572205/33c262f1/FW339_316_356.html>
--------------------------------------------------------------------------------------------------LG RP 44 NA 20
http://www.4shared.com/file/19575385/670eba77/3828VD0112Y.html>
--------------------------------------------------------------------------------------------------SONY_RG2_CHASSIS_KPEF41MN_PROJECTOR_TV_SM
http://www.4shared.com/file/19616940/ad27acc2/SONY_RG2_CHASSIS_KPEF41MN_PROJECTO
R_TV_SM.html>
--------------------------------------------------------------------------------------------------SONY_RG2_CHASSIS_KPEF41HK2_PROJECTION_TV_SM
http://www.4shared.com/file/19616387/9261f3bb/SONY_RG2_CHASSIS_KPEF41HK2_PROJECT
ION_TV_SM.html>
--------------------------------------------------------------------------------------------------SONY_RG2_CHASSIS_KP-EF41HK_LCD_TV_SM
http://www.4shared.com/file/19616623/69281dc3/SONY_RG2_CHASSIS_KP-EF41HK_LCD_TV_

SM.html>
--------------------------------------------------------------------------------------------------NV-FJ635BR
http://www.4shared.com/file/19623506/594cbf75/NV-FJ635BR.html>
--------------------------------------------------------------------------------------------------NV-J45_VW-VPS5
http://www.4shared.com/file/19623708/bd70461c/NV-J45_VW-VPS5.html>
--------------------------------------------------------------------------------------------------NV-SD400EU_NV-SD300AM
http://www.4shared.com/file/19623943/4450779a/NV-SD400EU_NV-SD300AM.html>
--------------------------------------------------------------------------------------------------NV-SD435ee_235ee
http://www.4shared.com/file/19624002/c53d813e/NV-SD435ee_235ee.html>
--------------------------------------------------------------------------------------------------Nv-sd440eg_440b_440blVRD9906016C2
http://www.4shared.com/file/19624276/8e95078e/Nv-sd440eg_440b_440blVRD9906016C2.
html>
--------------------------------------------------------------------------------------------------nv-sd450ee
http://www.4shared.com/file/19624480/e4e3c2c6/nv-sd450ee.html>
--------------------------------------------------------------------------------------------------NV-SJ405BR-NV-FJ605BR
http://www.4shared.com/file/19624542/a79a86d1/NV-SJ405BR-NV-FJ605BR.html>
--------------------------------------------------------------------------------------------------NV-SJ435BR
http://www.4shared.com/file/19624693/67757653/NV-SJ435BR.html>
--------------------------------------------------------------------------------------------------Sony KV34XBR800 chassis DA-4
http://www.4shared.com/file/19681844/3b4f5824/Sony_DA-4_KV34XBR800.html>
--------------------------------------------------------------------------------------------------sony lcd KE32TS2E
http://www.4shared.com/file/19757127/ed6add5f/KE-32TS2E.html>
--------------------------------------------------------------------------------------------------SONY LE1 CHASSIS KL37W2U LCD PROJECTION TV
http://www.4shared.com/file/19765473/7c129db3/SONY_LE1_CHASSIS_KL37W2U_LCD_PROJE
CTION_TV_SM.html>
--------------------------------------------------------------------------------------------------SONY LE1 CHASSIS KL37W2 LCD PROJECTION TV
http://www.4shared.com/file/19767113/868a3055/SONY_LE1_CHASSIS_KL37W2_LCD_PROJEC
TION_TV_SM.html>
--------------------------------------------------------------------------------------------------PANASONIC_MX3_CHASSIS_TC2170T_TV_SM
http://www.4shared.com/file/19803860/ae671c85/PANASONIC_MX3_CHASSIS_TC2170T_TV_S
M.html>
--------------------------------------------------------------------------------------------------PANASONIC_MX3_CHASSIS_TC21S10R_TV_SM

http://www.4shared.com/file/19803750/8e16087b/PANASONIC_MX3_CHASSIS_TC21S10R_TV_
SM.html>
--------------------------------------------------------------------------------------------------TC_PL2910_2912
http://www.4shared.com/file/19807257/99dbc864/TC_PL2910_2912.html>
--------------------------------------------------------------------------------------------------FWM35
http://www.4shared.com/file/11335446/47cbb9fe/FWM35.html>
--------------------------------------------------------------------------------------------------panasonic
http://www.4shared.com/dir/2617479/ccf84f01/panasonic.html>
--------------------------------------------------------------------------------------------------sharing
http://www.4shared.com/dir/2195158/87e6c0c/sharing> .html
--------------------------------------------------------------------------------------------------sharing
http://www.4shared.com/dir/1901000/25d9179a/sharing.html>
--------------------------------------------------------------------------------------------------Lenox
http://www.4shared.com/dir/2707466/b36099c4/Lenox.html>
--------------------------------------------------------------------------------------------------BRITNIA
http://www.4shared.com/dir/2570207/f48f37c4/BRITNIA.html>
--------------------------------------------------------------------------------------------------sharing
http://www.4shared.com/dir/1670121/9ae02619/sharing.html>
--------------------------------------------------------------------------------------------------sharing
http://www.4shared.com/dir/1727170/efb86a6/sharing.html>
--------------------------------------------------------------------------------------------------esquemas_geral_da_eletronica2002
http://www.4shared.com/dir/2608559/9a0f7e52/esquemas_geral_da_eletronica2002.htm
l>
--------------------------------------------------------------------------------------------------SAMSUNG
http://www.4shared.com/dir/2785397/dcc92052/sharing.html>
--------------------------------------------------------------------------------------------------sharing
http://www.4shared.com/dir/1670121/9ae02619/sharing.html>
--------------------------------------------------------------------------------------------------cce
http://ube-164.pop.com.br/repositorio/4255/meusite/cce.htm>
--------------------------------------------------------------------------------------------------Training_MANUAL_794mB
http://www.4shared.com/file/17562484/e5cef630/Training_MANUAL_794mB.html>
--------------------------------------------------------------------------------

-------------------Boletim sony
http://www.4shared.com/file/17181194/cc0a5603/kv_online.html>
--------------------------------------------------------------------------------------------------evite_troca_desnecessaria_do_uoc_philips
http://www.4shared.com/file/16361441/5b8a0af4/evite_troca_desnecessaria_do_uoc_p
hilips.html>
--------------------------------------------------------------------------------------------------Philips circulares
http://www.4shared.com/file/14930312/fce363d4>
--------------------------------------------------------------------------------------------------INF. GERAL
http://www.4shared.com/dir/1061141/9f3f2c57/sharing.html>
--------------------------------------------------------------------------------------------------DVD CCE
http://www.4shared.com/dir/2519686/be109fac/CCE.html>
--------------------------------------------------------------------------------------------------Semp-Toshiba-LEM4
http://www.4shared.com/file/4908387/69e7c3e1/Semp-Toshiba-LEM4.html>
--------------------------------------------------------------------------------------------------IK
http://www.comunidadelectronicos.com/articulos/IK.htm>
--------------------------------------------------------------------------------------------------GE_14GE00
http://www.4shared.com/file/16292490/c29aafb5/GE_14GE00.html>
--------------------------------------------------------------------------------------------------kv-29Fv15
http://www.4shared.com/file/5214475/be38c5f8/kv-29Fv15.html?=s=1>
--------------------------------------------------------------------------------------------------modo de servio
http://www.equipetecnica.com.br/modo_servico.htm>
--------------------------------------------------------------------------------------------------modo servio
http://www.equipetecnica.com.br/modo_servico_tvs_2.htm>
--------------------------------------------------------------------------------------------------SONY
http://www.4shared.com/dir/2647105/4424d876/SONY.html>
--------------------------------------------------------------------------------------------------Super_Dicas_TV_SONY
http://www.4shared.com/file/16038654/203a900/Super_Dicas_TV_SONY.html>
--------------------------------------------------------------------------------------------------transistor digital
http://www.equipetecnica.com.br/dtc_dta.htm>
--------------------------------------------------------------------------------------------------sony-KV_32HS20_36HS20_32XBR450_36XBR450_36XBR450H
http://www.4shared.com/file/15954078/ee7ffa56/sony-KV_32HS20_36HS20_32XBR450_36X

BR450_36XBR450H.html>
--------------------------------------------------------------------------------------------------SONY-WEGA_29-34-38
http://www.4shared.com/file/16012014/779fa3b2/SONY-WEGA_29-34-38.html>
--------------------------------------------------------------------------------------------------CCE_HPS-1470
http://www.4shared.com/file/8904093/f8a15d2c/CCE_HPS-1470.html?s=1>
--------------------------------------------------------------------------------------------------Semp-Toshiba-U10-LEM
http://www.4shared.com/file/5295049/13665e68/Semp-Toshiba-U10-LEM.html>
--------------------------------------------------------------------------------------------------video aula sony
http://www.4shared.com/file/18049007/b853b065/parte_1.html>
--------------------------------------------------------------------------------------------------video aula sony
http://www.4shared.com/file/18049441/32557888/parte_2.html>
--------------------------------------------------------------------------------------------------video aula sony
http://www.4shared.com/file/18071190/7423a687/parte_3.html>
--------------------------------------------------------------------------------------------------video aula sony
http://www.4shared.com/file/18072935/e20044d4/parte_4.html>
--------------------------------------------------------------------------------------------------modos_de_serviCO
http://www.4shared.com/file/16461551/5e56613a/modos_de_serviC3a7.ostv.html>
--------------------------------------------------------------------------------------------------sony-KV-1441B-2158B-2162B-2162S_e_2163S
http://www.4shared.com/file/8054652/c87180bc/sony-KV-1441B-2158B-2162B-2162S_e_2
163S.html>
--------------------------------------------------------------------------------------------------firstline
http://www.4shared.com/file/18302769/a8eb7f0e/firstline.html>
--------------------------------------------------------------------------------------------------guia_ref_trans_diodo_smd
http://www.equipetecnica.com.br/guia_ref_trans_diodo_smd.htm>
--------------------------------------------------------------------------------------------------Gradiente-GT1410_2010_1411_2015
http://www.4shared.com/file/4538256/9aee5da6/Gradiente-GT1410_2010_1411_2015.htm
l>
--------------------------------------------------------------------------------------------------panasonic_dicas
http://www.4shared.com/file/9360478/f1374bd3/panasonic_dicas.html>
--------------------------------------------------------------------------------------------------treinamento_semp_toshiba
http://www.4shared.com/file/17153406/a79442b7/treinamento_semp_toshiba.html>
--------------------------------------------------------------------------------

-------------------Gradiente-GT1420-2020
http://www.4shared.com/file/5397277/bd22efec/Gradiente-GT1420-2020.html>
--------------------------------------------------------------------------------------------------Semp-Toshiba-U11
http://www.4shared.com/file/4929466/4750fc79/Semp-Toshiba-U11.html>
--------------------------------------------------------------------------------------------------Fonte_tipo_BUCSO_Philips_chassi_Anubis
http://www.4shared.com/file/18761946/698354f/Fonte_tipo_BUCSO_Philips_chassi_Anu
bis.html>
--------------------------------------------------------------------------------------------------Dicas_e_MS_TV_RCA
http://www.4shared.com/file/11437495/dc606e3a/Dicas_e_MS_TV_RCA_-_Guimares.html>
--------------------------------------------------------------------------------------------------SHARP C-2095
http://www.4shared.com/file/13168834/f4350fe>
--------------------------------------------------------------------------------------------------STR-DE475
http://www.4shared.com/file/18872812/a3c35baf/STR-DE475.html>
--------------------------------------------------------------------------------------------------Circular_Philco
http://www.4shared.com/file/18865236/3bb869eb/Circular_Philco.html>
--------------------------------------------------------------------------------------------------MONITOR_AOC
http://www.4shared.com/dir/3097275/819ddcf0/MONITOR_AOC.html>
--------------------------------------------------------------------------------------------------audio_todas_as_familias_Unidade_Leitora_de_CD_Philips
http://www.4shared.com/file/18794337/86c7712b/audio_todas_as_familias_Unidade_Le
itora_de_CD_Philips.html>
--------------------------------------------------------------------------------------------------Fonte_tipo_BUCSO_Philips_Chassi_Anubis
http://www.4shared.com/file/18761946/698354f/Fonte_tipo_BUCSO_Philips_Chassi_Anu
bis.html>
--------------------------------------------------------------------------------------------------Boletim_tecnico_Philips
http://www.4shared.com/file/18924048/16a51445/Boletim_tecnico_Philips.html>
--------------------------------------------------------------------------------------------------informacao_Tecnica Boletim Mitsubshi
ftp://200.183.110.160/Suporte_Tecnico/Linha_Marrom/informacao_Tecnica> Boletim M
itsubshi
--------------------------------------------------------------------------------------------------Manual_de_servio_DVD625_Philips
http://www.4shared.com/file/18902053/c7c7f030/Manual_de_servio_DVD625_Philips.ht
ml>
--------------------------------------------------------------------------------------------------Toshiba
http://www.4shared.com/file/18077841/9c308c0f/Dicas_do_DVD.html>

--------------------------------------------------------------------------------------------------toshiba
http://www.4shared.com/file/18078530/f4cda95b/Dicas_tv_html>
--------------------------------------------------------------------------------------------------Training_MANUAL_794Mb
http://www.4shared.com/file/17562484/e5cef630/Training_MANUAL_794Mb.html>
--------------------------------------------------------------------------------------------------treinamento_Chassis_PT_Philips
http://www.4shared.com/file/16121650/8e5ad886/treinamento_Chassis_PT_Philips.htm
l?cau2=403tNull>
--------------------------------------------------------------------------------------------------ESQUEMAS CCE
http://www.4shared.com/dir/2757403/5db045bd/CCE.html>
--------------------------------------------------------------------------------------------------ESQUEMAS DICAS
http://www.4shared.com/dir/1036870/99f3c344/sharing.html>
--------------------------------------------------------------------------------------------------L91L_Manual_de_servio
http://www.4shared.com/file/19112582/74e1dc69/L91L_Manual_de_servio_-.html>
--------------------------------------------------------------------------------------------------MON. PHILIPS
http://www.4shared.com/file/19126392/a1b57c1d/105E19-68.html>
--------------------------------------------------------------------------------------------------TV TOSHIBA
http://www.4shared.com/file/19021358/bb5e3113/U18.html>
--------------------------------------------------------------------------------------------------TV LG
http://www.4shared.com/file/19189279/bbf5eadb/21FX5RL.html>
--------------------------------------------------------------------------------------------------TV LG
http://www.4shared.com/file/19183717/636142d5/29FX5RF>
--------------------------------------------------------------------------------------------------TV LCD LG
http://www.4shared.com/file/18012657/de4830e3/32LP1D>
--------------------------------------------------------------------------------------------------TOSHIBA
http://www.4shared.com/dir/2795243/52a8d981/TOSHIBA.html>
--------------------------------------------------------------------------------------------------SAMSUNG
http://www.4shared.com/dir/2785397/dcc92052/sharing.html>
--------------------------------------------------------------------------------------------------recal toshiba
http://www.4shared.com/file/19273959/eeef62a3/06093_07.html>
--------------------------------------------------------------------------------------------------Toshiba

http://www.4shared.com/file/19273824/dedde2ee/DICAS_de_DVD.html>
--------------------------------------------------------------------------------------------------manualdirectory
http://www.manualdirectory.co.uk/>
--------------------------------------------------------------------------------------------------Dicas Playstation 2
http://www.4shared.com/file/19932151/c9dc8a4f/dicas_para_PLAYSTATION_2.html>
--------------------------------------------------------------------------------------------------desmontagem e montagem mecanismo do cd som panasonic sa-ak15 +traduo.rar
http://www.4shared.com/file/19946031/a3060cb9/des>
--------------------------------------------------------------------------------------------------toshiba cm 6237
http://www.4shared.com/file/19981513/21d21844/CM_6237CD.html>
--------------------------------------------------------------------------------------------------gradiente-gt-2022
http://www.4shared.com/file/20065986/852a9428/gt-2022.html>
--------------------------------------------------------------------------------------------------panasonic-tc-14c6-tc-20c6
http://www.4shared.com/file/7730523/191eba12/TC-14C6_E_20C6.html?s=1>
http://www.4shared.com/file/17048988/a1100bff/TC-14C6_E_20C6.html?s=1>
http://www.4shared.com/file/19672532/550c0ba/TC-14C6_E_20C6.html?s=1>
--------------------------------------------------------------------------------------------------FWC 85
http://www.4shared.com/file/20092756/259d6807/FWC85.html>
--------------------------------------------------------------------------------------------------philips-al-311
http://www.4shared.com/file/20112702/a4abc03f/philips-AL-311.html>
--------------------------------------------------------------------------------------------------boletim sony-linha kp
http://www.4shared.com/file/20116279/f591dacc/boletim-linha_KP.html>
--------------------------------------------------------------------------------------------------SONY RA4A CHASSIS KP53XBR300 PROJECTOR TV
http://www.4shared.com/file/20132453/d65de9d5/SONY_RA4A_CHASSIS_KP53XBR300_PROJE
CTOR_TV_SM.html>
--------------------------------------------------------------------------------------------------panasonic-tc-14a4 - tc-20a4
http://www.4shared.com/file/4666016/53adc621/Panasonic-TC14A4_20A4.html?s=1>
http://www.4shared.com/file/19671876/7c3cfd1a/_2__Panasonic-TC14A4_20A4.html?s=1
>
--------------------------------------------------------------------------------------------------SONY KV-29FS105.pdf
http://www.4shared.com/file/20148694/3a95db60/KV-29FS105.html>
--------------------------------------------------------------------------------------------------PHILIPS HTS 3410 D
http://www.4shared.com/file/20211704/d9e9b84a/HTS_3410D.html>
---------------------------------------------------------------------------------------------------

sony-LBT-A495
http://www.4shared.com/file/20356235/20035428/LBT-_A495.html>
--------------------------------------------------------------------------------------------------aiwa 6ZG-1-5cd-mecanismo_com_esquema
http://www.4shared.com/file/19054519/29469411/6ZG-1-5cd-mecanismo_com_esquema.ht
ml>
--------------------------------------------------------------------------------------------------4ZG-1-3CD-mecanismo_com_esquema
http://www.4shared.com/file/20376760/5115c569/4ZG-1-3CD-mecanismo_com_esquema.ht
ml>
--------------------------------------------------------------------------------------------------aiwa-som-dicas-IMPORTANTES_VARIOS_MODELOS
http://www.4shared.com/file/8838810/6148c1eb/aiwa-som-dicas-IMPORTANTES_VARIOS_M
ODELOS.html>
--------------------------------------------------------------------------------------------------nsx-303
http://www.4shared.com/file/13306106/e7e67a06/nsx-303.html>
--------------------------------------------------------------------------------------------------nsx-330
http://www.4shared.com/file/13306111/6099dee4/nsx-330.html>
--------------------------------------------------------------------------------------------------NSX-430
http://www.4shared.com/file/13306175/31aebd7b/NSX-430.html>
--------------------------------------------------------------------------------------------------nsx-990
http://www.4shared.com/file/13306184/c1319122/nsx-990.html>
--------------------------------------------------------------------------------------------------NSX-S50
http://www.4shared.com/file/17229646/9b751d07/NSX-S50.html>
--------------------------------------------------------------------------------------------------NSX-SZ_200-205-NSX-AJ_200_205
http://www.4shared.com/file/10613232/a27b0129/NSX-SZ_200-205-NSX-AJ_200_205.html
>
--------------------------------------------------------------------------------------------------NSX-SZ6
http://www.4shared.com/file/8838384/bbb2515a/NSX-SZ6.html>
--------------------------------------------------------------------------------------------------proview sch-tl-29n6p
http://www.4shared.com/file/20479227/e8b077cb/tv-proview-SCH-TL-29N6P.html>
--------------------------------------------------------------------------------------------------tv eltec CT-14RP/ CT-20RP
http://www.4shared.com/file/20600087/933b79be/tv-eltec-ct-14rp--_ct-20rp.html>
--------------------------------------------------------------------------------------------------AIWA CX-NV900-CX-NV9000/HR/HE/LH/U
http://www.4shared.com/file/20630678/c7317e82/Cx-nv900-nv9000-he-hr-lh-u.html>
---------------------------------------------------------------------------------------------------

gradiente--tvd_2951-gbt_2911-tv_2923
http://www.4shared.com/file/20636628/9f2dd51b/tvd_2951-gbt_2911-tv_2923.html>
--------------------------------------------------------------------------------------------------MITSUBISHI-_TC-3398
http://www.4shared.com/file/12206819/cb8b548/MANUAL_DE_SERVICO-MITSUBISHI-_TC-33
98.html>
--------------------------------------------------------------------------------------------------sony-kp-53xbr300-kp-61xbr300
http://www.4shared.com/file/20781378/c5ca39b8/KP53-61-XBR300_PROJECTOR-_CHASSIS_
_RA4A.html>
--------------------------------------------------------------------------------------------------sony KV-32FV300
http://www.4shared.com/file/20838246/f313e105/KV-32FV300_SONY_TV.html>
--------------------------------------------------------------------------------------------------SONY DA4X CHASSIS KP 57/65WV600 TV
http://www.4shared.com/file/20841595/15d34bed/SONY_DA4X_CHASSIS_KP65WV600_TV_SM.
html>
--------------------------------------------------------------------------------------------------samsung-cn-3355/cn-3329/cn-5055/cn-5029
http://www.4shared.com/file/20846483/79be8d17/CHASSIS-P62S_NMH_-CN-3355-3329-505
5-5029.html>
--------------------------------------------------------------------------------------------------semp toshiba-tv-2987su-tv-2997su-tv-3488su-tv-2997p-tv-3488p
http://www.4shared.com/file/20847204/9332896b/chassis-TG-1HS-TV-_2987SU-2997SU-3
488SU-2997P-3488p.html>
--------------------------------------------------------------------------------------------------Mitsubishi tc29fs
http://www.4shared.com/file/20845026/e6879620/mitsubishitc-29fsbyerivan.html>
--------------------------------------------------------------------------------------------------LG-RP-15FD15/RP-21FD15=CHASSIS MC-059A
http://www.4shared.com/file/20860620/4677ecf5/rp-15fd15-21fd15chassis_MC-059A.ht
ml>
---------------------------------------------------------------------------------------------------

Pontuao 1 2 3 4 5 (5=Excelente) Respond to this message


Author Reply
Emanuel Macedo
(Login derbyy)
201.9.124.96 Re: FIRST LESSON QUE ALGUM APAGOU AQUI DE NOVO
Sem pontuao para esta mensagem August 16 2007, 7:34 PM
porque apagaram o outro tpico?
postar aqui que ninguem apaga.

http://www.network54.com/Forum/562807/
Pontuao 1 2 3 4 5 (5=Excelente) Respond to this message
xiru-rs
(Login xiru-rs)
201.35.138.185 LM-U1350A
Sem pontuao para esta mensagem November 15 2007, 1:16 AM
http://www.4shared.com/file/29232712/d47c9563/MANUAL_LM-U1350.html
Pontuao 1 2 3 4 5 (5=Excelente) Respond to this message
xiru-rs
(Login xiru-rs)
189.30.51.59 XP-V30
Sem pontuao para esta mensagem November 19 2007, 11:37 PM
http://www.4shared.com/file/29797228/34ec9475/XP-V30.html
Pontuao 1 2 3 4 5 (5=Excelente) Respond to this message
xiru-rs
(Login xiru-rs)
189.30.51.59 KV-21FA240
Sem pontuao para esta mensagem November 19 2007, 11:42 PM
http://www.4shared.com/file/27639310/21d4e2d9/KV-21FA240_BR_.html
Pontuao 1 2 3 4 5 (5=Excelente) Respond to this message
xiru-rs
(Login xiru-rs)
189.30.51.59 TV SONY KV-29FA210
Sem pontuao para esta mensagem November 21 2007, 12:28 AM
http://www.4shared.com/file/27642554/2379c467/KV-29FA210__BR_.html
Pontuao 1 2 3 4 5 (5=Excelente) Respond to this message
xiru-rs
(Login xiru-rs)
189.30.51.59 TV aiwa TV-AR295
Sem pontuao para esta mensagem November 21 2007, 8:40 PM

http://www.4shared.com/file/7072804/ff188093/Aiwa-TV-AR295.html
Pontuao 1 2 3 4 5 (5=Excelente) Respond to this message
xiru-rs
(Login xiru-rs)
189.30.51.59 TV SONY KV-29T76
Sem pontuao para esta mensagem November 22 2007, 7:40 PM
http://www.4shared.com/file/27645435/9e3101f9/KV-29T76.html
Pontuao 1 2 3 4 5 (5=Excelente) Respond to this message
Rasia
(Login Rasia)
201.34.114.137 Sacanagem
Sem pontuao para esta mensagem August 16 2007, 7:41 PM
Baita Sacanagem quem apagou o Post ,falta de educao total, desrespeito total,tudo
total,no s aos postadores mas a todos os membros do forum."que isso!!!!" eziste pr
oibio? qual seria o motivo?
Mas se acazo oque dificil,foi um engano ento......
http://www.4shared.com/file/21269769/20e19c3a/Treinamento_na_prtica_Yv_Sony_Chas
sis_BA-6.html?dirPwdVerified=8ce31ad5
Pontuao 1 2 3 4 5 (5=Excelente) Respond to this message
ALAIN/df
(Login alainsomeimagem)
201.11.131.126 continuao dele
Sem pontuao para esta mensagem August 16 2007, 7:48 PM
philips FR752
Sem pontuao para esta mensagem July 30 2007, 9:13 PM
http://www.4shared.com/file/21004143/c66de762/FR_752.html
Pontuao 1 2 3 4 5 (5=Excelente) Editar Mensagem Apagar Mensagem Lock Thread Respon
d to this message
valdeni
(Login valdeni)
Membro VIP monitor AOC 5E
Sem pontuao para esta mensagem July 30 2007, 9:19 PM
http://www.4shared.com/file/12665493/2bca3762/esquema-aoc-5e.html

http://ube-164.pop.com.br/verPagina.php?pid=2708
Pontuao 1 2 3 4 5 (5=Excelente) Editar Mensagem Apagar Mensagem Lock Thread Respon
d to this message
valdeni
(Login valdeni)
Membro VIP monitor lg
Sem pontuao para esta mensagem July 30 2007, 9:26 PM
http://www.4shared.com/file/20927249/cdf316d7/560N.html
http://www.4shared.com/file/20927434/f88e801f/563G_CB563G_chassis_CA112.html
http://www.4shared.com/file/20927613/5758a350/575N.html
http://www.4shared.com/file/20928126/513302cf/775_flatron.html
http://www.4shared.com/file/20927839/8f2505c6/775.html
http://www.4shared.com/file/20926997/2b0ccd19/77M_-_MB776C.html
http://www.4shared.com/file/20928336/4bace7e0/Flatron_550_LG.html
http://www.4shared.com/file/20928477/5d8804f7/Flatron_795_LG.html
http://www.4shared.com/file/11901206/4e73cea9/LG_Color_Monitor_StudioWorks_500EG
_Chassis_CA-133.html
http://www.4shared.com/file/20926033/d95fda05/lg-775N.html

http://ube-164.pop.com.br/verPagina.php?pid=2708
Pontuao 1 2 3 4 5 (5=Excelente) Editar Mensagem Apagar Mensagem Lock Thread Respon
d to this message
sergio
(Login hi-techeletronica)
Membro VIP Re: CAMINHO DAS PEDRAS II REORGANIZADO PELO SERGIO VAZ
Sem pontuao para esta mensagem July 30 2007, 9:19 PM
curso_nothe_book
http://www.4shared.com/file/13777788/5d0758d8/curso_nothe_book.html
--------------------------------------------------------------------------------------------------Manuteno de Placa Mae

http://www.4shared.com/file/13785496/89bba59d/Manuteno_de_Placa_Me.html
--------------------------------------------------------------------------------------------------Montagem_e_Manuteno_de_Micro
http://www.4shared.com/file/13817972/4ec2c776/Montagem_e_Manuteno_de_Micro.html
--------------------------------------------------------------------------------------------------APOSTILA_DE_TREINAMENTO_EM_TV_SEMP_TOSHIBA
http://www.4shared.com/file/20707579/a35b6181/APOSTILA_DE_TREINAMENTO_EM_TV_SEMP
_TOSHIBA.html
--------------------------------------------------------------------------------------------------MONITOR_LG_T710_T730__CA-136
http://www.4shared.com/file/17681586/21139e0a/MONITOR_LG_T710_T730__CA-136_.html
?s=1
--------------------------------------------------------------------------------------------------Antenas_Parablicas_--_Apostila_Bsica
http://www.4shared.com/file/13524591/a9d984c6/Antenas_Parablicas_--_Apostila_Bsi
ca.html?s=1
--------------------------------------------------------------------------------------------------Pontuao 1 2 3 4 5 (5=Excelente) Editar Mensagem Apagar Mensagem Lock Thread Respon
d to this message
martinho
(Login martins62)
Membro VIP Re: CAMINHO DAS PEDRAS II REORGANIZADO PELO SERGIO VAZ
Sem pontuao para esta mensagem July 30 2007, 9:45 PM
TV AIWA TV-C1300
http://www.4shared.com/file/20387216/cb10c4c4/09-004-418-7C1.html
TV AIWA TV-S1311
http://www.4shared.com/file/20387141/2a451b7b/09-003-421-0C2.html
Pontuao 1 2 3 4 5 (5=Excelente) Editar Mensagem Apagar Mensagem Lock Thread Respon
d to this message
valdeni
(Login valdeni)
Membro VIP SONY kv-29fs100-29fs300-34fs100-34fv250-38fv250
Sem pontuao para esta mensagem July 30 2007, 10:11 PM
http://www.4shared.com/file/21007267/e3c5504e/KV-29FS100_29FS300_34FS100_34FV250
_38FV250.html

http://ube-164.pop.com.br/verPagina.php?pid=2708
Pontuao 1 2 3 4 5 (5=Excelente) Editar Mensagem Apagar Mensagem Lock Thread Respon
d to this message

filhojj
(Login filhojj)
Membro VIP Re: CAMINHO DAS PEDRAS II REORGANIZADO PELO SERGIO VAZ
Sem pontuao para esta mensagem July 30 2007, 10:33 PM
http://www.4shared.com/file/20934561/db846cbc/LG_AL03HA_CHASSIS_DU42LZ30_LCD_TV_
SM.html
http://www.4shared.com/file/20962815/76fb7d9d/LG_AL03HA_CHASSIS_DU37LZ30_LCD_TV_
SM.html

Pontuao 1 2 3 4 5 (5=Excelente) Editar Mensagem Apagar Mensagem Lock Thread Respon


d to this message
valdeni
(Login valdeni)
Membro VIP SONY
Sem pontuao para esta mensagem July 31 2007, 1:59 AM
se preferir clique com boto direito do mause e salve,(destino como)
https://www.vancebaldwin.com/shop/research_new/SON/CPD420GS.pdf chassis D-98
https://www.vancebaldwin.com/shop/research_new/SON/CPDG500.pdf chassis G-1
https://www.vancebaldwin.com/shop/research_new/SON/CCDFX520.pdf
https://www.vancebaldwin.com/shop/research_new/SON/CCDFX530.pdf
https://www.vancebaldwin.com/shop/research_new/son/CCDTRV65.pdf ccdtrv15_25_35_6
5_85_93_215_615_815
https://www.vancebaldwin.com/shop/research_new/SON/GVA500E.pdf
https://www.vancebaldwin.com/shop/research_new/SON/GVD1000.pdf
https://www.vancebaldwin.com/shop/research_new/SON/GVS50.pdf
https://www.vancebaldwin.com/shop/research_new/SON/HCDGX8800.pdf
https://www.vancebaldwin.com/shop/research_new/son/HCDGX90D.PDF RV-800D
https://www.vancebaldwin.com/shop/research_new/son/HCDC450.PDF
https://www.vancebaldwin.com/shop/research_new/SON/HCDC700.pdf HCD-C900
https://www.vancebaldwin.com/shop/research_new/SON/HCDC770.pdf https://www.vance
baldwin.com/shop/https://www.vancebaldwin.com/shop/research_new/son/HCDC990.PDF
HCD-C770
https://www.vancebaldwin.com/shop/research_new/SON/HCDC900.pdf HCD-C700
https://www.vancebaldwin.com/shop/research_new/son/HCDD250.PDF HCD-A195/D250/G20
00
https://www.vancebaldwin.com/shop/research_new/son/HCDD990.PDF
https://www.vancebaldwin.com/shop/research_new/SON/HCDED1.pdf
https://www.vancebaldwin.com/shop/research_new/SON/HCDEP707.pdf
https://www.vancebaldwin.com/shop/research_new/SON/HCDF150.pdf HCD-FR10
https://www.vancebaldwin.com/shop/research_new/SON/HCDH300.pdf
https://www.vancebaldwin.com/shop/research_new/SON/HCDH51M.pdf
https://www.vancebaldwin.com/shop/research_new/son/HCDH991AV.PDF
https://www.vancebaldwin.com/shop/research_new/SON/HCDMC1.pdf
https://www.vancebaldwin.com/shop/research_new/SON/HCDMD5.pdf
https://www.vancebaldwin.com/shop/research_new/son/HCDMG510AV.PDF
https://www.vancebaldwin.com/shop/research_new/son/HCDRXD3.PDF
https://www.vancebaldwin.com/shop/research_new/SON/HCDRXD5.pdf
https://www.vancebaldwin.com/shop/research_new/son/HCDRXD7AV.PDF
https://www.vancebaldwin.com/shop/research_new/son/HCDS300.PDF

https://www.vancebaldwin.com/shop/research_new/son/HCDS500.PDF
https://www.vancebaldwin.com/shop/research_new/SON/HCDS3000.pdf
https://www.vancebaldwin.com/shop/research_new/SON/HCDXG500.pdf HCD-XG60
https://www.vancebaldwin.com/shop/research_new/son/HCDXGR6.PDF
https://www.vancebaldwin.com/shop/research_new/son/HCDXGR60.PDF
https://www.vancebaldwin.com/shop/research_new/SON/HDCS300.pdf
https://www.vancebaldwin.com/shop/research_new/SON/HTC800DP.pdf
https://www.vancebaldwin.com/shop/research_new/SON/HTCD159.pdf
https://www.vancebaldwin.com/shop/research_new/SON/HTDDW740.pdf
https://www.vancebaldwin.com/shop/research_new/SON/MHC2600.pdf
https://www.vancebaldwin.com/shop/research_new/SON/MHC3600.pdf
https://www.vancebaldwin.com/shop/research_new/son/MHCDP1000.PDF
https://www.vancebaldwin.com/shop/research_new/son/MHCDP1000D.PDF
https://www.vancebaldwin.com/shop/research_new/SON/MHCG33.pdf
https://www.vancebaldwin.com/shop/research_new/SON/MHCGS200.pdf
https://www.vancebaldwin.com/shop/research_new/son/MHCGX8000.PDF RG66T/RG77
https://www.vancebaldwin.com/shop/research_new/son/MHCGX8800.PDF
https://www.vancebaldwin.com/shop/research_new/son/MHCGX90D.PDF RV600-900
https://www.vancebaldwin.com/shop/research_new/SON/MHCM300AV.pdf
https://www.vancebaldwin.com/shop/research_new/SON/MHCMC3AV.pdf
https://www.vancebaldwin.com/shop/research_new/SON/MHCMG110.pdf
https://www.vancebaldwin.com/shop/research_new/SON/MHCMG510A.pdf
https://www.vancebaldwin.com/shop/research_new/SON/MHCMG510AV.pdf
https://www.vancebaldwin.com/shop/research_new/SON/MHCRXD3.pdf
https://www.vancebaldwin.com/shop/research_new/SON/MHCZX70DVD.pdf
https://www.vancebaldwin.com/shop/research_new/SON/MVCCD20.pdf
https://www.vancebaldwin.com/shop/research_new/SON/MVCCD400.pdf
https://www.vancebaldwin.com/shop/research_new/SON/MVCFD100.pdf
https://www.vancebaldwin.com/shop/research_new/SON/MVCFD71.pdf
https://www.vancebaldwin.com/shop/research_new/SON/MVCFD73.pdf
https://www.vancebaldwin.com/shop/research_new/SON/MVCFD75.pdf
https://www.vancebaldwin.com/shop/research_new/SON/CDP215.pdf
https://www.vancebaldwin.com/shop/research_new/SON/CDP550.pdf
https://www.vancebaldwin.com/shop/research_new/SON/CDPC221.pdf
https://www.vancebaldwin.com/shop/research_new/SON/CDPC265.pdf
https://www.vancebaldwin.com/shop/research_new/SON/CDPC305.pdf CDPC35_201_205
https://www.vancebaldwin.com/shop/research_new/SON/CDPCE275.pdf
https://www.vancebaldwin.com/shop/research_new/SON/CDPCE345.pdf
https://www.vancebaldwin.com/shop/research_new/SON/CDPCE375.pdf
https://www.vancebaldwin.com/shop/research_new/SON/CDPCE575.pdf
https://www.vancebaldwin.com/shop/research_new/SON/CDPCX220.pdf
https://www.vancebaldwin.com/shop/research_new/SON/CDPH3750.pdf
https://www.vancebaldwin.com/shop/research_new/SON/CDPM33.pdf
https://www.vancebaldwin.com/shop/research_new/SON/CDPM333ES.pdf
https://www.vancebaldwin.com/shop/research_new/SON/CDX1300.pdf
https://www.vancebaldwin.com/shop/research_new/SON/CDX51.pdf
https://www.vancebaldwin.com/shop/research_new/SON/CDX530RF.pdf
https://www.vancebaldwin.com/shop/research_new/SON/CDX5070.pdf
https://www.vancebaldwin.com/shop/research_new/SON/CDXA35RF.pdf
https://www.vancebaldwin.com/shop/research_new/SON/CDX5490.pdf
https://www.vancebaldwin.com/shop/research_new/SON/CDXC5005.pdf
https://www.vancebaldwin.com/shop/research_new/SON/CDXC660.pdf
https://www.vancebaldwin.com/shop/research_new/SON/CDXCA700.pdf
https://www.vancebaldwin.com/shop/research_new/SON/CDXCA810X.pdf
https://www.vancebaldwin.com/shop/research_new/SON/CDXCA900X.pdf
https://www.vancebaldwin.com/shop/research_new/SON/CDXL300.pdf CDX-L460X
https://www.vancebaldwin.com/shop/research_new/son/CDXL350.pdf CDX-L360
https://www.vancebaldwin.com/shop/research_new/SON/CDXL410X.pdf
https://www.vancebaldwin.com/shop/research_new/SON/CDXL510X.pdf
https://www.vancebaldwin.com/shop/research_new/SON/CDXL600X.pdf

https://www.vancebaldwin.com/shop/research_new/son/CDXM610.pdf
https://www.vancebaldwin.com/shop/research_new/SON/CDXM730.pdf
https://www.vancebaldwin.com/shop/research_new/son/CDXM750.pdf CDX-M700R
https://www.vancebaldwin.com/shop/research_new/son/CDXMP450X.pdf
https://www.vancebaldwin.com/shop/research_new/SON/CDXR77.pdf
https://www.vancebaldwin.com/shop/research_new/SON/CFD370.pdf
https://www.vancebaldwin.com/shop/research_new/SON/CFD510.pdf
https://www.vancebaldwin.com/shop/research_new/SON/CFD515.pdf
https://www.vancebaldwin.com/shop/research_new/SON/CFD530.pdf
https://www.vancebaldwin.com/shop/research_new/SON/CFD545.pdf
https://www.vancebaldwin.com/shop/research_new/SON/CFD580.pdf
https://www.vancebaldwin.com/shop/research_new/SON/CFD676.pdf
https://www.vancebaldwin.com/shop/research_new/SON/CFD758.pdf
https://www.vancebaldwin.com/shop/research_new/SON/CFD767.pdf
https://www.vancebaldwin.com/shop/research_new/SON/CFDC626S.pdf
https://www.vancebaldwin.com/shop/research_new/SON/CFDE10.pdf
https://www.vancebaldwin.com/shop/research_new/SON/CFDE55TV.pdf
https://www.vancebaldwin.com/shop/research_new/SON/CFDE75L.pdf
https://www.vancebaldwin.com/shop/research_new/SON/CFDG50.pdf
https://www.vancebaldwin.com/shop/research_new/SON/CFDG55.pdf
https://www.vancebaldwin.com/shop/research_new/SON/CFDS38.pdf
https://www.vancebaldwin.com/shop/research_new/SON/CFDZ130.pdf
https://www.vancebaldwin.com/shop/research_new/SON/DE660.pdf
https://www.vancebaldwin.com/shop/research_new/SON/FHB170.pdf
https://www.vancebaldwin.com/shop/research_new/SON/FHB55CD.pdf
https://www.vancebaldwin.com/shop/research_new/SON/FHB70CD.pdf
https://www.vancebaldwin.com/shop/research_new/SON/FHE737CD.pdf
https://www.vancebaldwin.com/shop/research_new/SON/FHE757.pdf
https://www.vancebaldwin.com/shop/research_new/SON/LBTA30.pdf
https://www.vancebaldwin.com/shop/research_new/SON/LBTD117.pdf
https://www.vancebaldwin.com/shop/research_new/SON/LBTD690.pdf
https://www.vancebaldwin.com/shop/research_new/SON/PSJ11.pdf
https://www.vancebaldwin.com/shop/research_new/SON/PSLX285.pdf
https://www.vancebaldwin.com/shop/research_new/SON/PSLX300H.pdf
https://www.vancebaldwin.com/shop/research_new/SON/PSLX56.pdf
https://www.vancebaldwin.com/shop/research_new/SON/SAVA15.pdf
https://www.vancebaldwin.com/shop/research_new/SON/SAVA57.pdf
https://www.vancebaldwin.com/shop/research_new/SON/SAVA59.pdf
https://www.vancebaldwin.com/shop/research_new/SON/DAVC450.pdf
https://www.vancebaldwin.com/shop/research_new/SON/DAVC700.pdf
https://www.vancebaldwin.com/shop/research_new/SON/DAVC770.pdf
https://www.vancebaldwin.com/shop/research_new/SON/DAVS500.pdf
https://www.vancebaldwin.com/shop/research_new/SON/DAVC900.pdf
https://www.vancebaldwin.com/shop/research_new/SON/DAVC990.pdf
https://www.vancebaldwin.com/shop/research_new/SON/DCRTRV250.pdf
https://www.vancebaldwin.com/shop/research_new/SON/DCRTRV38.pdf DCR-TRV39
https://www.vancebaldwin.com/shop/research_new/SON/DCRTRV520.pdf DCR-TRV525
https://www.vancebaldwin.com/shop/research_new/SON/DCRTRV620.pdf
https://www.vancebaldwin.com/shop/research_new/son/DCRVX2000.pdf DCR-VX2000E
https://www.vancebaldwin.com/shop/research_new/SON/DNE300.pdf
https://www.vancebaldwin.com/shop/research_new/son/DSRPD100.pdf
https://www.vancebaldwin.com/shop/research_new/SON/DTC55ES.pdf
https://www.vancebaldwin.com/shop/research_new/SON/DTC60ES.pdf
https://www.vancebaldwin.com/shop/research_new/SON/FDL22.pdf
https://www.vancebaldwin.com/shop/research_new/SON/FDLK400.pdf
https://www.vancebaldwin.com/shop/research_new/SON/HVLFSL1.pdf
https://www.vancebaldwin.com/shop/research_new/son/XR2600.PDF XR-2900
https://www.vancebaldwin.com/shop/research_new/son/XR4950X.PDF
https://www.vancebaldwin.com/shop/research_new/SON/XRC5100.pdf

https://www.vancebaldwin.com/shop/research_new/son/WMF2078.PDF
https://www.vancebaldwin.com/shop/research_new/SON/STRAV23.pdf
https://www.vancebaldwin.com/shop/research_new/SON/STRAV570.pdf
https://www.vancebaldwin.com/shop/research_new/SON/STRD2090.pdf
https://www.vancebaldwin.com/shop/research_new/SON/STRD350Z.pdf
https://www.vancebaldwin.com/shop/research_new/SON/STRD460Z.pdf
https://www.vancebaldwin.com/shop/research_new/SON/STRD550Z.pdf
https://www.vancebaldwin.com/shop/research_new/SON/STRD665.pdf
https://www.vancebaldwin.com/shop/research_new/SON/STRD715.pdf
https://www.vancebaldwin.com/shop/research_new/SON/STRD990.pdf
https://www.vancebaldwin.com/shop/research_new/SON/STRDA7ES.pdf
https://www.vancebaldwin.com/shop/research_new/SON/STRDE185.pdf
https://www.vancebaldwin.com/shop/research_new/SON/STRDE310.pdf
https://www.vancebaldwin.com/shop/research_new/SON/STRDE325.pdf
https://www.vancebaldwin.com/shop/research_new/SON/STRDE445.pdf
https://www.vancebaldwin.com/shop/research_new/SON/STRDE335.pdf
https://www.vancebaldwin.com/shop/research_new/SON/STRDE485.pdf
https://www.vancebaldwin.com/shop/research_new/SON/STRDE545.pdf
https://www.vancebaldwin.com/shop/research_new/SON/STRDE595.pdf
https://www.vancebaldwin.com/shop/research_new/SON/STRDE685.pdf
https://www.vancebaldwin.com/shop/research_new/SON/STRDE825.pdf
https://www.vancebaldwin.com/shop/research_new/SON/STRDE925.pdf
https://www.vancebaldwin.com/shop/research_new/SON/STRDE945.pdf
https://www.vancebaldwin.com/shop/research_new/SON/STRG3.pdf
https://www.vancebaldwin.com/shop/research_new/SON/STRGX800ES.pdf
https://www.vancebaldwin.com/shop/research_new/SON/STRK840P.pdf
https://www.vancebaldwin.com/shop/research_new/SON/STRSE391.pdf
https://www.vancebaldwin.com/shop/research_new/SON/STRSE591.pdf

http://ube-164.pop.com.br/verPagina.php?pid=2708
Pontuao 1 2 3 4 5 (5=Excelente) Editar Mensagem Apagar Mensagem Lock Thread Respon
d to this message
valdeni
(Login valdeni)
Membro VIP dvd porttil daewoo
Sem pontuao para esta mensagem July 31 2007, 2:52 AM

http://www.4shared.com/file/21020707/54435efa/DPC-7100_DVD-daewoo.html
http://www.4shared.com/file/21023332/1ab8fe84/DPC-7200N__DAEWOO__DVD_Portable_Pl
ayer.html
http://www.4shared.com/file/21020977/119ce537/DPC-7400__DAEWOO__DVD_Portable_Pla
yer.html
http://www.4shared.com/file/21021068/2f55950d/DPC-7600_8600__DAEWOO__DVD_Portabl
e_Player.html
http://www.4shared.com/file/21021931/242fe263/DPC-7800PD-KA__DAEWOO___DVD_Portab
le_Player.html

http://www.4shared.com/file/21021989/c900b39a/DPC-8100P_8500P__DAEWOO__DVD_Porta
ble_Player.html
http://www.4shared.com/file/21022365/4117f807/DPC-8200PD__DAEWOO__DVD_Portable_P
layer.html

http://ube-164.pop.com.br/verPagina.php?pid=2708
Pontuao 1 2 3 4 5 (5=Excelente) Editar Mensagem Apagar Mensagem Lock Thread Respon
d to this message
ALAIN/df
(Login alainsomeimagem)
Conselheiro com o complemento do leandro
Pontuao 2.0 (1 pessoa) July 31 2007, 5:25 PM
https://www.vancebaldwin.com/shop/research_new/SON/KV27V10.PDF
https://www.vancebaldwin.com/shop/research_new/SON/KV32V15.PDF
https://www.vancebaldwin.com/shop/research_new/SON/KV27TW77.PDF
https://www.vancebaldwin.com/shop/research_new/SON/KV32S12.PDF
https://www.vancebaldwin.com/shop/research_new/son/KV32XBR37.pdf
https://www.vancebaldwin.com/shop/research_new/son/KV32S16.pdf
https://www.vancebaldwin.com/shop/research_new/son/KV32S12.pdf
https://www.vancebaldwin.com/shop/research_new/son/KV32TS36.pdf
https://www.vancebaldwin.com/shop/research_new/son/KV27TS36.pdf
https://www.vancebaldwin.com/shop/research_new/son/KV27TW77.pdf
https://www.vancebaldwin.com/shop/research_new/SON/KV20FS100.pdf
https://www.vancebaldwin.com/shop/research_new/son/KV13FS110.pdf
https://www.vancebaldwin.com/shop/research_new/SON/KV27FS100L.pdf
https://www.vancebaldwin.com/shop/research_new/SON/KV35V36.pdf
-AA2D https://www.vancebaldwin.com/shop/research_new/SON/KV27V42.pdf
https://www.vancebaldwin.com/shop/research_new/SON/KV27V10.PDF -AA-1
https://www.vancebaldwin.com/shop/research_new/SON/KV32V15.PDF -AA-1 https://www
.vancebaldwin.com/shop/research_new/SON/KP41T65.pdf

https://www.vancebaldwin.com/shop/research_new/SON/KP48S35.pdf -RA-2 https://www


.vancebaldwin.com/shop/research_new/SON/KP46S55.PDF -AP https://www.vancebaldwin
.com/shop/research_new/SON/KP53S35.pdf
https://www.vancebaldwin.com/shop/research_new/SON/KP53S55.pdf
https://www.vancebaldwin.com/shop/research_new/SON/KP53S65.pdf -RA-2A https://ww
w.vancebaldwin.com/shop/research_new/SON/KP53S70.pdf
https://www.vancebaldwin.com/shop/research_new/SON/KP53S75.pdf -RA-3A
https://www.vancebaldwin.com/shop/research_new/SON/KP48S70.pdf -RA-3
https://www.vancebaldwin.com/shop/research_new/SON/KP48S75.pdf -RA-3A
https://www.vancebaldwin.com/shop/research_new/SON/KP48V45.pdf -RA-2
https://www.vancebaldwin.com/shop/research_new/SON/KP48V85.pdf -RA-3A
https://www.vancebaldwin.com/shop/research_new/SON/KP48V90.pdf -RA-3B
https://www.vancebaldwin.com/shop/research_new/son/KP61V25.pdf
https://www.vancebaldwin.com/shop/research_new/SON/KV27TW77.PDF -AA-1
https://www.vancebaldwin.com/shop/research_new/SON/KV32S12.PDF -AA-1
https://www.vancebaldwin.com/shop/research_new/son/KV32XBR37.pdf -AA-1
https://www.vancebaldwin.com/shop/research_new/son/KDP57XBR.PDF -RA-5A
https://www.vancebaldwin.com/shop/research_new/SON/KDP57XBR2.pdf -RA5A
https://www.vancebaldwin.com/shop/research_new/SON/KDP51WS550.pdf
https://www.vancebaldwin.com/shop/research_new/SON/KDP65X.pdf -RA-5A
https://www.vancebaldwin.com/shop/research_new/SON/KDP57WS550.pdf -AX1
https://www.vancebaldwin.com/shop/research_new/son/KD34XBR2.pdf -HA-3
https://www.vancebaldwin.com/shop/research_new/SON/KV29AL42.pdf -BA-4D
https://www.vancebaldwin.com/shop/research_new/son/KV27FS16.pdf -BA-5
https://www.vancebaldwin.com/shop/research_new/son/KV36FS17.pdf -AA-2U
https://www.vancebaldwin.com/shop/research_new/SON/KV13FM12.pdf -BA-5
https://www.vancebaldwin.com/shop/research_new/son/KV32FV27.pdf -AA-2U
https://www.vancebaldwin.com/shop/research_new/son/KV36FV27.pdf -AA-2U
https://www.vancebaldwin.com/shop/research_new/son/KV36FS12.pdf -AA-2U
https://www.vancebaldwin.com/shop/research_new/SON/KV32FS12.pdf
https://www.vancebaldwin.com/shop/research_new/SON/KV32FS12GRAY.pdf -BA5

https://www.vancebaldwin.com/shop/research_new/SON/KV32FS13.pdf -BA-5
https://www.vancebaldwin.com/shop/research_new/son/KV36FS13.pdf -AA2U
https://www.vancebaldwin.com/shop/research_new/SON/KV32HS20.pdf -DX-1A https://w
ww.vancebaldwin.com/shop/research_new/son/KV32HS500.pdf -DA-4 https://www.vanceb
aldwin.com/shop/research_new/son/KV36HS500.pdf -DA-4 https://www.vancebaldwin.co
m/shop/research_new/SON/KV32HS510.pdf
https://www.vancebaldwin.com/shop/research_new/SON/KV34HS510.pdf
https://www.vancebaldwin.com/shop/research_new/SON/KV36XBR450.pdf-DX1A KV40XBR70
0
https://www.vancebaldwin.com/shop/research_new/son/KV34XBR48.pdf -AA2C KV34XBR88
https://www.vancebaldwin.com/shop/research_new/SON/KP53XBR25.pdf
https://www.vancebaldwin.com/shop/research_new/son/KP53XBR45.pdf -RA-1
https://www.vancebaldwin.com/shop/research_new/SON/KP53XBR4CT.pdf
https://www.vancebaldwin.com/shop/research_new/son/KP61XBR48.pdf -RA-1
https://www.vancebaldwin.com/shop/research_new/son/KP57WV600.pdf -DA-4X
https://www.vancebaldwin.com/shop/research_new/SON/KP65WV600.pdf
https://www.vancebaldwin.com/shop/research_new/son/KV27FS100.pdf -BA-5D
https://www.vancebaldwin.com/shop/research_new/SON/KV27FS100L.pdf -BA-6
https://www.vancebaldwin.com/shop/research_new/son/KV36FS10.pdf -AA-2W
https://www.vancebaldwin.com/shop/research_new/son/KP51WS500.pdf -RA-6
https://www.vancebaldwin.com/shop/research_new/SON/KP51WS510.pdf -RA-6A
https://www.vancebaldwin.com/shop/research_new/son/KP61V25.pdf -RA-1
https://www.vancebaldwin.com/shop/research_new/son/KV20TS32.pdf -BA-1
https://www.vancebaldwin.com/shop/research_new/son/KV20S10.pdf -BA-2
https://www.vancebaldwin.com/shop/research_new/son/KV27S40.pdf -BA-4
https://www.vancebaldwin.com/shop/research_new/son/KV35S40.pdf -AA-2D
https://www.vancebaldwin.com/shop/research_new/son/KV32V26.pdf -AA-2D
https://www.vancebaldwin.com/shop/research_new/son/KV27V42.pdf -BA-4D
https://www.vancebaldwin.com/shop/research_new/son/KW34HD1.pdf -HA-1
https://www.vancebaldwin.com/shop/research_new/son/KV32FV15.pdf -AA-2W
https://www.vancebaldwin.com/shop/research_new/son/KV34FV15.pdf -AA-2W KV34FV10
https://www.vancebaldwin.com/shop/research_new/son/KV36FV15.pdf -AA-2W

https://www.vancebaldwin.com/shop/research_new/son/KV36XBR250.pdf -AA-2W
https://www.vancebaldwin.com/shop/research_new/son/KV35S65.pdf -AA-2D
https://www.vancebaldwin.com/shop/research_new/son/KV32S12.pdf -AA-1
https://www.vancebaldwin.com/shop/research_new/son/KV32S16.pdf -AA-1
https://www.vancebaldwin.com/shop/research_new/son/KV32S20.pdf -AA-2
https://www.vancebaldwin.com/shop/research_new/son/KV32S22.pdf -AA-2D
https://www.vancebaldwin.com/shop/research_new/son/KV32S25.pdf -AA-2
https://www.vancebaldwin.com/shop/research_new/son/KV32S40.pdf -AA-2D
https://www.vancebaldwin.com/shop/research_new/son/KV32S42.pdf -AA-2D
https://www.vancebaldwin.com/shop/research_new/son/KV32S45.pdf -AA-2D
https://www.vancebaldwin.com/shop/research_new/son/KV32S66.pdf -AA-2D
https://www.vancebaldwin.com/shop/research_new/son/KV32S22.pdf -AA-2D
https://www.vancebaldwin.com/shop/research_new/son/KV27TS35.pdf -LN-1
https://www.vancebaldwin.com/shop/research_new/son/KPR53XBR15.pdf -AP KPR41EXR95
https://www.vancebaldwin.com/shop/research_new/son/KV32XBR25.pdf -FN
https://www.vancebaldwin.com/shop/research_new/son/KV20TS29.pdf -BA-1
https://www.vancebaldwin.com/shop/research_new/son/KV13TR28.pdf -BA-1
https://www.vancebaldwin.com/shop/research_new/son/KV32TS36.pdf -AA-1
https://www.vancebaldwin.com/shop/research_new/son/KV27TS36.pdf -AA-1
https://www.vancebaldwin.com/shop/research_new/son/KV27TW77.pdf -AA-1
https://www.vancebaldwin.com/shop/research_new/son/KV9PT60.pdf -BN-1
https://www.vancebaldwin.com/shop/research_new/son/KP46C36.pdf -RA-2
https://www.vancebaldwin.com/shop/research_new/son/KP48S65.pdf -RA-2A
https://www.vancebaldwin.com/shop/research_new/SON/KP53V15.pdf
https://www.vancebaldwin.com/shop/research_new/SON/KP53V25.pdf
https://www.vancebaldwin.com/shop/research_new/SON/KP53V35.pdf
https://www.vancebaldwin.com/shop/research_new/SON/KP53V45.pdf
https://www.vancebaldwin.com/shop/research_new/son/KP53V80.pdf - RA-3
https://www.vancebaldwin.com/shop/research_new/SON/KP53V85.pdf - RA-3A
https://www.vancebaldwin.com/shop/research_new/son/KP53HS10.pdf -RA-4B

https://www.vancebaldwin.com/shop/research_new/SON/KP53HS30.pdf -RA-6
https://www.vancebaldwin.com/shop/research_new/SON/KP57HW40.pdf -RA-6
https://www.vancebaldwin.com/shop/research_new/son/KP43T75.pdf -RA-3A
https://www.vancebaldwin.com/shop/research_new/son/KP57XBR10W.pdf -RA4W
https://www.vancebaldwin.com/shop/research_new/son/KP43HT20.pdf -RA-6
https://www.vancebaldwin.com/shop/research_new/son/KV20S10.pdf -BA-2
https://www.vancebaldwin.com/shop/research_new/son/KV27S20.pdf -AA-2
https://www.vancebaldwin.com/shop/research_new/son/KV32V26.pdf -AA-2D
https://www.vancebaldwin.com/shop/research_new/son/KV35V36.pdf -AA-2D
https://www.vancebaldwin.com/shop/research_new/son/KP46V15.pdf -AP
https://www.vancebaldwin.com/shop/research_new/SON/KV27EXR95.pdf -ANU2
https://www.vancebaldwin.com/shop/research_new/son/KP41EXR96.pdf -AP
https://www.vancebaldwin.com/shop/research_new/son/KV27S40.pdf -BA-4
https://www.vancebaldwin.com/shop/research_new/SON/KV24FV10.pdf -BA-4C
https://www.vancebaldwin.com/shop/research_new/son/KV27FS16.pdf -BA-5
https://www.vancebaldwin.com/shop/research_new/son/KV32FV300.pdf -BA-5D
https://www.vancebaldwin.com/shop/research_new/SON/KV32FV310.pdf -BA-5D
https://www.vancebaldwin.com/shop/research_new/son/KV36FS100.pdf -BA-5D
https://www.vancebaldwin.com/shop/research_new/SON/KV27FS210.pdf
https://www.vancebaldwin.com/shop/research_new/son/KV32FS200.pdf -BA-5D
https://www.vancebaldwin.com/shop/research_new/SON/KV32FS210.pdf -BA-5D
https://www.vancebaldwin.com/shop/research_new/SON/KV20FS100.pdf -BA-6
https://www.vancebaldwin.com/shop/research_new/son/KV13FS110.pdf -BA-6
https://www.vancebaldwin.com/shop/research_new/SON/KP46WT500.pdf -RA-6 Kp-51/57/
65ws500/46wt500
https://www.vancebaldwin.com/shop/research_new/SON/KP51WS510.pdf -RA-6A
https://www.vancebaldwin.com/shop/research_new/SON/KP57WS510.pdf
https://www.vancebaldwin.com/shop/research_new/SON/KF50WE610.pdf -LA-2
https://www.vancebaldwin.com/shop/research_new/SON/KF42WE610.pdf -LA-2
https://www.vancebaldwin.com/shop/research_new/SON/KV40XBR800.pdf -DA-4 KV-32HS5
00, KV-32HV600, KV-34DRC500, KV-34XBR800, KV-36HS500, KV-36XBR800, KV-38DRC500,
KV-40XBR800, KV-42DRC800

https://www.vancebaldwin.com/shop/research_new/SON/KF50XBR800.pdf -LA-1A
https://www.vancebaldwin.com/shop/research_new/SON/KF60XBR800.pdf -LA-1A
https://www.vancebaldwin.com/shop/research_new/SON/KF60WE610.pdf -LA-2
https://www.vancebaldwin.com/shop/research_new/SON/SLVN51.pdf
https://www.vancebaldwin.com/shop/research_new/SON/SLVN55.pdf
https://www.vancebaldwin.com/shop/research_new/SON/SLVN71.pdf
https://www.vancebaldwin.com/shop/research_new/SON/SLVN81.pdf
https://www.vancebaldwin.com/shop/research_new/SON/SLVN88.pdf
https://www.vancebaldwin.com/shop/research_new/SON/SLVN700.pdf
https://www.vancebaldwin.com/shop/research_new/SON/CPD100ES.pdf
https://www.vancebaldwin.com/shop/research_new/SON/CPD420GS.pdf chassis D-98
https://www.vancebaldwin.com/shop/research_new/SON/CPDG500.pdf chassis G-1
https://www.vancebaldwin.com/shop/research_new/SON/CCDFX520.pdf
https://www.vancebaldwin.com/shop/research_new/SON/CCDFX530.pdf
https://www.vancebaldwin.com/shop/research_new/son/CCDTRV65.pdf ccdtrv15_25_35_6
5_85_93_215_615_815
https://www.vancebaldwin.com/shop/research_new/SON/GVA500E.pdf
https://www.vancebaldwin.com/shop/research_new/SON/GVD1000.pdf
https://www.vancebaldwin.com/shop/research_new/SON/GVS50.pdf
https://www.vancebaldwin.com/shop/research_new/SON/HCDGX8800.pdf
https://www.vancebaldwin.com/shop/research_new/son/HCDGX90D.PDF RV-800D
https://www.vancebaldwin.com/shop/research_new/son/HCDC450.PDF
https://www.vancebaldwin.com/shop/research_new/SON/HCDC700.pdf HCD-C900
https://www.vancebaldwin.com/shop/research_new/SON/HCDC770.pdf
https://www.vancebaldwin.com/shop/research_new/son/HCDC990.PDF HCD-C770
https://www.vancebaldwin.com/shop/research_new/SON/HCDC900.pdf HCD-C700
https://www.vancebaldwin.com/shop/research_new/son/HCDD250.PDF HCD-A195/D250/G20
00
https://www.vancebaldwin.com/shop/research_new/son/HCDD990.PDF
https://www.vancebaldwin.com/shop/research_new/SON/HCDED1.pdf
https://www.vancebaldwin.com/shop/research_new/SON/HCDEP707.pdf

https://www.vancebaldwin.com/shop/research_new/SON/HCDF150.pdf HCD-FR10
https://www.vancebaldwin.com/shop/research_new/SON/HCDH300.pdf
https://www.vancebaldwin.com/shop/research_new/SON/HCDH51M.pdf
https://www.vancebaldwin.com/shop/research_new/son/HCDH991AV.PDF
https://www.vancebaldwin.com/shop/research_new/SON/HCDMC1.pdf
https://www.vancebaldwin.com/shop/research_new/SON/HCDMD5.pdf
https://www.vancebaldwin.com/shop/research_new/son/HCDMG510AV.PDF
https://www.vancebaldwin.com/shop/research_new/son/HCDRXD3.PDF
https://www.vancebaldwin.com/shop/research_new/SON/HCDRXD5.pdf
https://www.vancebaldwin.com/shop/research_new/son/HCDRXD7AV.PDF
https://www.vancebaldwin.com/shop/research_new/son/HCDS300.PDF
https://www.vancebaldwin.com/shop/research_new/son/HCDS500.PDF
https://www.vancebaldwin.com/shop/research_new/SON/HCDS3000.pdf
https://www.vancebaldwin.com/shop/research_new/SON/HCDXG500.pdf HCD-XG60
https://www.vancebaldwin.com/shop/research_new/son/HCDXGR6.PDF
https://www.vancebaldwin.com/shop/research_new/son/HCDXGR60.PDF
https://www.vancebaldwin.com/shop/research_new/SON/HDCS300.pdf
https://www.vancebaldwin.com/shop/research_new/SON/HTC800DP.pdf
https://www.vancebaldwin.com/shop/research_new/SON/HTCD159.pdf
https://www.vancebaldwin.com/shop/research_new/SON/HTDDW740.pdf
https://www.vancebaldwin.com/shop/research_new/SON/MHC2600.pdf
https://www.vancebaldwin.com/shop/research_new/SON/MHC3600.pdf
https://www.vancebaldwin.com/shop/research_new/son/MHCDP1000.PDF
https://www.vancebaldwin.com/shop/research_new/son/MHCDP1000D.PDF
https://www.vancebaldwin.com/shop/research_new/SON/MHCG33.pdf
https://www.vancebaldwin.com/shop/research_new/SON/MHCGS200.pdf
https://www.vancebaldwin.com/shop/research_new/son/MHCGX8000.PDF RG66T/RG77
https://www.vancebaldwin.com/shop/research_new/son/MHCGX8800.PDF
https://www.vancebaldwin.com/shop/research_new/son/MHCGX90D.PDF RV600-900
https://www.vancebaldwin.com/shop/research_new/SON/MHCM300AV.pdf

https://www.vancebaldwin.com/shop/research_new/SON/MHCMC3AV.pdf
https://www.vancebaldwin.com/shop/research_new/SON/MHCMG110.pdf
https://www.vancebaldwin.com/shop/research_new/SON/MHCMG510A.pdf
https://www.vancebaldwin.com/shop/research_new/SON/MHCMG510AV.pdf
https://www.vancebaldwin.com/shop/research_new/SON/MHCRXD3.pdf
https://www.vancebaldwin.com/shop/research_new/SON/MHCZX70DVD.pdf
https://www.vancebaldwin.com/shop/research_new/SON/MVCCD20.pdf
https://www.vancebaldwin.com/shop/research_new/SON/MVCCD400.pdf
https://www.vancebaldwin.com/shop/research_new/SON/MVCFD100.pdf
https://www.vancebaldwin.com/shop/research_new/SON/MVCFD71.pdf
https://www.vancebaldwin.com/shop/research_new/SON/MVCFD73.pdf
https://www.vancebaldwin.com/shop/research_new/SON/MVCFD75.pdf
https://www.vancebaldwin.com/shop/research_new/SON/CDP215.pdf
https://www.vancebaldwin.com/shop/research_new/SON/CDP550.pdf
https://www.vancebaldwin.com/shop/research_new/SON/CDPC221.pdf
https://www.vancebaldwin.com/shop/research_new/SON/CDPC265.pdf
https://www.vancebaldwin.com/shop/research_new/SON/CDPC305.pdf CDPC35_201_205
https://www.vancebaldwin.com/shop/research_new/SON/CDPCE275.pdf
https://www.vancebaldwin.com/shop/research_new/SON/CDPCE345.pdf
https://www.vancebaldwin.com/shop/research_new/SON/CDPCE375.pdf
https://www.vancebaldwin.com/shop/research_new/SON/CDPCE575.pdf
https://www.vancebaldwin.com/shop/research_new/SON/CDPCX220.pdf
https://www.vancebaldwin.com/shop/research_new/SON/CDPH3750.pdf
https://www.vancebaldwin.com/shop/research_new/SON/CDPM33.pdf
https://www.vancebaldwin.com/shop/research_new/SON/CDPM333ES.pdf
https://www.vancebaldwin.com/shop/research_new/SON/CDX1300.pdf
https://www.vancebaldwin.com/shop/research_new/SON/CDX51.pdf
https://www.vancebaldwin.com/shop/research_new/SON/CDX530RF.pdf
https://www.vancebaldwin.com/shop/research_new/SON/CDX5070.pdf
https://www.vancebaldwin.com/shop/research_new/SON/CDX5460.pdf

https://www.vancebaldwin.com/shop/research_new/SON/CDX3160.pdf
https://www.vancebaldwin.com/shop/research_new/SON/CDXA35RF.pdf
https://www.vancebaldwin.com/shop/research_new/SON/CDX5490.pdf
https://www.vancebaldwin.com/shop/research_new/SON/CDXC5005.pdf
https://www.vancebaldwin.com/shop/research_new/SON/CDXC660.pdf
https://www.vancebaldwin.com/shop/research_new/SON/CDXCA400.pdf
https://www.vancebaldwin.com/shop/research_new/SON/CDXCA700.pdf
https://www.vancebaldwin.com/shop/research_new/SON/CDXCA810X.pdf
https://www.vancebaldwin.com/shop/research_new/SON/CDXCA900X.pdf
https://www.vancebaldwin.com/shop/research_new/SON/CDXL300.pdf CDX-L460X
https://www.vancebaldwin.com/shop/research_new/son/CDXL350.pdf CDX-L360
https://www.vancebaldwin.com/shop/research_new/SON/CDXL410X.pdf
https://www.vancebaldwin.com/shop/research_new/SON/CDXL510X.pdf
https://www.vancebaldwin.com/shop/research_new/SON/CDXL600X.pdf
https://www.vancebaldwin.com/shop/research_new/son/CDXM610.pdf
https://www.vancebaldwin.com/shop/research_new/SON/CDXM730.pdf
https://www.vancebaldwin.com/shop/research_new/son/CDXM750.pdf CDX-M700R
https://www.vancebaldwin.com/shop/research_new/son/CDXMP450X.pdf
https://www.vancebaldwin.com/shop/research_new/SON/CDXR77.pdf
https://www.vancebaldwin.com/shop/research_new/SON/CFD370.pdf
https://www.vancebaldwin.com/shop/research_new/SON/CFD510.pdf
https://www.vancebaldwin.com/shop/research_new/SON/CFD515.pdf
https://www.vancebaldwin.com/shop/research_new/SON/CFD530.pdf
https://www.vancebaldwin.com/shop/research_new/SON/CFD545.pdf
https://www.vancebaldwin.com/shop/research_new/SON/CFD580.pdf
https://www.vancebaldwin.com/shop/research_new/SON/CFD676.pdf
https://www.vancebaldwin.com/shop/research_new/SON/CFD758.pdf
https://www.vancebaldwin.com/shop/research_new/SON/CFD767.pdf
https://www.vancebaldwin.com/shop/research_new/SON/CFDC626S.pdf
https://www.vancebaldwin.com/shop/research_new/SON/CFDE10.pdf

https://www.vancebaldwin.com/shop/research_new/SON/CFDE55TV.pdf
https://www.vancebaldwin.com/shop/research_new/SON/CFDE75L.pdf
https://www.vancebaldwin.com/shop/research_new/SON/CFDG50.pdf
https://www.vancebaldwin.com/shop/research_new/SON/CFDG55.pdf
https://www.vancebaldwin.com/shop/research_new/SON/CFDS38.pdf
https://www.vancebaldwin.com/shop/research_new/SON/CFDZ130.pdf
https://www.vancebaldwin.com/shop/research_new/SON/DE660.pdf
https://www.vancebaldwin.com/shop/research_new/SON/FHB170.pdf
https://www.vancebaldwin.com/shop/research_new/SON/FHB55CD.pdf
https://www.vancebaldwin.com/shop/research_new/SON/FHB70CD.pdf
https://www.vancebaldwin.com/shop/research_new/SON/FHE737CD.pdf
https://www.vancebaldwin.com/shop/research_new/SON/FHE757.pdf
https://www.vancebaldwin.com/shop/research_new/SON/LBTA30.pdf
https://www.vancebaldwin.com/shop/research_new/SON/LBTD117.pdf
https://www.vancebaldwin.com/shop/research_new/SON/LBTD690.pdf
https://www.vancebaldwin.com/shop/research_new/SON/PSJ11.pdf
https://www.vancebaldwin.com/shop/research_new/SON/PSLX285.pdf
https://www.vancebaldwin.com/shop/research_new/SON/PSLX300H.pdf
https://www.vancebaldwin.com/shop/research_new/SON/PSLX56.pdf
https://www.vancebaldwin.com/shop/research_new/SON/SAVA15.pdf
https://www.vancebaldwin.com/shop/research_new/SON/SAVA57.pdf
https://www.vancebaldwin.com/shop/research_new/SON/SAVA59.pdf
https://www.vancebaldwin.com/shop/research_new/SON/DAVC450.pdf
https://www.vancebaldwin.com/shop/research_new/SON/DAVC700.pdf
https://www.vancebaldwin.com/shop/research_new/SON/DAVC770.pdf
https://www.vancebaldwin.com/shop/research_new/SON/DAVS500.pdf
https://www.vancebaldwin.com/shop/research_new/SON/DAVC900.pdf
https://www.vancebaldwin.com/shop/research_new/SON/DAVC990.pdf
https://www.vancebaldwin.com/shop/research_new/SON/DCRTRV250.pdf DCR-trv118/318/
418/dcr-trv150/250/350/351

https://www.vancebaldwin.com/shop/research_new/SON/DCRTRV38.pdf DCR-TRV39
https://www.vancebaldwin.com/shop/research_new/SON/DCRTRV520.pdf DCR-TRV525
https://www.vancebaldwin.com/shop/research_new/SON/DCRTRV620.pdf
https://www.vancebaldwin.com/shop/research_new/SON/DCRTRV900.pdf
https://www.vancebaldwin.com/shop/research_new/son/DCRVX2000.pdf DCR-VX2000E
https://www.vancebaldwin.com/shop/research_new/SON/DNE300.pdf
https://www.vancebaldwin.com/shop/research_new/son/DSRPD100.pdf
https://www.vancebaldwin.com/shop/research_new/SON/DTC55ES.pdf
https://www.vancebaldwin.com/shop/research_new/SON/DTC60ES.pdf
https://www.vancebaldwin.com/shop/research_new/SON/FDL22.pdf
https://www.vancebaldwin.com/shop/research_new/SON/FDLK400.pdf
https://www.vancebaldwin.com/shop/research_new/SON/HVLFSL1.pdf
https://www.vancebaldwin.com/shop/research_new/son/XR2600.PDF XR-2900
https://www.vancebaldwin.com/shop/research_new/son/XR4950X.PDF
https://www.vancebaldwin.com/shop/research_new/SON/XRC5100.pdf
https://www.vancebaldwin.com/shop/research_new/son/WMF2078.PDF
https://www.vancebaldwin.com/shop/research_new/SON/STRAV23.pdf
https://www.vancebaldwin.com/shop/research_new/SON/STRAV570.pdf
https://www.vancebaldwin.com/shop/research_new/SON/STRD2090.pdf
https://www.vancebaldwin.com/shop/research_new/SON/STRD350Z.pdf
https://www.vancebaldwin.com/shop/research_new/SON/STRD460Z.pdf
https://www.vancebaldwin.com/shop/research_new/SON/STRD550Z.pdf
https://www.vancebaldwin.com/shop/research_new/SON/STRD665.pdf
https://www.vancebaldwin.com/shop/research_new/SON/STRD715.pdf
https://www.vancebaldwin.com/shop/research_new/SON/STRD990.pdf
https://www.vancebaldwin.com/shop/research_new/SON/STRDA7ES.pdf
https://www.vancebaldwin.com/shop/research_new/SON/STRDE185.pdf
https://www.vancebaldwin.com/shop/research_new/SON/STRDE310.pdf
https://www.vancebaldwin.com/shop/research_new/SON/STRDE325.pdf
https://www.vancebaldwin.com/shop/research_new/SON/STRDE445.pdf

https://www.vancebaldwin.com/shop/research_new/SON/STRDE335.pdf
https://www.vancebaldwin.com/shop/research_new/SON/STRDE485.pdf
https://www.vancebaldwin.com/shop/research_new/SON/STRDE545.pdf
https://www.vancebaldwin.com/shop/research_new/SON/STRDE595.pdf
https://www.vancebaldwin.com/shop/research_new/SON/STRDE685.pdf
https://www.vancebaldwin.com/shop/research_new/SON/STRDE825.pdf
https://www.vancebaldwin.com/shop/research_new/SON/STRDE925.pdf
https://www.vancebaldwin.com/shop/research_new/SON/STRDE945.pdf
https://www.vancebaldwin.com/shop/research_new/SON/STRG3.pdf
https://www.vancebaldwin.com/shop/research_new/SON/STRGX800ES.pdf
https://www.vancebaldwin.com/shop/research_new/SON/STRK840P.pdf
https://www.vancebaldwin.com/shop/research_new/SON/STRSE391.pdf
https://www.vancebaldwin.com/shop/research_new/SON/STRSE591.pdf
https://www.vancebaldwin.com/shop/research_new/SON/TADL100.pdf
https://www.vancebaldwin.com/shop/research_new/SON/TCH3600.pdf
https://www.vancebaldwin.com/shop/research_new/SON/TCWR531.pdf
https://www.vancebaldwin.com/shop/research_new/SON/DCRPC9.pdf
https://www.vancebaldwin.com/shop/research_new/SON/DCRPC101.pdf
https://www.vancebaldwin.com/shop/research_new/SON/DSCP5.pdf
https://www.vancebaldwin.com/shop/research_new/SON/DSCP50.pdf
https://www.vancebaldwin.com/shop/research_new/SON/DSCS85.pdf DSC-S75
https://www.vancebaldwin.com/shop/research_new/SON/DSCV1.pdf
https://www.vancebaldwin.com/shop/research_new/SON/DVPS330.pdf
https://www.vancebaldwin.com/shop/research_new/SON/DVPS336.pdf
https://www.vancebaldwin.com/shop/research_new/SON/DVPS360.pdf
https://www.vancebaldwin.com/shop/research_new/SON/DVPS533D.pdf
https://www.vancebaldwin.com/shop/research_new/SON/DVPS560D.pdf
https://www.vancebaldwin.com/shop/research_new/SON/DVPS570D.pdf
https://www.vancebaldwin.com/shop/research_new/son/DVPC600.pdf
https://www.vancebaldwin.com/shop/research_new/son/DVPC660.pdf DVPC670D/C675D

https://www.vancebaldwin.com/shop/research_new/SON/DVPC670D.pdf
https://www.vancebaldwin.com/shop/research_new/SON/DVPCX870D.pdf
https://www.vancebaldwin.com/shop/research_new/SON/DVPCX875P.pdf
https://www.vancebaldwin.com/shop/research_new/SON/DVPNC600.pdf
https://www.vancebaldwin.com/shop/research_new/SON/DVPNC615.pdf
https://www.vancebaldwin.com/shop/research_new/SON/DVPNC655P.pdf
https://www.vancebaldwin.com/shop/research_new/SON/DVPNC665P.pdf
https://www.vancebaldwin.com/shop/research_new/SON/DVPNS305.pdf
https://www.vancebaldwin.com/shop/research_new/SON/DVPNS315.pdf
https://www.vancebaldwin.com/shop/research_new/SON/DVPNS400D.pdf
https://www.vancebaldwin.com/shop/research_new/SON/DVPNS715P.pdf
https://www.vancebaldwin.com/shop/research_new/SON/DVPNS755V.pdf
https://www.vancebaldwin.com/shop/research_new/SON/SDMM51.pdf

<< De nada vale tentar ajudar aqueles que no se ajudam a si mesmos!! >>
Pontuao 1 2 3 4 5 (5=Excelente) Editar Mensagem Apagar Mensagem Lock Thread Respon
d to this message
Author Reply
Leandro Palmeira
(Login lpalmeira)
Membro VIP Re: S PARA COMPLEMENTAR OS ESQUEMAS SONY DO VALDENI
Sem pontuao para esta mensagem July 31 2007, 4:22 PM
Etou colocando o link aqui ,no consegui encontrar outras marcas ,mas talvez algue
m consiga !
http://www.elektronline.hu/wwwboard/thread.php?sorszam=11904&reply=3

Pontuao 1 2 3 4 5 (5=Excelente) Editar Mensagem Apagar Mensagem Lock Thread Respon


d to this message
ALEX/RJ
(Login py1lea)
Membro VIP Re: com o complemento do leandro

Sem pontuao para esta mensagem August 1 2007, 10:16 AM


PRA RIBA
Pontuao 1 2 3 4 5 (5=Excelente) Editar Mensagem Apagar Mensagem Lock Thread Respon
d to this message
valdeni
(Login valdeni)
Membro VIP philco-TPF2130-TF2140TP14102010TV1423
Sem pontuao para esta mensagem August 1 2007, 1:34 PM
http://www.4shared.com/file/21125172/93676397/TPF-2130-chassis_cp-03_uoc-esquema
.html

http://ube-164.pop.com.br/verPagina.php?pid=2708
Pontuao 1 2 3 4 5 (5=Excelente) Editar Mensagem Apagar Mensagem Lock Thread Respon
d to this message
sergio
(Login hi-techeletronica)
Membro VIP Re: CAMINHO DAS PEDRAS II REORGANIZADO PELO SERGIO VAZ
Sem pontuao para esta mensagem August 1 2007, 9:02 PM
para esquerda....
Pontuao 1 2 3 4 5 (5=Excelente) Editar Mensagem Apagar Mensagem Lock Thread Respon
d to this message
martinho
(Login martins62)
Membro VIP Re: CAMINHO DAS PEDRAS II REORGANIZADO PELO SERGIO VAZ
Sem pontuao para esta mensagem August 1 2007, 9:48 PM
AIWA VX-S130
http://www.4shared.com/file/20424338/5a5c6681/09-995-325-1O1.html
AIWA VX-T1470
http://www.4shared.com/file/20425236/49a46d4/09-994-325-0O1.html
Pontuao 1 2 3 4 5 (5=Excelente) Editar Mensagem Apagar Mensagem Lock Thread Respon
d to this message

sergio vaz
(Login hi-techeletronica)
Membro VIP Re: CAMINHO DAS PEDRAS II REORGANIZADO PELO SERGIO VAZ
Sem pontuao para esta mensagem August 1 2007, 9:53 PM
esquema super nitendo
http://www.2shared.com/file/2111668/aefbe078/s_nitendo.html
Dados de eeprom para autordios
http://www.electronicsrepair.net/eprom/caraudio.shtml
Pontuao 1 2 3 4 5 (5=Excelente) Editar Mensagem Apagar Mensagem Lock Thread Respon
d to this message
sergio
(Login hi-techeletronica)
Membro VIP KV 2170 B
Sem pontuao para esta mensagem August 2 2007, 1:24 PM
KV 2170 B
http://www.2shared.com/file/2113645/487536cc/KV2170.html
Pontuao 1 2 3 4 5 (5=Excelente) Editar Mensagem Apagar Mensagem Lock Thread Respon
d to this message
sergio
(Login hi-techeletronica)
Membro VIP Re: CAMINHO DAS PEDRAS II REORGANIZADO PELO SERGIO VAZ
Sem pontuao para esta mensagem August 2 2007, 9:41 PM
Aiwa_CX-ZVR99LH
http://www.4shared.com/file/21201598/990eb942/Aiwa_CX-ZVR99LH.html
senha - teresina
Pontuao 1 2 3 4 5 (5=Excelente) Editar Mensagem Apagar Mensagem Lock Thread Respon
d to this message
pereira
(Login pereirafraga)
Membro VIP Re: CAMINHO DAS PEDRAS II REORGANIZADO PELO SERGIO VAZ
Sem pontuao para esta mensagem August 2 2007, 11:37 PM
http://www.4shared.com/file/21197140/8b9da8e2/HPS_2095.html
Pontuao 1 2 3 4 5 (5=Excelente) Editar Mensagem Apagar Mensagem Lock Thread Respon
d to this message

valdeni
(Login valdeni)
Membro VIP MONITOR LG 561A-CHASSIS CA68
Sem pontuao para esta mensagem August 3 2007, 12:09 AM
http://www.4shared.com/file/21248820/f47192a2/lg_561A-chassis_CA68.html

http://ube-164.pop.com.br/verPagina.php?pid=2708
Pontuao 1 2 3 4 5 (5=Excelente) Editar Mensagem Apagar Mensagem Lock Thread Respon
d to this message
ALAIN/df
(Login alainsomeimagem)
Conselheiro pioneer DHE-2800MP e 2850
Sem pontuao para esta mensagem August 3 2007, 1:10 PM
http://www.4shared.com/file/14859821/7b86e7c3/PIONEER_DEH-2800MP_DEH-2850MP.html
Pontuao 1 2 3 4 5 (5=Excelente) Editar Mensagem Apagar Mensagem Lock Thread Respon
d to this message
valdeni
(Login valdeni)
Membro VIP sony-kv-35v35/35v45/35v75
Sem pontuao para esta mensagem August 3 2007, 2:49 PM
http://www.4shared.com/file/21283891/727311ff/KV-35V35-35v45-35v75.html

http://ube-164.pop.com.br/verPagina.php?pid=2708
Pontuao 1 2 3 4 5 (5=Excelente) Editar Mensagem Apagar Mensagem Lock Thread Respon
d to this message
ALAIN/df
(Login alainsomeimagem)
Conselheiro kv2162
Sem pontuao para esta mensagem August 3 2007, 7:24 PM

http://www.4shared.com/file/8054652/c87180bc/sony-KV-1441B-2158B-2162B-2162S_e_2
163S.html
Pontuao 1 2 3 4 5 (5=Excelente) Editar Mensagem Apagar Mensagem Lock Thread Respon
d to this message
martinho
(Login martins62)
Membro VIP Re: CAMINHO DAS PEDRAS II REORGANIZADO PELO SERGIO VAZ
Sem pontuao para esta mensagem August 3 2007, 9:29 PM
AIWA VX-T147
http://www.4shared.com/file/20423349/ffcdf869/09-995-325-2O1.html
AIWA VX-G142
http://www.4shared.com/file/20422031/4ad3fa0/09-995-325-3O1.html
Pontuao 1 2 3 4 5 (5=Excelente) Editar Mensagem Apagar Mensagem Lock Thread Respon
d to this message
sergio
(Login hi-techeletronica)
Membro VIP Re: CAMINHO DAS PEDRAS II REORGANIZADO PELO SERGIO VAZ
Sem pontuao para esta mensagem August 3 2007, 9:32 PM
Eletromaster2000 Para quem no tem o vtrdisk
http://www.4shared.com/file/18130099/8a5d6614/Eletromaster2000_Substituto_de_Tra
nsistores.html
sony-KV-1441B-2158B-2162B-2162S_e_2163S
http://www.4shared.com/file/8054652/c87180bc/sony-KV-1441B-2158B-2162B-2162S_e_2
163S.html
Pontuao 1 2 3 4 5 (5=Excelente) Editar Mensagem Apagar Mensagem Lock Thread Respon
d to this message
sergio
(Login hi-techeletronica)
Membro VIP Re: CAMINHO DAS PEDRAS II REORGANIZADO PELO SERGIO VAZ
Sem pontuao para esta mensagem August 3 2007, 9:57 PM
Recep.Tecsat T3200 puro
http://www.4shared.com/file/21287953/be68c2bf/T-3200SPlus.html
a senha v i p
Pontuao 1 2 3 4 5 (5=Excelente) Editar Mensagem Apagar Mensagem Lock Thread Respon
d to this message

Amarildo
(Login atual21)
Membro VIP RP- 21FE85G manual de servio MC-059A
Sem pontuao para esta mensagem August 3 2007, 10:52 PM
http://www.4shared.com/file/21309761/6a26320d/RP-21FE85G.html
Pontuao 1 2 3 4 5 (5=Excelente) Editar Mensagem Apagar Mensagem Lock Thread Respon
d to this message
Amarildo
(Login atual21)
Membro VIP RP-29FE08 CW52A
Sem pontuao para esta mensagem August 3 2007, 11:06 PM
http://www.4shared.com/file/21310488/cf577f44/RP_29FE08_CW52A.html
Pontuao 1 2 3 4 5 (5=Excelente) Editar Mensagem Apagar Mensagem Lock Thread Respon
d to this message
ALAIN/df
(Login alainsomeimagem)
Conselheiro cignus AC500
Sem pontuao para esta mensagem August 4 2007, 12:35 PM
http://www.4shared.com/file/21314890/5eefa804/Cygnus_-_Pr_Power_Integrado_-_AC50
0_-_Esquema_Eletrnico.html
Pontuao 1 2 3 4 5 (5=Excelente) Editar Mensagem Apagar Mensagem Lock Thread Respon
d to this message
ALAIN/DF
(Login alainsomeimagem)
Conselheiro curso de plasma
Sem pontuao para esta mensagem August 4 2007, 9:53 PM
http://www.2shared.com/file/2123994/c62045fa/PLT_30_plasma.html
Pontuao 1 2 3 4 5 (5=Excelente) Editar Mensagem Apagar Mensagem Lock Thread Respon
d to this message
ALAIN/DF
(Login alainsomeimagem)
Conselheiro curso postado pelo gorje
Sem pontuao para esta mensagem August 4 2007, 9:55 PM
curso de plasma
August 4 2007 at 6:57 PM

Sem pontuao para esta mensagem


hidrowest, ,,, jorge luis (Login hidrowest)
Membro VIP
-------------------------------------------------------------------------------http://www.4shared.com/file/14865657/da4c3c53/CURSO_DE_TV_PLASMA_part11_II.html
http://www.4shared.com/file/14865987/64be0523/CURSO_DE_TV_PLASMA_part_I.html
http://www.4shared.com/file/14866248/465417b1/CURSO_DE_TV_PLASMA_part_III.html
http://www.4shared.com/file/14866439/7a9fcd52/CURSO_DE_TV_PLASMA_part_IV.html
http://www.4shared.com/file/16437955/bdaa8ceb/DLP--_digital_light_processing_TRA
INING_MEXICO.html
http://www.4shared.com/file/16183632/d6b7ce06/LCD_Troubleshooting.html

Pontuao 1 2 3 4 5 (5=Excelente) Editar Mensagem Apagar Mensagem Lock Thread Respon


d to this message
ALAIN/DF
(Login alainsomeimagem)
Conselheiro curso plasma LC04
Sem pontuao para esta mensagem August 4 2007, 10:06 PM
http://www.2shared.com/file/2117008/d9476490/CURSO_LC04.html
Pontuao 1 2 3 4 5 (5=Excelente) Editar Mensagem Apagar Mensagem Lock Thread Respon
d to this message
v.santarem
(Login v.santarem)
Conselheiro DELL crt esquemas monitor varios
Sem pontuao para esta mensagem August 5 2007, 12:06 PM
http://www.4shared.com/file/21397320/938b7a01/Dell_992B.html
http://www.4shared.com/file/21397340/c5d1dd87/Dell_D1025TM.html
http://www.4shared.com/file/21397450/d985fa43/Dell_D3107N.html
http://www.4shared.com/file/21397333/13991afa/Dell_D825TM.html
http://www.4shared.com/file/21397841/be8302f0/Dell_P1130.html
http://www.4shared.com/file/21397630/8c5b89ab/Dell_P990_Chassis_D98.html
http://www.4shared.com/file/21397811/c3f4f6b5/Dell_P991.html

abrao de portugal
Pontuao 1 2 3 4 5 (5=Excelente) Editar Mensagem Apagar Mensagem Lock Thread Respon
d to this message
martinho
(Login martins62)
Membro VIP Re: CAMINHO DAS PEDRAS II REORGANIZADO PELO SERGIO VAZ
Sem pontuao para esta mensagem August 5 2007, 7:37 PM
KV- 29T76
http://www.4shared.com/file/21423068/1ecd1f90/KV-_29T76.html
CPD-110ES
http://www.4shared.com/file/21423626/99948b21/CPD-110ES.html
Pontuao 1 2 3 4 5 (5=Excelente) Editar Mensagem Apagar Mensagem Lock Thread Respon
d to this message
ALAIN/DF
(Login alainsomeimagem)
Conselheiro 29gx1898 vamos aprender um pouco dela
Sem pontuao para esta mensagem August 5 2007, 10:16 PM
29gx1898 vamos aprender um pouco dela
August 5 2007 at 9:03 PM
Sem pontuao para esta mensagem
ALAIN/DF (Login alainsomeimagem)
do endereo IP 200.96.166.98
-------------------------------------------------------------------------------29gx1898 vamos aprender um pouco dela
Sem pontuao para esta mensagem August 5 2007, 9:59 PM
APAGANDO INTERMITENTE
- Tela escurece a cada 10 seg. aprox. ver linha do capacitor 2456 aberta.
COM FAIXA ESCURA NO CENTRO (I).
- Substituir TDA 8361 para mascara N4, executar INF 06CT94-18 para o GR1-L1.
COMANDO ATUA SO COM A TECLA PRESSIONADA DIRETO.
- ON, Verificar capacitor 2624 com fuga.
CONTRASTE DEFICIENTE
- Verificar resistor 3460 e capacitor 2462.
CONTRASTE INTERMITENTE
- Verificar resistor 3460 e capacitor 2462.
DANIFICA SEMICONDUTOR IC OU TS
- Integrado vertical 7400, verificar resistor 3511 (24K) alterado, na fonte.
- 7400, verificar modulo da fonte.
- 7445, cinescpio ionizado.
DESLIGA INTER. OU PROTEGE (REW 3 P/ VCR).
- Verificar na fonte diodo 6446 com fuga.
FAIXA ESCURA DO LADO ESQUERDO (I ).
- Verificar capacitor 2456 (47pF) aberto.

IMAGEM SERRILHADA.
- Verificar diodo 6526 aberto.
INDICA ERRO (ER..).
- ER14, resistor 3452 aberto.
LARGURA DEFICIENTE
- Resistor 3427 aberto.
- Verificar capacitor 2456 (47pF) aberto.
- Verificar transistor 7480 (BD136) e 7481 (BC548).
LED(S) PISCANDO. (REPETITIVAMENTE)
- Pisca 6X = verificar modulo fonte.
LINHA FINA NO CENTRO (HORIZONTAL).
- Verificar regulador 7218.
LINHAS DESLOCANDO NA TELA (VERTICAIS).
- Inf. PSC substituir capacitor 2456 para 82pF.
LINHAS FINAS VERTICAIS.
- Verificar capacitor 2456, caso seja de 47pF alter-lo entre valores de 56 a 82pF
.
NO ACEITA COMANDO DO REMOTO
- Verificar resistor 3456 aberto.
NO APARECE CARACTERES / MENU.
- Verificar resistor 3456 aberto.
- Verificar capacitor 2456 (47pF) aberto.
NO FUNCIONA (FICA COMO DESLIGADO).
- Verificar 5445 (flyback).
- Verificar resistor 3444 aberto.
- Verificar 7218 (TDA7808) aberto.
- Verificar modulo de controle fonte.
- Verificar 5441.
NO FUNCIONA EM UDIO E VIDEO
- Integrado 7225 (TDA8361).
NO TEM CORES
- Verificar pino 17 e 18 do micro, possvel com solda entre os dois terminais.
- Verificar capacitor 2456 (47pF) aberto.
SEM LARGURA (SEM DEFLEXAO HOR) RISCO VERT.
- Cabo M5 com mau contato.
SEM SINCRONISMO HORIZONTAL.
- Verificar chaveamento dos cristais, resistor 3697 aberto.
- Verificar se em dos transistores dos cristais 3, 57. esteja conduzindo, caso no
, verificar tabela de programao e o micro.
SEM SINTONIA = CANAL/ESTACAO SO RUIDO/MUTE.
- Verificar resistor 3010 aberto.
- Verificar resistor 3452 aberto.
SEM SOM. (COM OU SEM IMAGEM P/ TV, VCR, DVD).
- Verificar resistor 3900 aberto.
- Verificar diodo 6801 curto.
SEM TENSAO (VO, +B, HVT, ETC).
- Verificar possvel fuga no diodo 6511.
SO SINTONIZA CANAL 2.
- Verificar resistor 3648 aberto.
SOM INTERMITENTE (FALHAS, SOLUOS) OU FICA SEM SOM.
- Verificar transistor 7269.
TELA AMARELA (SEM AZUL)
- Verificar 7225.
TELA ESCURA - SEM IMAGEM OU ATIVO PROGRESSIVO
- Resistor 3456 aberto.
- R 3652 aberto ou alterado.
- Apresenta DOS, volume no varia. Desligar PLUG A13 (na placa IN, PANEL), caso ap
area imagem, verifique o soquete RCA do GHOST CANCELATION deve estar aberto entre
pino 3 e 4.

Pontuao 1 2 3 4 5 (5=Excelente) Editar Mensagem Apagar Mensagem Lock Thread Respon


d to this message
ALAIN/DF
(Login alainsomeimagem)
Conselheiro manuis de som sharp
Sem pontuao para esta mensagem August 5 2007, 10:17 PM
http://www.4shared.com/dir/2449077/49be9392/Sharp.html
Pontuao 1 2 3 4 5 (5=Excelente) Editar Mensagem Apagar Mensagem Lock Thread Respon
d to this message
ALAIN/DF
(Login alainsomeimagem)
Conselheiro eletrolux
Sem pontuao para esta mensagem August 5 2007, 10:36 PM
http://helioaraujo.4shared.com/
Pontuao 1 2 3 4 5 (5=Excelente) Editar Mensagem Apagar Mensagem Lock Thread Respon
d to this message
ALAIN/df
(Login alainsomeimagem)
Conselheiro CINERAL TC1433N
Sem pontuao para esta mensagem August 6 2007, 10:39 AM
http://www.4shared.com/file/20013307/a02828ac/TC1433N.html
Pontuao 1 2 3 4 5 (5=Excelente) Editar Mensagem Apagar Mensagem Lock Thread Respon
d to this message
ALAIN/df
(Login alainsomeimagem)
Conselheiro philips LCD 42PFL7312.P
Sem pontuao para esta mensagem August 6 2007, 10:50 AM
http://www.bestsharing.com/f/3KHDlx314832
Pontuao 1 2 3 4 5 (5=Excelente) Editar Mensagem Apagar Mensagem Lock Thread Respon

d to this message
valdeni
(Login valdeni)
Membro VIP semp toshiba-tvc-102cr chassis univ lll
Sem pontuao para esta mensagem August 6 2007, 1:09 PM
http://www.4shared.com/file/21470299/3783c739/TVC-102_Cr__Univ_III.html

http://ube-164.pop.com.br/verPagina.php?pid=2708
Pontuao 1 2 3 4 5 (5=Excelente) Editar Mensagem Apagar Mensagem Lock Thread Respon
d to this message
ALAIN/df
(Login alainsomeimagem)
Conselheiro circular defeitos de dvd toshiba
Sem pontuao para esta mensagem August 6 2007, 1:38 PM
http://www.2shared.com/file/2129310/6bbe6e59/Defeitos_DVD_Toshiba.html
Pontuao 1 2 3 4 5 (5=Excelente) Editar Mensagem Apagar Mensagem Lock Thread Respon
d to this message
ALAIN/df
(Login alainsomeimagem)
Conselheiro tabela smd password teresina
Sem pontuao para esta mensagem August 6 2007, 7:02 PM
http://www.4shared.com/file/21479456/720ca69c/surface_mount_device_code_book.htm
l
Pontuao 1 2 3 4 5 (5=Excelente) Editar Mensagem Apagar Mensagem Lock Thread Respon
d to this message
ALAIN/DF
(Login alainsomeimagem)
Conselheiro lg 29fe80
Sem pontuao para esta mensagem August 6 2007, 11:57 PM
http://www.bestsharing.com/f/9oL8u315264

Pontuao 1 2 3 4 5 (5=Excelente) Editar Mensagem Apagar Mensagem Lock Thread Respon


d to this message
valdeni
(Login valdeni)
Membro VIP MODIFICAO SELETOR TV SEMP,CHASSIS UNIV 5
Sem pontuao para esta mensagem August 7 2007, 2:30 AM
(CHASSIS UNIV 5) TV-1480E-2080E-2080M, usa o (EL463LX1).ou (ENV568L7G3)
ENTO PODE USAR ESTE, S Q ESTE MENR,POR ISTO COLOCAR DE CABEA P BAIXO HEHE,J FIZ ISTO
E FUNCIONOU MUITO BEM!

http://ube-164.pop.com.br/verPagina.php?pid=2708
Pontuao 1 2 3 4 5 (5=Excelente) Editar Mensagem Apagar Mensagem Lock Thread Respon
d to this message
ALAIN/df
(Login alainsomeimagem)
Conselheiro treinamento narrado sony BA6
Sem pontuao para esta mensagem August 7 2007, 12:24 PM
http://www.4shared.com/file/21534200/2e2326e6/Treinamento_Narrado.html
Pontuao 1 2 3 4 5 (5=Excelente) Editar Mensagem Apagar Mensagem Lock Thread Respon
d to this message
ALAIN/df
(Login alainsomeimagem)
Conselheiro treinamento prtico sony BA6
Sem pontuao para esta mensagem August 7 2007, 12:29 PM
http://www.4shared.com/file/21269769/20e19c3a/Treinamento_na_prtica_Yv_Sony_Chas
sis_BA-6.html
Pontuao 1 2 3 4 5 (5=Excelente) Editar Mensagem Apagar Mensagem Lock Thread Respon
d to this message
ALAIN/df
(Login alainsomeimagem)
Conselheiro treinamento sony BA6

Sem pontuao para esta mensagem August 7 2007, 12:30 PM


http://www.4shared.com/file/21192591/79e3bed7/Treinamento_TV__Sony__Chassi__BA-6
_.html
Pontuao 1 2 3 4 5 (5=Excelente) Editar Mensagem Apagar Mensagem Lock Thread Respon
d to this message
ALAIN/df
(Login alainsomeimagem)
Conselheiro philips FR996
Sem pontuao para esta mensagem August 7 2007, 12:51 PM
http://www.4shared.com/file/21539064/8efa49ca/FR996.html
Pontuao 1 2 3 4 5 (5=Excelente) Editar Mensagem Apagar Mensagem Lock Thread Respon
d to this message
ALAIN/df
(Login alainsomeimagem)
Conselheiro audio sony
Sem pontuao para esta mensagem August 7 2007, 1:07 PM
ESQUEMAS UDIO SONY
August 7 2007 at 12:53 PM
Sem pontuao para esta mensagem
Leandro Palmeira (Login lpalmeira)
Conselheiro
-------------------------------------------------------------------------------https://www.vancebaldwin.com/shop/research_new/SON/CPD420GS.pdf chassis D-98
https://www.vancebaldwin.com/shop/research_new/SON/CPDG500.pdf chassis G-1
https://www.vancebaldwin.com/shop/research_new/SON/CCDFX520.pdf
https://www.vancebaldwin.com/shop/research_new/SON/CCDFX530.pdf
https://www.vancebaldwin.com/shop/research_new/son/CCDTRV65.pdf ccdtrv15_25_35_6
5_85_93_215_615_815
https://www.vancebaldwin.com/shop/research_new/SON/GVA500E.pdf
https://www.vancebaldwin.com/shop/research_new/SON/GVD1000.pdf
https://www.vancebaldwin.com/shop/research_new/SON/GVS50.pdf
https://www.vancebaldwin.com/shop/research_new/SON/HCDGX8800.pdf
https://www.vancebaldwin.com/shop/research_new/son/HCDGX90D.PDF RV-800D
https://www.vancebaldwin.com/shop/research_new/son/HCDC450.PDF
https://www.vancebaldwin.com/shop/research_new/SON/HCDC700.pdf HCD-C900
https://www.vancebaldwin.com/shop/research_new/SON/HCDC770.pdf https://www.vance
baldwin.com/shop/https://www.vancebaldwin.com/shop/research_new/son/HCDC990.PDF
HCD-C770
https://www.vancebaldwin.com/shop/research_new/SON/HCDC900.pdf HCD-C700
https://www.vancebaldwin.com/shop/research_new/son/HCDD250.PDF HCD-A195/D250/G20
00
https://www.vancebaldwin.com/shop/research_new/son/HCDD990.PDF
https://www.vancebaldwin.com/shop/research_new/SON/HCDED1.pdf

https://www.vancebaldwin.com/shop/research_new/SON/HCDEP707.pdf
https://www.vancebaldwin.com/shop/research_new/SON/HCDF150.pdf HCD-FR10
https://www.vancebaldwin.com/shop/research_new/SON/HCDH300.pdf
https://www.vancebaldwin.com/shop/research_new/SON/HCDH51M.pdf
https://www.vancebaldwin.com/shop/research_new/son/HCDH991AV.PDF
https://www.vancebaldwin.com/shop/research_new/SON/HCDMC1.pdf
https://www.vancebaldwin.com/shop/research_new/SON/HCDMD5.pdf
https://www.vancebaldwin.com/shop/research_new/son/HCDMG510AV.PDF
https://www.vancebaldwin.com/shop/research_new/son/HCDRXD3.PDF
https://www.vancebaldwin.com/shop/research_new/SON/HCDRXD5.pdf
https://www.vancebaldwin.com/shop/research_new/son/HCDRXD7AV.PDF
https://www.vancebaldwin.com/shop/research_new/son/HCDS300.PDF
https://www.vancebaldwin.com/shop/research_new/son/HCDS500.PDF
https://www.vancebaldwin.com/shop/research_new/SON/HCDS3000.pdf
https://www.vancebaldwin.com/shop/research_new/SON/HCDXG500.pdf HCD-XG60
https://www.vancebaldwin.com/shop/research_new/son/HCDXGR6.PDF
https://www.vancebaldwin.com/shop/research_new/son/HCDXGR60.PDF
https://www.vancebaldwin.com/shop/research_new/SON/HDCS300.pdf
https://www.vancebaldwin.com/shop/research_new/SON/HTC800DP.pdf
https://www.vancebaldwin.com/shop/research_new/SON/HTCD159.pdf
https://www.vancebaldwin.com/shop/research_new/SON/HTDDW740.pdf
https://www.vancebaldwin.com/shop/research_new/SON/MHC2600.pdf
https://www.vancebaldwin.com/shop/research_new/SON/MHC3600.pdf
https://www.vancebaldwin.com/shop/research_new/son/MHCDP1000.PDF
https://www.vancebaldwin.com/shop/research_new/son/MHCDP1000D.PDF
https://www.vancebaldwin.com/shop/research_new/SON/MHCG33.pdf
https://www.vancebaldwin.com/shop/research_new/SON/MHCGS200.pdf
https://www.vancebaldwin.com/shop/research_new/son/MHCGX8000.PDF RG66T/RG77
https://www.vancebaldwin.com/shop/research_new/son/MHCGX8800.PDF
https://www.vancebaldwin.com/shop/research_new/son/MHCGX90D.PDF RV600-900
https://www.vancebaldwin.com/shop/research_new/SON/MHCM300AV.pdf
https://www.vancebaldwin.com/shop/research_new/SON/MHCMC3AV.pdf
https://www.vancebaldwin.com/shop/research_new/SON/MHCMG110.pdf
https://www.vancebaldwin.com/shop/research_new/SON/MHCMG510A.pdf
https://www.vancebaldwin.com/shop/research_new/SON/MHCMG510AV.pdf
https://www.vancebaldwin.com/shop/research_new/SON/MHCRXD3.pdf
https://www.vancebaldwin.com/shop/research_new/SON/MHCZX70DVD.pdf
https://www.vancebaldwin.com/shop/research_new/SON/MVCCD20.pdf
https://www.vancebaldwin.com/shop/research_new/SON/MVCCD400.pdf
https://www.vancebaldwin.com/shop/research_new/SON/MVCFD100.pdf
https://www.vancebaldwin.com/shop/research_new/SON/MVCFD71.pdf
https://www.vancebaldwin.com/shop/research_new/SON/MVCFD73.pdf
https://www.vancebaldwin.com/shop/research_new/SON/MVCFD75.pdf
https://www.vancebaldwin.com/shop/research_new/SON/CDP215.pdf
https://www.vancebaldwin.com/shop/research_new/SON/CDP550.pdf
https://www.vancebaldwin.com/shop/research_new/SON/CDPC221.pdf
https://www.vancebaldwin.com/shop/research_new/SON/CDPC265.pdf
https://www.vancebaldwin.com/shop/research_new/SON/CDPC305.pdf CDPC35_201_205
https://www.vancebaldwin.com/shop/research_new/SON/CDPCE275.pdf
https://www.vancebaldwin.com/shop/research_new/SON/CDPCE345.pdf
https://www.vancebaldwin.com/shop/research_new/SON/CDPCE375.pdf
https://www.vancebaldwin.com/shop/research_new/SON/CDPCE575.pdf
https://www.vancebaldwin.com/shop/research_new/SON/CDPCX220.pdf
https://www.vancebaldwin.com/shop/research_new/SON/CDPH3750.pdf
https://www.vancebaldwin.com/shop/research_new/SON/CDPM33.pdf
https://www.vancebaldwin.com/shop/research_new/SON/CDPM333ES.pdf
https://www.vancebaldwin.com/shop/research_new/SON/CDX1300.pdf
https://www.vancebaldwin.com/shop/research_new/SON/CDX51.pdf
https://www.vancebaldwin.com/shop/research_new/SON/CDX530RF.pdf
https://www.vancebaldwin.com/shop/research_new/SON/CDX5070.pdf

https://www.vancebaldwin.com/shop/research_new/SON/CDXA35RF.pdf
https://www.vancebaldwin.com/shop/research_new/SON/CDX5490.pdf
https://www.vancebaldwin.com/shop/research_new/SON/CDXC5005.pdf
https://www.vancebaldwin.com/shop/research_new/SON/CDXC660.pdf
https://www.vancebaldwin.com/shop/research_new/SON/CDXCA700.pdf
https://www.vancebaldwin.com/shop/research_new/SON/CDXCA810X.pdf
https://www.vancebaldwin.com/shop/research_new/SON/CDXCA900X.pdf
https://www.vancebaldwin.com/shop/research_new/SON/CDXL300.pdf CDX-L460X
https://www.vancebaldwin.com/shop/research_new/son/CDXL350.pdf CDX-L360
https://www.vancebaldwin.com/shop/research_new/SON/CDXL410X.pdf
https://www.vancebaldwin.com/shop/research_new/SON/CDXL510X.pdf
https://www.vancebaldwin.com/shop/research_new/SON/CDXL600X.pdf
https://www.vancebaldwin.com/shop/research_new/son/CDXM610.pdf
https://www.vancebaldwin.com/shop/research_new/SON/CDXM730.pdf
https://www.vancebaldwin.com/shop/research_new/son/CDXM750.pdf CDX-M700R
https://www.vancebaldwin.com/shop/research_new/son/CDXMP450X.pdf
https://www.vancebaldwin.com/shop/research_new/SON/CDXR77.pdf
https://www.vancebaldwin.com/shop/research_new/SON/CFD370.pdf
https://www.vancebaldwin.com/shop/research_new/SON/CFD510.pdf
https://www.vancebaldwin.com/shop/research_new/SON/CFD515.pdf
https://www.vancebaldwin.com/shop/research_new/SON/CFD530.pdf
https://www.vancebaldwin.com/shop/research_new/SON/CFD545.pdf
https://www.vancebaldwin.com/shop/research_new/SON/CFD580.pdf
https://www.vancebaldwin.com/shop/research_new/SON/CFD676.pdf
https://www.vancebaldwin.com/shop/research_new/SON/CFD758.pdf
https://www.vancebaldwin.com/shop/research_new/SON/CFD767.pdf
https://www.vancebaldwin.com/shop/research_new/SON/CFDC626S.pdf
https://www.vancebaldwin.com/shop/research_new/SON/CFDE10.pdf
https://www.vancebaldwin.com/shop/research_new/SON/CFDE55TV.pdf
https://www.vancebaldwin.com/shop/research_new/SON/CFDE75L.pdf
https://www.vancebaldwin.com/shop/research_new/SON/CFDG50.pdf
https://www.vancebaldwin.com/shop/research_new/SON/CFDG55.pdf
https://www.vancebaldwin.com/shop/research_new/SON/CFDS38.pdf
https://www.vancebaldwin.com/shop/research_new/SON/CFDZ130.pdf
https://www.vancebaldwin.com/shop/research_new/SON/DE660.pdf
https://www.vancebaldwin.com/shop/research_new/SON/FHB170.pdf
https://www.vancebaldwin.com/shop/research_new/SON/FHB55CD.pdf
https://www.vancebaldwin.com/shop/research_new/SON/FHB70CD.pdf
https://www.vancebaldwin.com/shop/research_new/SON/FHE737CD.pdf
https://www.vancebaldwin.com/shop/research_new/SON/FHE757.pdf
https://www.vancebaldwin.com/shop/research_new/SON/LBTA30.pdf
https://www.vancebaldwin.com/shop/research_new/SON/LBTD117.pdf
https://www.vancebaldwin.com/shop/research_new/SON/LBTD690.pdf
https://www.vancebaldwin.com/shop/research_new/SON/PSJ11.pdf
https://www.vancebaldwin.com/shop/research_new/SON/PSLX285.pdf
https://www.vancebaldwin.com/shop/research_new/SON/PSLX300H.pdf
https://www.vancebaldwin.com/shop/research_new/SON/PSLX56.pdf
https://www.vancebaldwin.com/shop/research_new/SON/SAVA15.pdf
https://www.vancebaldwin.com/shop/research_new/SON/SAVA57.pdf
https://www.vancebaldwin.com/shop/research_new/SON/SAVA59.pdf
https://www.vancebaldwin.com/shop/research_new/SON/DAVC450.pdf
https://www.vancebaldwin.com/shop/research_new/SON/DAVC700.pdf
https://www.vancebaldwin.com/shop/research_new/SON/DAVC770.pdf
https://www.vancebaldwin.com/shop/research_new/SON/DAVS500.pdf
https://www.vancebaldwin.com/shop/research_new/SON/DAVC900.pdf
https://www.vancebaldwin.com/shop/research_new/SON/DAVC990.pdf
https://www.vancebaldwin.com/shop/research_new/SON/DCRTRV250.pdf
https://www.vancebaldwin.com/shop/research_new/SON/DCRTRV38.pdf DCR-TRV39
https://www.vancebaldwin.com/shop/research_new/SON/DCRTRV520.pdf DCR-TRV525

https://www.vancebaldwin.com/shop/research_new/SON/DCRTRV620.pdf
https://www.vancebaldwin.com/shop/research_new/son/DCRVX2000.pdf DCR-VX2000E
https://www.vancebaldwin.com/shop/research_new/SON/DNE300.pdf
https://www.vancebaldwin.com/shop/research_new/son/DSRPD100.pdf
https://www.vancebaldwin.com/shop/research_new/SON/DTC55ES.pdf
https://www.vancebaldwin.com/shop/research_new/SON/DTC60ES.pdf
https://www.vancebaldwin.com/shop/research_new/SON/FDL22.pdf
https://www.vancebaldwin.com/shop/research_new/SON/FDLK400.pdf
https://www.vancebaldwin.com/shop/research_new/SON/HVLFSL1.pdf
https://www.vancebaldwin.com/shop/research_new/son/XR2600.PDF XR-2900
https://www.vancebaldwin.com/shop/research_new/son/XR4950X.PDF
https://www.vancebaldwin.com/shop/research_new/SON/XRC5100.pdf
https://www.vancebaldwin.com/shop/research_new/son/WMF2078.PDF
https://www.vancebaldwin.com/shop/research_new/SON/STRAV23.pdf
https://www.vancebaldwin.com/shop/research_new/SON/STRAV570.pdf
https://www.vancebaldwin.com/shop/research_new/SON/STRD2090.pdf
https://www.vancebaldwin.com/shop/research_new/SON/STRD350Z.pdf
https://www.vancebaldwin.com/shop/research_new/SON/STRD460Z.pdf
https://www.vancebaldwin.com/shop/research_new/SON/STRD550Z.pdf
https://www.vancebaldwin.com/shop/research_new/SON/STRD665.pdf
https://www.vancebaldwin.com/shop/research_new/SON/STRD715.pdf
https://www.vancebaldwin.com/shop/research_new/SON/STRD990.pdf
https://www.vancebaldwin.com/shop/research_new/SON/STRDA7ES.pdf
https://www.vancebaldwin.com/shop/research_new/SON/STRDE185.pdf
https://www.vancebaldwin.com/shop/research_new/SON/STRDE310.pdf
https://www.vancebaldwin.com/shop/research_new/SON/STRDE325.pdf
https://www.vancebaldwin.com/shop/research_new/SON/STRDE445.pdf
https://www.vancebaldwin.com/shop/research_new/SON/STRDE335.pdf
https://www.vancebaldwin.com/shop/research_new/SON/STRDE485.pdf
https://www.vancebaldwin.com/shop/research_new/SON/STRDE545.pdf
https://www.vancebaldwin.com/shop/research_new/SON/STRDE595.pdf
https://www.vancebaldwin.com/shop/research_new/SON/STRDE685.pdf
https://www.vancebaldwin.com/shop/research_new/SON/STRDE825.pdf
https://www.vancebaldwin.com/shop/research_new/SON/STRDE925.pdf
https://www.vancebaldwin.com/shop/research_new/SON/STRDE945.pdf
https://www.vancebaldwin.com/shop/research_new/SON/STRG3.pdf
https://www.vancebaldwin.com/shop/research_new/SON/STRGX800ES.pdf
https://www.vancebaldwin.com/shop/research_new/SON/STRK840P.pdf
https://www.vancebaldwin.com/shop/research_new/SON/STRSE391.pdf
https://www.vancebaldwin.com/shop/research_new/SON/STRSE591.pdf
<< DIVIDIMOS IDIAS E SOMAMOS CONHECIMENTOS>>

Pontuao 1 2 3 4 5 (5=Excelente) Editar Mensagem Apagar Mensagem Lock Thread Respon


d to this message
Erivan
(Login erivan)
Xerifes Semp tv2080 EAV acabei de sacear.
Sem pontuao para esta mensagem August 7 2007, 4:33 PM
http://www.4shared.com/file/21552155/8b533209/Semp2080EAVby_Erivan.html
ERIVAN CARLOS

Pontuao 1 2 3 4 5 (5=Excelente) Editar Mensagem Apagar Mensagem Lock Thread Respon


d to this message
ALAIN/df
(Login alainsomeimagem)
Conselheiro dicas toshiba senha scoop
Sem pontuao para esta mensagem August 7 2007, 5:18 PM
http://www.4shared.com/file/21547117/b8f4fa3/Dicas_tv__Toshiba.html
Pontuao 1 2 3 4 5 (5=Excelente) Editar Mensagem Apagar Mensagem Lock Thread Respon
d to this message
ALAIN/df
(Login alainsomeimagem)
Conselheiro AIWA nsx3300 nsx 360 password teresina
Sem pontuao para esta mensagem August 7 2007, 7:49 PM
http://www.4shared.com/file/21564152/77fc82a6/Aiwa_CX-N3300__NSX-360.html
Pontuao 1 2 3 4 5 (5=Excelente) Editar Mensagem Apagar Mensagem Lock Thread Respon
d to this message
ALAIN/DF
(Login alainsomeimagem)
Conselheiro panasonic tc14 e 20 A04
Sem pontuao para esta mensagem August 7 2007, 9:15 PM
http://www.4shared.com/file/17497173/842b09f1/TC-14_20A04.html?s=1
Pontuao 1 2 3 4 5 (5=Excelente) Editar Mensagem Apagar Mensagem Lock Thread Respon
d to this message
ALAIN/df
(Login alainsomeimagem)
Conselheiro philips FR732
Sem pontuao para esta mensagem August 8 2007, 11:26 AM
http://www.4shared.com/file/21604817/65ff0fac/FR732.html
Pontuao 1 2 3 4 5 (5=Excelente) Editar Mensagem Apagar Mensagem Lock Thread Respon
d to this message
ALAIN/df
(Login alainsomeimagem)

Conselheiro LG RP 32FZ 49P


Sem pontuao para esta mensagem August 8 2007, 1:32 PM
http://www.4shared.com/file/18942508/de29b9d6/Manual_de_servio_Lafinion_82W_RP-3
2FZ40P_LG.html
Pontuao 1 2 3 4 5 (5=Excelente) Editar Mensagem Apagar Mensagem Lock Thread Respon
d to this message
ALAIN/df
(Login alainsomeimagem)
Conselheiro LG - LM-M 1030 A
Sem pontuao para esta mensagem August 8 2007, 1:39 PM
http://www.4shared.com/file/21603063/be173473/LM-M1030A.html
Pontuao 1 2 3 4 5 (5=Excelente) Editar Mensagem Apagar Mensagem Lock Thread Respon
d to this message
valdeni
(Login valdeni)
Membro VIP sony kv-29xtr20-KV-XT30=chassis GP1A
Sem pontuao para esta mensagem August 8 2007, 1:56 PM
http://www.4shared.com/file/17307973/9a2d0a80/TV_SONY_KV29XT30_CHASSIS_GP1A.html

http://ube-164.pop.com.br/verPagina.php?pid=2708
Pontuao 1 2 3 4 5 (5=Excelente) Editar Mensagem Apagar Mensagem Lock Thread Respon
d to this message
valdeni
(Login valdeni)
Membro VIP SONY-KV-27TS36-KV-20TS32
Sem pontuao para esta mensagem August 8 2007, 1:59 PM
http://www.4shared.com/file/21610017/d9eee0f3/kv-27ts36-kv20ts32-chassis_AA-1-BA
-1.html

http://ube-164.pop.com.br/verPagina.php?pid=2708

Pontuao 1 2 3 4 5 (5=Excelente) Editar Mensagem Apagar Mensagem Lock Thread Respon


d to this message
ALAIN/df
(Login alainsomeimagem)
Conselheiro kenwood RXD 303 353 553 653 A33 A53
Sem pontuao para esta mensagem August 8 2007, 3:48 PM
http://www.2shared.com/file/2136993/52fa09db/RXD-303__353__503__553__653__A33__A
53.html
Pontuao 1 2 3 4 5 (5=Excelente) Editar Mensagem Apagar Mensagem Lock Thread Respon
d to this message
ALAIN/df
(Login alainsomeimagem)
Conselheiro panasonic SA-AK78
Sem pontuao para esta mensagem August 8 2007, 5:18 PM
http://www.2shared.com/file/2137411/c44916c9/SA-AK78.html
Pontuao 1 2 3 4 5 (5=Excelente) Editar Mensagem Apagar Mensagem Lock Thread Respon
d to this message
ALAIN/df
(Login alainsomeimagem)
Conselheiro KENWOOD RDX-M55
Sem pontuao para esta mensagem August 8 2007, 6:32 PM
http://www.4shared.com/file/21631062/24b9b6be/RXD-M55.html
Pontuao 1 2 3 4 5 (5=Excelente) Editar Mensagem Apagar Mensagem Lock Thread Respon
d to this message
Erivan
(Login erivan)
Xerifes toshiba al-4c
Sem pontuao para esta mensagem August 8 2007, 7:01 PM
http://www.4shared.com/file/19681373/825371a5/MAN_SEV_AL--4C.html?s=1
ERIVAN CARLOS

Pontuao 1 2 3 4 5 (5=Excelente) Editar Mensagem Apagar Mensagem Lock Thread Respon


d to this message

ALAIN/df
(Login alainsomeimagem)
Conselheiro LG FFH 986
Sem pontuao para esta mensagem August 8 2007, 7:27 PM
http://www.4shared.com/file/21634877/7405d2fa/FFH_986.html
Pontuao 1 2 3 4 5 (5=Excelente) Editar Mensagem Apagar Mensagem Lock Thread Respon
d to this message
Edilson_tv
(Login edilson_tv)
Membro VIP CCE HPS2906E
Sem pontuao para esta mensagem August 8 2007, 7:34 PM
http://www.4shared.com/file/21635124/27162bef/HPS2906E_EE.html
Abraos,
Edilson_tv
Pontuao 1 2 3 4 5 (5=Excelente) Editar Mensagem Apagar Mensagem Lock Thread Respon
d to this message
ALAIN/DF
(Login alainsomeimagem)
Conselheiro pioneer vsx209
Sem pontuao para esta mensagem August 9 2007, 9:18 PM
http://www.4shared.com/file/8862744/b753d99e/Pioneer-ReceiverVSX-D209-ServiceMan
ual.html?s=1
Pontuao 1 2 3 4 5 (5=Excelente) Editar Mensagem Apagar Mensagem Lock Thread Respon
d to this message
ALAIN/DF
(Login alainsomeimagem)
Conselheiro CCE MDX77
Sem pontuao para esta mensagem August 9 2007, 9:38 PM
http://www.4shared.com/file/6606186/9b72f3d6/MDX77_EE.html?s=1
Pontuao 1 2 3 4 5 (5=Excelente) Editar Mensagem Apagar Mensagem Lock Thread Respon
d to this message
ALAIN/df
(Login alainsomeimagem)
Conselheiro epron sony KV200MG
Sem pontuao para esta mensagem August 10 2007, 11:24 AM

http://www.2shared.com/file/2142927/8b215f4e/EEPROM_SONY_KV-200MG.html
Pontuao 1 2 3 4 5 (5=Excelente) Editar Mensagem Apagar Mensagem Lock Thread Respon
d to this message
ALAIN/df
(Login alainsomeimagem)
Conselheiro panasonic tc21fj30la
Sem pontuao para esta mensagem August 10 2007, 11:42 AM
http://www.4shared.com/file/13786505/d2078ab7/Panasonic_TC-21FJ30LA-_Guimares.ht
ml
Pontuao 1 2 3 4 5 (5=Excelente) Editar Mensagem Apagar Mensagem Lock Thread Respon
d to this message
ALAIN/df
(Login alainsomeimagem)
Conselheiro ci versus sua aplicao interessante
Sem pontuao para esta mensagem August 10 2007, 4:42 PM
http://www.electronica.ro/audio.shtml
Pontuao 1 2 3 4 5 (5=Excelente) Editar Mensagem Apagar Mensagem Lock Thread Respon
d to this message
ALAIN/df
(Login alainsomeimagem)
Conselheiro esquemas CCE
Sem pontuao para esta mensagem August 10 2007, 4:44 PM
CCE
http://www.badongo.net/file/3192448
HPS-1401.pdf
2007-05-26
421 KB
http://www.badongo.net/file/3192443
HPS-1401B.pdf
2007-05-26
403 KB
http://www.badongo.net/file/3192452
HPS-1401C.pdf
2007-05-26
395 KB
http://www.badongo.net/file/3192455
HPS-1401D.pdf
2007-05-26
414 KB
http://www.badongo.net/file/3192471

HPS-1401H.pdf
2007-05-26
2 MB
http://www.badongo.net/file/3192477
HPS-1402.pdf
2007-05-26
288 KB
http://www.badongo.net/file/3192479
HPS-1402E.pdf
2007-05-26
383 KB
http://www.badongo.net/file/3192482
HPS-1402EF.pdf
2007-05-26
289 KB
http://www.badongo.net/file/3192491
HPS-1402F.pdf
2007-05-26
383 KB
http://www.badongo.net/file/3192564
HPS-1403A.pdf
2007-05-26
383 KB
http://www.badongo.net/file/3192602
HPS-1403B.pdf
2007-05-26
383 KB
http://www.badongo.net/file/3192611
HPS-1403C.pdf
2007-05-26
368 KB
http://www.badongo.net/file/3192617
HPS-1403D.pdf
2007-05-26
368 KB
http://www.badongo.net/file/3192620
HPS-1403EF.pdf
2007-05-26
290 KB
http://www.badongo.net/file/3192661
HPS-1405.pdf
2007-05-26
308 KB
http://www.badongo.net/file/3192735
HPS-1465E.pdf
2007-05-26
836 KB
http://www.badongo.net/file/3192752
HPS-1465F.pdf
2007-05-26
841 KB
http://www.badongo.net/file/3192815
HPS-1465I.pdf
2007-05-26
851 KB
http://www.badongo.net/file/3193130
HPS-1470DD.pdf
2007-05-26
835 KB
http://www.badongo.net/file/3193159

HPS-1470E.pdf
2007-05-26
961 KB
http://www.badongo.net/file/3193181
HPS-1470F.pdf
2007-05-26
2 MB
http://www.badongo.net/file/3193191
HPS-1470I.pdf
2007-05-26
1 MB
http://www.badongo.net/file/3193206
HPS-1470Q.pdf
2007-05-26
869 KB
http://www.badongo.net/file/3193116
HPS-1470_Q.pdf
2007-05-26
12 MB
http://www.badongo.net/file/3193310
HPS-1480.pdf
2007-05-26
11 MB
http://www.badongo.net/file/3193320
HPS-1481.pdf
2007-05-26
825 KB
http://www.badongo.net/file/3193329
HPS-1481B.pdf
2007-05-26
822 KB
http://www.badongo.net/file/3193334
HPS-1485E.pdf
2007-05-26
836 KB
http://www.badongo.net/file/3193342
HPS-1485F.pdf
2007-05-26
841 KB
http://www.badongo.net/file/3193350
HPS-1485I.pdf
2007-05-26
853 KB
http://www.badongo.net/file/3193358
HPS-1490E.pdf
2007-05-26
962 KB
http://www.badongo.net/file/3193381
HPS-1490F.pdf
2007-05-26
2 MB
http://www.badongo.net/file/3193418
HPS-1490I.pdf
2007-05-26
1 MB
http://www.badongo.net/file/3193425
HPS-1492B.pdf
2007-05-26
447 KB
http://www.badongo.net/file/3193427

HPS-1492C.pdf
2007-05-26
421 KB
http://www.badongo.net/file/3193459
HPS-14R-A.pdf
2007-05-26
381 KB
http://www.badongo.net/file/3193462
HPS-14R-B.pdf
2007-05-26
382 KB
http://www.badongo.net/file/3193484
HPS-14R-C.pdf
2007-05-26
381 KB
http://www.badongo.net/file/3193506
HPS-14R-D.pdf
2007-05-26
381 KB
http://www.badongo.net/file/3193510
HPS-14R-E.pdf
2007-05-26
382 KB
http://www.badongo.net/file/3193444
HPS-14R.pdf
2007-05-26
838 KB
http://www.badongo.net/file/3193536
HPS-2001.pdf
2007-05-26
408 KB
http://www.badongo.net/file/3193550
HPS-2001B.pdf
2007-05-26
403 KB
http://www.badongo.net/file/3193586
HPS-2001C.pdf
2007-05-26
401 KB
http://www.badongo.net/file/3193612
HPS-2002-D.pdf
2007-05-26
290 KB
http://www.badongo.net/file/3193607
HPS-2002D.pdf
2007-05-26
383 KB
http://www.badongo.net/file/3193633
HPS-2002E.pdf
2007-05-26
383 KB
http://www.badongo.net/file/3193661
HPS-2003-A.pdf
2007-05-26
290 KB
http://www.badongo.net/file/3193685
HPS-2003-B.pdf
2007-05-26
290 KB
http://www.badongo.net/file/3193708

HPS-2003-C.pdf
2007-05-26
298 KB
http://www.badongo.net/file/3193643
HPS-2003A.pdf
2007-05-26
383 KB
http://www.badongo.net/file/3193666
HPS-2003B.pdf
2007-05-26
382 KB
http://www.badongo.net/file/3193688
HPS-2003C.pdf
2007-05-26
399 KB
http://www.badongo.net/file/3193712
HPS-2003D.pdf
2007-05-26
399 KB
http://www.badongo.net/file/3193741
HPS-2004D.pdf
2007-05-26
421 KB
http://www.badongo.net/file/3193737
HPS-2004_D.pdf
2007-05-26
336 KB
http://www.badongo.net/file/3193770
HPS-2005.pdf
2007-05-26
342 KB
http://www.badongo.net/file/3193797
HPS-2006A.pdf
2007-05-26
421 KB
http://www.badongo.net/file/3193800
HPS-2006B.pdf
2007-05-26
417 KB
http://www.badongo.net/file/3193859
HPS-2015.pdf
2007-05-26
863 KB
http://www.badongo.net/file/3193892
HPS-2065D.pdf
2007-05-26
913 KB
http://www.badongo.net/file/3193911
HPS-2065E.pdf
2007-05-26
857 KB
http://www.badongo.net/file/3193950
HPS-2065F.pdf
2007-05-26
840 KB
http://www.badongo.net/file/3193958
HPS-2070F.pdf
2007-05-26
432 KB
http://www.badongo.net/file/3193983

HPS-2070P.pdf
2007-05-26
883 KB
http://www.badongo.net/file/3193992
HPS-2070U.pdf
2007-05-26
827 KB
http://www.badongo.net/file/3194027
HPS-2080D.pdf
2007-05-26
4 MB
http://www.badongo.net/file/3194041
HPS-2081.pdf
2007-05-26
842 KB
http://www.badongo.net/file/3194050
HPS-2081C.pdf
2007-05-26
848 KB
http://www.badongo.net/file/3194057
HPS-2085D.pdf
2007-05-26
914 KB
http://www.badongo.net/file/3194068
HPS-2085E.pdf
2007-05-26
913 KB
http://www.badongo.net/file/3194077
HPS-2085F.pdf
2007-05-26
831 KB
http://www.badongo.net/file/3194084
HPS-2090F.pdf
2007-05-26
432 KB
http://www.badongo.net/file/3194091
HPS-2092.pdf
2007-05-26
426 KB
http://www.badongo.net/file/3194094
HPS-2092B.pdf
2007-05-26
428 KB
http://www.badongo.net/file/3194100
HPS-2092C.pdf
2007-05-26
442 KB
http://www.badongo.net/file/3194109
HPS-2092D.pdf
2007-05-26
436 KB
http://www.badongo.net/file/3194126
HPS-21E.pdf
2007-05-26
2 MB
http://www.badongo.net/file/3194129
HPS-2706.pdf
2007-05-26
440 KB
http://www.badongo.net/file/3194136

HPS-2706B.pdf
2007-05-26
442 KB
http://www.badongo.net/file/3194141
HPS-2706C.pdf
2007-05-26
345 KB
http://www.badongo.net/file/3194165
HPS-2781_(181_CANAIS).pdf
2007-05-26
2 MB
http://www.badongo.net/file/3194169
HPS-2902.pdf
2007-05-26
493 KB
http://www.badongo.net/file/3194175
HPS-2904B.pdf
2007-05-26
363 KB
http://www.badongo.net/file/3194183
HPS-2904B_.pdf
2007-05-26
332 KB
http://www.badongo.net/file/3194188
HPS-2906A.pdf
2007-05-26
375 KB
http://www.badongo.net/file/3194191
HPS-2906B.pdf
2007-05-26
374 KB
http://www.badongo.net/file/3194195
HPS-2906D.pdf
2007-05-26
290 KB
http://www.badongo.net/file/3194203
HPS-2908.pdf
2007-05-26
317 KB
http://www.badongo.net/file/3194205
HPS-2910A.pdf
2007-05-26
321 KB
http://www.badongo.net/file/3194209
HPS-2912.pdf
2007-05-26
373 KB
http://www.badongo.net/file/3194215
HPS-2912_.pdf
2007-05-26
392 KB
http://www.badongo.net/file/3194238
HPS-2981C.pdf
2007-05-26
536 KB
http://www.badongo.net/file/3194233
HPS-2981_(181_CANAIS).pdf
2007-05-26
2 MB
http://www.badongo.net/file/3194264

HPS-29E_(B).pdf
2007-05-26
2 MB
http://www.badongo.net/file/3194270
HPS-29E_B.pdf
2007-05-26
564 KB
http://www.badongo.net/file/3194299
HPS-3380.pdf
2007-05-26
2 MB
http://www.badongo.net/file/3194306
HPS-33R.pdf
2007-05-26
370 KB
http://www.badongo.net/file/3194337
HPS-33RB.pdf
2007-05-26
370 KB
http://www.badongo.net/file/3194327
HPS-33R_.pdf

Pontuao 1 2 3 4 5 (5=Excelente) Editar Mensagem Apagar Mensagem Lock Thread Respon


d to this message
ALAIN/df
(Login alainsomeimagem)
Conselheiro auxiliar pioneer
Sem pontuao para esta mensagem August 10 2007, 6:29 PM
http://www.4shared.com/file/21778929/9b02ab52/Auxiliar_Pioneer1.html
Pontuao 1 2 3 4 5 (5=Excelente) Editar Mensagem Apagar Mensagem Lock Thread Respon
d to this message
valdeni
(Login valdeni)
Membro VIP philips-29gx-1895,chassis anubis-s (RENOVADO)
Sem pontuao para esta mensagem August 10 2007, 9:08 PM
http://www.4shared.com/file/21788966/ed81e416/29-GX1895-chassis_anubis-s.html

http://ube-164.pop.com.br/verPagina.php?pid=2708
Pontuao 1 2 3 4 5 (5=Excelente) Editar Mensagem Apagar Mensagem Lock Thread Respon

d to this message
ALAIN/DF
(Login alainsomeimagem)
Conselheiro modo servio de vrios tv's
Sem pontuao para esta mensagem August 10 2007, 9:31 PM
http://www.4shared.com/file/18389262/de83a8ad/Modo_de_Servio_de_TV_.html?s=1
Pontuao 1 2 3 4 5 (5=Excelente) Editar Mensagem Apagar Mensagem Lock Thread Respon
d to this message
ALAIN/DF
(Login alainsomeimagem)
Conselheiro protees sony chassis aa 2b kv2970 e 3470
Sem pontuao para esta mensagem August 10 2007, 9:51 PM
http://www.2shared.com/file/2142566/915053b8/SONY-CHASSIS_aa-2b-KV2970-3470.html
Pontuao 1 2 3 4 5 (5=Excelente) Editar Mensagem Apagar Mensagem Lock Thread Respon
d to this message
martinho
(Login martins62)
Membro VIP TV JVC AV-24F702
Sem pontuao para esta mensagem August 10 2007, 11:49 PM
TV JVC AV-24F702
http://www.4shared.com/file/21795659/92451c14/Cpia_de_Manual_JVC_TV_2.html
Pontuao 1 2 3 4 5 (5=Excelente) Editar Mensagem Apagar Mensagem Lock Thread Respon
d to this message
Anonymous
(Login alainsomeimagem)
Conselheiro curso plasma gradiente plt4230
Sem pontuao para esta mensagem August 11 2007, 12:07 PM
http://www.4shared.com/file/21819685/a5ad68de/Curso_do_Modelo_PLT_4230.html
Pontuao 1 2 3 4 5 (5=Excelente) Editar Mensagem Apagar Mensagem Lock Thread Respon
d to this message
ALAIN/df
(Login alainsomeimagem)
Conselheiro 29pt558 838 848 458 658 578
Sem pontuao para esta mensagem August 11 2007, 1:03 PM

http://www.4shared.com/file/9888800/a9f4ca0f/29pt558_838_848_458_658_578.html
Pontuao 1 2 3 4 5 (5=Excelente) Editar Mensagem Apagar Mensagem Lock Thread Respon
d to this message
valdeni
(Login valdeni)
Membro VIP lg-cp-20b85
Sem pontuao para esta mensagem August 11 2007, 1:41 PM
http://www.4shared.com/file/12503870/9e56ae0/Esquema_LG_CP20B85.html

http://ube-164.pop.com.br/verPagina.php?pid=2708
Pontuao 1 2 3 4 5 (5=Excelente) Editar Mensagem Apagar Mensagem Lock Thread Respon
d to this message
JAIR SILVA
(Login jfsilva43)
Membro VIP CAMINHO DAS PEDRAS II REORGANIZADO PELO SERGIO VAZ
Sem pontuao para esta mensagem August 11 2007, 2:10 PM
Atenco LINCK COM VIRUS
http://www.geocities.com/sosmonitores_es/esquemarios.html
MEU AVG dectou 2 virus
Jair Silva
Pontuao 1 2 3 4 5 (5=Excelente) Editar Mensagem Apagar Mensagem Lock Thread Respon
d to this message
ALAIN/DF
(Login alainsomeimagem)
Conselheiro panasonic SA AK 88
Sem pontuao para esta mensagem August 12 2007, 12:17 AM
http://www.4shared.com/file/21841816/eaac08b8/Manual_de_Servio_SA_AK_88_Panasoni
c.html
Pontuao 1 2 3 4 5 (5=Excelente) Editar Mensagem Apagar Mensagem Lock Thread Respon
d to this message

ALAIN/DF
(Login alainsomeimagem)
Conselheiro AS 9100
Sem pontuao para esta mensagem August 12 2007, 12:44 AM
http://www.4shared.com/file/21855927/546bf3d/AS_9100.html
Pontuao 1 2 3 4 5 (5=Excelente) Editar Mensagem Apagar Mensagem Lock Thread Respon
d to this message
ALAIN/DF
(Login alainsomeimagem)
Conselheiro panasonic SA AK 45
Sem pontuao para esta mensagem August 12 2007, 12:58 AM
http://www.4shared.com/file/21856532/77982c79/SA-AK45.html
Pontuao 1 2 3 4 5 (5=Excelente) Editar Mensagem Apagar Mensagem Lock Thread Respon
d to this message
ALAIN/DF
(Login alainsomeimagem)
Conselheiro SC-AK110LB tem ks atrs heheheheeh
Sem pontuao para esta mensagem August 12 2007, 1:19 AM
http://www.4shared.com/file/21857445/1fc3224f/SC-AK110LB_KS.html
Pontuao 1 2 3 4 5 (5=Excelente) Editar Mensagem Apagar Mensagem Lock Thread Respon
d to this message
valdeni
(Login valdeni)
Membro VIP panasonic sa-ak55 manual de servio
Sem pontuao para esta mensagem August 12 2007, 2:00 AM
http://www.4shared.com/file/21859199/45cfa5f1/sa-ak55.html

http://ube-164.pop.com.br/verPagina.php?pid=2708
Pontuao 1 2 3 4 5 (5=Excelente) Editar Mensagem Apagar Mensagem Lock Thread Respon
d to this message
valdeni
(Login valdeni)
Membro VIP panasonic sa-ak57 manual de servio

Sem pontuao para esta mensagem August 12 2007, 2:08 AM


http://www.4shared.com/file/21859849/ffb0e033/SA-AK57.html

http://ube-164.pop.com.br/verPagina.php?pid=2708
Pontuao 1 2 3 4 5 (5=Excelente) Editar Mensagem Apagar Mensagem Lock Thread Respon
d to this message
valdeni
(Login valdeni)
Membro VIP panasonic sa-ak58-hi fi- manual de servio
Sem pontuao para esta mensagem August 12 2007, 2:17 AM
http://www.4shared.com/file/21860253/314188e0/SA-AK_58-HI-FI.html

http://ube-164.pop.com.br/verPagina.php?pid=2708
Pontuao 1 2 3 4 5 (5=Excelente) Editar Mensagem Apagar Mensagem Lock Thread Respon
d to this message
valdeni
(Login valdeni)
Membro VIP panasonic sa-ak62- manual de servio
Sem pontuao para esta mensagem August 12 2007, 2:25 AM
http://www.4shared.com/file/21860905/a9003671/SA-AK62.html

http://ube-164.pop.com.br/verPagina.php?pid=2708
Pontuao 1 2 3 4 5 (5=Excelente) Editar Mensagem Apagar Mensagem Lock Thread Respon
d to this message

ALAIN/DF
(Login alainsomeimagem)
Conselheiro FW 46 e 56
Sem pontuao para esta mensagem August 12 2007, 9:47 AM
http://www.4shared.com/file/21873506/16c618f1/FW_46_E_56.html
Pontuao 1 2 3 4 5 (5=Excelente) Editar Mensagem Apagar Mensagem Lock Thread Respon
d to this message
ALAIN/DF
(Login alainsomeimagem)
Conselheiro ESQUEMAS TECHNICS
Sem pontuao para esta mensagem August 12 2007, 10:50 PM
http://www.4shared.com/file/21841328/2a6c999d/SA_G68_PP.html>;;
http://www.4shared.com/file/21841703/88818a4b/SA_G76_PP.html>;;
http://www.4shared.com/file/21843837/5949227/SA_G77_PP.html>;;
http://www.4shared.com/file/21844095/82b17280/SA_HT210_PP.html>;;
http://www.4shared.com/file/21886772/e8e0f9a2/SA_HT220_PP.html>;;
http://www.4shared.com/file/21844374/6973d1c1/SA_HT260_PP.html>;;
http://www.4shared.com/file/21845480/547578f7/SA_TX30_P.html>;;
http://www.4shared.com/file/21845824/a0edad00/SA_TX50_P.html>;;
http://www.4shared.com/file/21877413/f117205f/SE_A1000M2_E_EB_EG.html>;;
http://www.4shared.com/file/21878481/96b8ea6c/SE_A3000_E_EB_EG.html>;;
http://www.4shared.com/file/21848230/41660553/SE_A800SM2_E_EB_EG.html>;;
http://www.4shared.com/file/21877321/317b0435/SE_A900SM2_E_EB_EG.html>;;
http://www.4shared.com/file/21878619/4a250d79/ST_HD55_PP.html>;;
http://www.4shared.com/file/21878681/953c3e02/SU_A600MK3_E_EB_EM.html>;;
http://www.4shared.com/file/21878767/e31edc8e/SU_A700MK3_E_EB_EG_EN.html>;;
http://www.4shared.com/file/21878948/4b098e97/SU_C800UM2_E.html>;;
http://www.4shared.com/file/21879022/4aeb9ce5/SU_C1000M2_E_EB_EG.html
http://www.4shared.com/file/21887585/4a24c3c5/SU_C3000_E_EB_EG.html

Pontuao 1 2 3 4 5 (5=Excelente) Editar Mensagem Apagar Mensagem Lock Thread Respon


d to this message
ALAIN/DF
(Login alainsomeimagem)
Conselheiro samsung 591S
Sem pontuao para esta mensagem August 12 2007, 10:57 PM
http://www.4shared.com/file/21911926/c3ff6d99/591S.html
Pontuao 1 2 3 4 5 (5=Excelente) Editar Mensagem Apagar Mensagem Lock Thread Respon
d to this message
ALAIN/DF
(Login alainsomeimagem)
Conselheiro LG RP 21FC40
Sem pontuao para esta mensagem August 12 2007, 11:09 PM
http://www.2shared.com/file/2152083/441261e2/TV-LG-Manual_de_servio-RP-21FC40.ht
ml
Pontuao 1 2 3 4 5 (5=Excelente) Editar Mensagem Apagar Mensagem Lock Thread Respon
d to this message
ALAIN/DF
(Login alainsomeimagem)
Conselheiro mecanismo panasonic ajustes
Sem pontuao para esta mensagem August 12 2007, 11:28 PM
http://www.4shared.com/file/21917628/a70587f/MHC-DX135789__1200__SINCRONISMO_MEC
ANISMO_DE_CD.html
Pontuao 1 2 3 4 5 (5=Excelente) Editar Mensagem Apagar Mensagem Lock Thread Respon
d to this message
ALAIN/DF
(Login alainsomeimagem)
Conselheiro panasonic 29A9
Sem pontuao para esta mensagem August 12 2007, 11:49 PM
http://www.4shared.com/file/21918427/c12881d6/Panasonic-29A9.html
Pontuao 1 2 3 4 5 (5=Excelente) Editar Mensagem Apagar Mensagem Lock Thread Respon
d to this message

ALAIN/DF
(Login alainsomeimagem)
Conselheiro consigam as senhas
Sem pontuao para esta mensagem August 13 2007, 12:54 AM
aiwa https://ibiss.crse.com/
beko http://193.243.194.49/
canon http://www.asfonline.com/
canon https://www.cna.cusa.canon.com/default.asp
canon http://www.cps.canon-europe.com/member/index.jsp
daewoo http://svc.dwe.co.kr/
daewoo http://www.daewoo.es/despa/despa/validar_sat.asp
daewoo http://www.e-daewoo.com/service_new/pages/s_default.html
Develop http://dbox.develop.de/openmind/publicnav.nsf/nav?openForm
funai ftp:// no login, direct connection
funai http://www.funai-corp.com/service
Grundig https://partnerweb.grundig.de/
gsm http://www.manuals.magboss.pl/manuals/
harman http://www.harmanspecialtygroup.com/brandsupport/dealer/login.asp
harman http://harmanservice.com/
harman http://www.hci-services.com/
hitachi http://denei2.hitachi-koki.co.jp/epower4/netpas.html
hitachi http://www.hitachiserviceeu.com/
hitachi http://www.hitachiserviceusa.com/
horizont http://www.tv-service.tv/
hp http://www.hylink.com/
jvc http://sol.jvc.de/
jvc http://www.jvcservice.com/service/default.asp
jvc http://www.jvcservice-latin.com/
kenwood http://claims.satisfusion.com/Login.asp
lg http://biz.lgservice.com/
lg http://eic.lgservice.com/
Loewe ftp:// no login,direct connection
Minolta no login, direct connection
mitsubishi http://www.3diamonds.com/
nad http://nadelectronics.com/svc/index.html
onkyo http://service.onkyousa.com/
ovp http://servis.ovpcr.cz/
panasonic http://217.7.21.70/cshome/
panasonic http://www.meluk-service.co.uk/
panasonic http://www.dealers.panasonic.co.uk/
panasonic http://tsn.pasc.panasonic.com/PASS/login.asp
panasonic http://service.us.panasonic.com/epart/
panasonic http://tsn.panasonic.com.cn/
panasonic http://tsos.panasonic.cn/sos/portal.jsp
philips http:// no login,direct connection
philips http://www.atyourservice.ce.philips.com/
philips http://service.gsm-service.ru/Philips/indexTS.phtml
phonic http://www.phonic.com/partner/
Ricoh http://www.tessa-support.com/techuser/default.asp?id=5
Roadstar ftp://195.144.32.164/
roadstar http://www.roadstar.com/index_service.htm
samsung http://europe.samsungportal.com/EP/web/portal/jsp/EP_IDefault.jsp
samsung http://hhp.bofh.lv/
samsung http://itself.sec.samsung.co.kr/
samsung http://www.samsungasc.com/
samsung http://service.samsungportal.com/

sanyo http://www.manual.sanyo.co.jp/SVP0000.aspx
sanyo http://wartics.sanyo.es/
sharp http://www.sharp-service.com/
sharp http://www.sharp-th.com/inquiry/index.php
sharp http://194.64.239.2/extranet/default7.asp
sony http://servtrain.sel.sony.com/main/index.jhtml?default=true
sony https://ibiss.crse.com/
sony https://service-asc.sel.sony.com/
sony https://sony.zstudio.cz/
sony https://www.sdp.sel.sony.com/service/asc/
sony ftp://trainnet.sony.ca/assc_npsi.htm
Thomson http://www.thomson-network.com/
Thomson http://www.thomsonnetwork.com/
toshiba http://tesc.toshiba.co.uk/
toshiba http://www7.toshiba.com/secured/tass/technical/modconts.asp
toshiba http://www.toshiba.ca/dealers/ceg.htm
vestel https://vestelservice.com/new_service/login.aspx
http://www.pwwservice.com/service_centers/serv_manu.php
sony http://www.dealer.sony.co.uk/Service/default.asp

Pontuao 1 2 3 4 5 (5=Excelente) Editar Mensagem Apagar Mensagem Lock Thread Respon


d to this message
ALAIN/DF
(Login alainsomeimagem)
Conselheiro philco tpf2121
Sem pontuao para esta mensagem August 13 2007, 1:00 AM
http://www.2shared.com/file/2151150/7bc28bcc/Philco_TPF2121_Esquema.html
Pontuao 1 2 3 4 5 (5=Excelente) Editar Mensagem Apagar Mensagem Lock Thread Respon
d to this message
ALAIN/df
(Login alainsomeimagem)
Conselheiro LG 440SI CB 440 CA51
Sem pontuao para esta mensagem August 13 2007, 11:37 AM
http://www.4shared.com/file/6530868/9c79f72/LG_440si_cb440_ca51.html?s=1
Pontuao 1 2 3 4 5 (5=Excelente) Editar Mensagem Apagar Mensagem Lock Thread Respon
d to this message
ALAIN/df
(Login alainsomeimagem)
Conselheiro DVD TOSHIBA SD 700X
Sem pontuao para esta mensagem August 13 2007, 3:43 PM

http://www.2shared.com/file/2154724/bd5592/DVD_TOSHIBA_SD-700X.html
Pontuao 1 2 3 4 5 (5=Excelente) Editar Mensagem Apagar Mensagem Lock Thread Respon
d to this message
ALAIN/df
(Login alainsomeimagem)
Conselheiro esquemas APEX
Sem pontuao para esta mensagem August 13 2007, 5:50 PM
http://www.worldwideelec.com/apex_asc_site/apex.html
Pontuao 1 2 3 4 5 (5=Excelente) Editar Mensagem Apagar Mensagem Lock Thread Respon
d to this message
ALAIN/df
(Login alainsomeimagem)
Conselheiro treinamento dvd com HOME panasonic
Sem pontuao para esta mensagem August 14 2007, 10:53 AM
http://www.4shared.com/file/21952343/f6db268/Treinamento_Tcnico_Dvd__Panasonic_T
heater.html
Pontuao 1 2 3 4 5 (5=Excelente) Editar Mensagem Apagar Mensagem Lock Thread Respon
d to this message
ALAIN/df
(Login alainsomeimagem)
Conselheiro TECHNICS esquemas
Sem pontuao para esta mensagem August 14 2007, 12:04 PM
http://www.4shared.com/file/21990756/eecfaf0/Amplificador__Technics-SE-A900S.htm
l
http://www.4shared.com/file/21991061/6564d70/RS_AZ6_E_EB_EG.html
http://www.4shared.com/file/21991236/e6c1f8f8/RS_AZ7_E_EB_EG.html
http://www.4shared.com/file/21991547/dbc8482c/RS_AZ7_GU.html
http://www.4shared.com/file/21991786/3fee3d8/RS_HD75_PP.html
http://www.4shared.com/file/21991838/cee5029/RS_TR180_PP.html
http://www.4shared.com/file/21992140/5010dabd/RS_TR272_GC_GN_GT.html
http://www.4shared.com/file/21992451/38c71981/RS_TR280_PP.html
http://www.4shared.com/file/21992556/a761e615/RS_TR373M2_E_EB_EG_GC_GN.html
http://www.4shared.com/file/21992830/108077f5/RS_TR474M2_E_EB_EG.html
http://www.4shared.com/file/21993332/4a679e5d/RS_TR575M2_E_EB_EG_GC_GN.html
http://www.4shared.com/file/22012506/fc8112c4/SA_AX610_P.html
http://www.4shared.com/file/22012524/20b9116a/SA_AX620_PC.html
http://www.4shared.com/file/21993621/ccbe3c4d/SA_AX6_E_EB_EG.html
http://www.4shared.com/file/21994414/9aa77d6/SA_AX6_GC_GN_GK.html
http://www.4shared.com/file/22012033/a10d7763/SA_AX6_PP.html
http://www.4shared.com/file/22012604/10c9cdb1/SA_AX710_E_EB_EG.html
http://www.4shared.com/file/22012817/9a458040/SA_AX710_GC_GN.html
http://www.4shared.com/file/22013010/b28e233e/SA_AX710_GK.html

http://www.4shared.com/file/22013407/32f82f00/SA_AX710_P_PC.html
http://www.4shared.com/file/22013548/c7e99da2/SA_AX720_E.html
http://www.4shared.com/file/22013743/53bf9044/SA_AX720_GC_GN.html
http://www.4shared.com/file/22013808/ab5dcbf5/SA_AX720_P_PC.html
http://www.4shared.com/file/22013908/aa9fa1c2/SA_AX810_P.html
http://www.4shared.com/file/22013923/f7b1ac8/SA_AX910_P_PC.html
http://www.4shared.com/file/22013971/9c028fa1/SA_AX920_P.html

Pontuao 1 2 3 4 5 (5=Excelente) Editar Mensagem Apagar Mensagem Lock Thread Respon


d to this message
ALAIN/df
(Login alainsomeimagem)
Conselheiro sanyo C33LJ13
Sem pontuao para esta mensagem August 14 2007, 5:06 PM
http://www.4shared.com/file/21010318/9d4ea026/C33LJ13-C33LJ26-C29LH93--CHASSIS_L
B1-A.html
Pontuao 1 2 3 4 5 (5=Excelente) Editar Mensagem Apagar Mensagem Lock Thread Respon
d to this message
ALAIN/df
(Login alainsomeimagem)
Conselheiro mais esquemas tecnics
Sem pontuao para esta mensagem August 14 2007, 7:34 PM

http://www.4shared.com/file/22033486/f7e6c6fe/SA_EX100_E_EB_EG.html
http://www.4shared.com/file/22034422/97b3d2d4/SA_EX100_GC_GN.html
http://www.4shared.com/file/22035313/766ac061/SA_EX100_P_PC.html
http://www.4shared.com/file/22036516/1038e7b2/SA_EX110_P_PC.html
http://www.4shared.com/file/22036702/dcac684/SA_EX120_E.html
http://www.4shared.com/file/22041405/be1f09d7/SA_EX300_E_EB_EG.html
http://www.4shared.com/file/22041798/132a707a/SA_EX300_GC_GN.html
http://www.4shared.com/file/22042022/7f1f9c4/SA_EX310_E_EB_EG.html
http://www.4shared.com/file/22042479/ea5d7cd5/SA_EX310_P_PC.html
http://www.4shared.com/file/22042334/f5cfd3e9/SA_EX310_GC_GN.html
http://www.4shared.com/file/22042762/66d22a45/SA_EX320_E_EB_EG.html
http://www.4shared.com/file/22042932/113bf30a/SA_EX320_GC_GN.html
http://www.4shared.com/file/22043143/9fd26386/SA_EX320_P_PC.html
http://www.4shared.com/file/22043210/79ea7820/SA_EX400_P_PC.html
http://www.4shared.com/file/22043375/5e18411e/SA_EX500_E_EB_EG.html
http://www.4shared.com/file/22043656/f3ecb0cd/SA_EX500_GC_GN.html
http://www.4shared.com/file/22044235/a661d694/SA_EX510_E_EB_EG.html
http://www.4shared.com/file/22044486/d8112257/SA_EX510_GC_GK_GN.html
http://www.4shared.com/file/22044909/88af269d/SA_EX510_P_PC.html
http://www.4shared.com/file/22045286/64203980/SA_EX600_P_PC.html
http://www.4shared.com/file/22059198/ef730d97/SA_EX700_E_EB_EG.html
http://www.4shared.com/file/22059843/c2de91dd/SA_EX700_GC_GN.html
http://www.4shared.com/file/22059876/99993691/SA_EX700_P_PC.html
http://www.4shared.com/file/22059921/7b483d40/SA_EX800_P.html

http://www.4shared.com/file/22060095/aaa82e47/SA_EX900_P_PC.html

Pontuao 1 2 3 4 5 (5=Excelente) Editar Mensagem Apagar Mensagem Lock Thread Respon


d to this message
ALAIN/df
(Login alainsomeimagem)
Conselheiro Re: mais esquemas tecnics
Sem pontuao para esta mensagem August 15 2007, 5:03 PM
esquemas DENON varios 1
August 15 2007 at 9:45 AM
Sem pontuao para esta mensagem
v.santarem (Login v.santarem)
Conselheiro
-------------------------------------------------------------------------------http://www.4shared.com/file/22073550/5f69d171/-_DENON_AVR-1601681_smpart01.html
http://www.4shared.com/file/22073617/a7273f8f/-_DENON_AVR-1601681_smpart02.html
http://www.4shared.com/file/22073672/81176c86/-_DENON_AVR-1601681_smpart03.html
http://www.4shared.com/file/22073706/c8f9546f/-_DENON_AVR-1601681_smpart04.html
http://www.4shared.com/file/22073745/359cc0d1/-_DENON_AVR-1601681_smpart05.html
http://www.4shared.com/file/22073782/74d1a7e/-_DENON_AVR-1601681_smpart06.html
http://www.4shared.com/file/22073836/e8884091/-_DENON_AVR-1601681_smpart07.html
http://www.4shared.com/file/22073850/57b14222/-_DENON_AVR-1601681_smpart08.html
http://www.4shared.com/file/22074157/5bd3d4b7/Denon_AVR-1603-683.html
http://www.4shared.com/file/22074535/e48ebac1/denon_AVR-2802part01.html
http://www.4shared.com/file/22075145/147ae3bf/denon_AVR-2802part02.html
http://www.4shared.com/file/22075449/1b076d7f/denon_AVR-2802part03.html
http://www.4shared.com/file/22075710/1dea9fc7/denon_AVR-2802part04.html
http://www.4shared.com/file/22075830/2480ba78/denon_AVR-2802part05.html
http://www.4shared.com/file/22075896/370cf7c7/denon_AVR-2802part06.html
http://www.4shared.com/file/22076701/614331fe/denon_AVR-2802part07.html
http://www.4shared.com/file/22089142/42985e75/denon_AVR-2802part08.html
http://www.4shared.com/file/22089568/97727d35/denon_AVR-2802part09.html
http://www.4shared.com/file/22089982/e03e40c1/denon_AVR-2802part10.html
http://www.4shared.com/file/22090087/dfede9fb/denon_AVR-2802part11.html
http://www.4shared.com/file/22090129/c3784641/denon_AVR-2802part12.html

Pontuao 1 2 3 4 5 (5=Excelente) Editar Mensagem Apagar Mensagem Lock Thread Respon


d to this message
ALAIN/df
(Login alainsomeimagem)
Conselheiro sony KV 27TS27
Sem pontuao para esta mensagem August 15 2007, 5:09 PM

http://www.4shared.com/file/22110631/2adb71d3/KV-27TS27.html?dirPwdVerified=bb18
c3d8
Pontuao 1 2 3 4 5 (5=Excelente) Editar Mensagem Apagar Mensagem Lock Thread Respon
d to this message
ALAIN/df
(Login alainsomeimagem)
Conselheiro ciclotron NPCR400S
Sem pontuao para esta mensagem August 15 2007, 5:30 PM
http://www.4shared.com/file/22109345/245487dc/Ciclotron_Nprc_400s.html?dirPwdVer
ified=e632f63c
Pontuao 1 2 3 4 5 (5=Excelente) Editar Mensagem Apagar Mensagem Lock Thread Respon
d to this message
ALAIN/df
(Login alainsomeimagem)
Conselheiro 14pt 314 e outras renovando
Sem pontuao para esta mensagem August 15 2007, 6:00 PM
http://www.4shared.com/file/10166220/cd954dde/14pt314_316_414_616_324_326_424_52
4_434_534.html?dirPwdVerified=f0e10d02
Pontuao 1 2 3 4 5 (5=Excelente) Editar Mensagem Apagar Mensagem Lock Thread Respon
d to this message
ALAIN/DF
(Login alainsomeimagem)
Conselheiro plasma panasonic chassis GP2D TC42P1
Sem pontuao para esta mensagem August 15 2007, 9:36 PM
http://www.4shared.com/file/22137257/75fcb065/PANASONIC_GP2D_CHASSIS_TC42P1_PLAS
MA_TV_SM.html
Pontuao 1 2 3 4 5 (5=Excelente) Editar Mensagem Apagar Mensagem Lock Thread Respon
d to this message
filhojj
(Login filhojj)
Membro VIP PANASONIC GP2D CHASSIS TC42P1 PLASMA TV
Sem pontuao para esta mensagem August 15 2007, 9:38 PM
http://www.4shared.com/file/22137257/75fcb065/PANASONIC_GP2D_CHASSIS_TC42P1_PLAS
MA_TV_SM.html

Pontuao 1 2 3 4 5 (5=Excelente) Editar Mensagem Apagar Mensagem Lock Thread Respon


d to this message
ALAIN/df
(Login alainsomeimagem)
Conselheiro philips chassis NCF
Sem pontuao para esta mensagem August 16 2007, 11:01 AM
http://www.4shared.com/file/8909823/e72c0d82/chassis-NCF-philips-TODOS.html?dirP
wdVerified=fdb8908e
Pontuao 1 2 3 4 5 (5=Excelente) Editar Mensagem Apagar Mensagem Lock Thread Respon
d to this message
ALAIN/df
(Login alainsomeimagem)
Conselheiro SAMSUNG CL21K40mq
Sem pontuao para esta mensagem August 16 2007, 11:16 AM
http://www.4shared.com/file/22169392/80de9992/CL21K40MQ.html?dirPwdVerified=1cd7
0b91
Pontuao 1 2 3 4 5 (5=Excelente) Editar Mensagem Apagar Mensagem Lock Thread Respon
d to this message
ALAIN/df
(Login alainsomeimagem)
Conselheiro philips AS440
Sem pontuao para esta mensagem August 16 2007, 11:25 AM
http://www.4shared.com/file/22115473/94e3f1a7/Manual_de_Servio_AS440_Philips_udi
o.html?dirPwdVerified=f3dc3613
Pontuao 1 2 3 4 5 (5=Excelente) Editar Mensagem Apagar Mensagem Lock Thread Respon
d to this message
ALAIN/df
(Login alainsomeimagem)
Conselheiro mais esquemas DENON
Sem pontuao para esta mensagem August 16 2007, 11:27 AM
esquemas DENON varios 2
August 16 2007 at 10:57 AM
Sem pontuao para esta mensagem
v.santarem (Login v.santarem)
Conselheiro
--------------------------------------------------------------------------------

http://www.4shared.com/file/22162699/c6c605f0/-_DENON_AVR-1705685_smpart01.html?
dirPwdVerified=e188eb77
http://www.4shared.com/file/22162762/d74eaa80/-_DENON_AVR-1705685_smpart02.html?
dirPwdVerified=e188eb77
http://www.4shared.com/file/22162857/87554af1/-_DENON_AVR-1705685_smpart03.html?
dirPwdVerified=e188eb77
http://www.4shared.com/file/22163009/ab35a56e/-_DENON_AVR-1705685_smpart04.html?
dirPwdVerified=e188eb77
http://www.4shared.com/file/22163182/f5fc9cd9/-_DENON_AVR-1705685_smpart05.html?
dirPwdVerified=e188eb77
http://www.4shared.com/file/22163286/f0d7e699/-_DENON_AVR-1705685_smpart06.html?
dirPwdVerified=e188eb77
http://www.4shared.com/file/22163384/1f1bed82/-_DENON_AVR-1705685_smpart07.html?
dirPwdVerified=e188eb77
http://www.4shared.com/file/22163704/d0cbcf56/-_DENON_AVR-1705685_smpart08.html?
dirPwdVerified=e188eb77
http://www.4shared.com/file/22163871/e4bcea23/-_DENON_AVR-1705685_smpart09.html?
dirPwdVerified=e188eb77
http://www.4shared.com/file/22163996/e5993839/-_DENON_AVR-1705685_smpart10.html?
dirPwdVerified=e188eb77
http://www.4shared.com/file/22164771/723795a7/-_DENON_AVR-1705685_smpart11.html?
dirPwdVerified=e188eb77
http://www.4shared.com/file/22168192/3be62a99/Denon-PMA-520.html?dirPwdVerified=
e188eb77
http://www.4shared.com/file/22167837/e6d11d45/Denon_DRA-325R_Service.html?dirPwd
Verified=e188eb77

abrao de portugal

Pontuao 1 2 3 4 5 (5=Excelente) Editar Mensagem Apagar Mensagem Lock Thread Respon


d to this message
ALAIN/df
(Login alainsomeimagem)
Conselheiro LG 29CC9RL
Sem pontuao para esta mensagem August 16 2007, 11:44 AM
http://www.4shared.com/file/22170893/bbe420df/29CC9RL.html?dirPwdVerified=1cd70b
91
Pontuao 1 2 3 4 5 (5=Excelente)

Pontuao 1 2 3 4 5 (5=Excelente) Respond to this message


ALAIN/df

(Login alainsomeimagem)
201.11.131.126 BEHRINGER EP2500
Sem pontuao para esta mensagem August 16 2007, 7:57 PM
http://www.4shared.com/file/17311308/5722b675/behringer_ep2500.html?s=1
Pontuao 1 2 3 4 5 (5=Excelente) Respond to this message
Brown-Lucas-RJ
(Login Brown-Lucas-RJ)
201.51.92.9 MONITOR AOC 5EN -CHASSI D556BQ
Sem pontuao para esta mensagem November 9 2007, 5:35 PM
AOC 5EN -CHASSI D556BQ MONITOR
http://www.badongo.com/pt/file/5072975
Pontuao 1 2 3 4 5 (5=Excelente) Respond to this message
ciro
(Login cirosilva)
189.18.121.199 Re: continuao dele
Sem pontuao para esta mensagem August 16 2007, 8:07 PM
boa alain ,tem que ficar no alto
Pontuao 1 2 3 4 5 (5=Excelente) Respond to this message
luis carlos gomes
(Login luislokomeu)
201.15.136.47 Re: Sacanagem
Sem pontuao para esta mensagem August 16 2007, 8:04 PM
no entendi o que houve,imagine voce estar construindo algo e vem algum e enfia o p
no seu trabalho??
esquemas de tv e monitor
http://www.4shared.com/dir/2061495/1adf4e75/sharing.html
http://www.4shared.com/dir/3292210/ddbbdec0/sharing.html
Pontuao 1 2 3 4 5 (5=Excelente) Respond to this message
Vitor Trucco
(Login Vitortec)
201.29.170.35 Email retornando
Sem pontuao para esta mensagem August 16 2007, 11:14 PM

Enviei um email pedindo a senha para baixar um esquema conforme o tpico (Para bai
xar Os esquemas abaixo necessario senha, para conseguir a senha mande um email p
ara: c.otto@terra.com.br) e o email retornou dizendo ser endereo desconhecido
Pontuao 1 2 3 4 5 (5=Excelente) Respond to this message
Carlos
(Login Luis_Carlos)
189.11.110.71 Algum filho de....
Sem pontuao para esta mensagem August 16 2007, 11:30 PM
uma ronca e fua.
Procurei a tarde toda pra baixar o esquema da CCE Hps 2004B, e nada, cade os esq
uemas do Alain, fiquei triste, achei que foi o Alain que tinha deletado. Acho qu
e foi algum do PT ou PCC, bom, acho que a mesma coisa n. Falar de um ou de outro a
cho que levam ao mesmo lugar. Alm de eu ficar nervoso com um "ASSASSINO" te TV, q
ue simplesmente por sair do ar o cliente levou num "MEXNICO" filho de uma Lula o
qual trocou o Fly Back, sada horizontal e cincuitado a fonte, arrrrrrrhhhhh, vont
ade de enfiar o ferro de solda 50W no rabo do FDP fazer sair na boca do vagal. a
ff aff. E o pior, a TV dum chegadaaaaao meu.
1 abrao a todos, mais j baixei o esquema e enfiei a cabea dentro dum tanque de gua ge
lada e tambem j aproveitei e esfriei o chifre.
Carlos_Pr
Pontuao 1 2 3 4 5 (5=Excelente) Respond to this message
Carlos
(Login Luis_Carlos)
189.11.110.71 Algum filho de....
Sem pontuao para esta mensagem August 17 2007, 12:22 AM
uma ronca e fua.
Procurei a tarde toda pra baixar o esquema da CCE Hps 2004B, e nada, cade os esq
uemas do Alain, fiquei triste, achei que foi o Alain que tinha deletado. Acho qu
e foi algum do PT ou PCC, bom, acho que a mesma coisa n. Falar de um ou de outro a
cho que levam ao mesmo lugar. Alm de eu ficar nervoso com um "ASSASSINO" te TV, q
ue simplesmente por sair do ar o cliente levou num "MEXNICO" filho de uma Lula o
qual trocou o Fly Back, sada horizontal e cincuitado a fonte, arrrrrrrhhhhh, vont
ade de enfiar o ferro de solda 50W no rabo do FDP fazer sair na boca do vagal. a
ff aff. E o pior, a TV dum chegadaaaaao meu.
1 abrao a todos, mais j baixei o esquema e enfiei a cabea dentro dum tanque de gua ge
lada e tambem j aproveitei e esfriei o chifre.
Carlos_Pr
Pontuao 1 2 3 4 5 (5=Excelente) Respond to this message

Dirson
(Premier Login jomajero)
Forum Owner
201.14.217.177 digo que me caiu o c da bunda...
Sem pontuao para esta mensagem August 17 2007, 1:28 AM

Nem vou falar do assunto por hora at ver o que se passou aqui, apenas sinto em sa
ber que um dos meus melhores amigos ps em dvida a coisa que mais prezo nessa minha
vida. Isso foi uma lstima - irreparvel.
Na hora certa, com o devido esclarecimento se falar do posto.
[] Dirson
eletronica2001 - Manuais e Esquemas
Pontuao 1 2 3 4 5 (5=Excelente) Respond to this message
ALAIN/df
(Login alainsomeimagem)
200.140.5.131 senha do cleiton
Sem pontuao para esta mensagem August 17 2007, 12:11 PM
picaretasfora
Pontuao 1 2 3 4 5 (5=Excelente) Respond to this message
ALAIN/df
(Login alainsomeimagem)
200.140.5.131 philips 20pt324 e outras
Sem pontuao para esta mensagem August 17 2007, 12:12 PM
http://www.4shared.com/file/8906368/40a4eeb9/14pt314_316_414_20pt324_326_424_524
_21pt434_534-L9-2A.html?s=1
Pontuao 1 2 3 4 5 (5=Excelente) Respond to this message
ALAIN/df
(Login alainsomeimagem)
200.140.5.131 panasonic LCD TXD4L31
Sem pontuao para esta mensagem August 17 2007, 12:51 PM
http://www.4shared.com/file/22238229/3f2695d/PANASONIC_HL1_CHASSIS_TXD4L31_LCD_T
V_SM.html
Pontuao 1 2 3 4 5 (5=Excelente) Respond to this message

ALAIN/df
(Login alainsomeimagem)
200.140.5.131 FWC 250
Sem pontuao para esta mensagem August 17 2007, 2:05 PM
http://www.4shared.com/file/22248929/bd875aac/FW-C250.html?dirPwdVerified=bc876a
c0
Pontuao 1 2 3 4 5 (5=Excelente) Respond to this message
Rasia
(Login Rasia)
201.14.216.95 Semp-Toshiba-TG1HS3.rar
Sem pontuao para esta mensagem August 17 2007, 3:54 PM
http://www.4shared.com/file/18457913/efda6227/Semp-Toshiba-TG1HS3.html?dirPwdVer
ified=ef4757f5
Pontuao 1 2 3 4 5 (5=Excelente) Respond to this message
Rasia
(Login Rasia)
201.14.216.95 Guia de Conserto Chassi CPH05 Philco
Sem pontuao para esta mensagem August 17 2007, 4:09 PM
http://www.4shared.com/file/22258464/92e259f6/GUIA_DE_CONSERTO_CHASSI_CPH_05_Phi
lco.html?dirPwdVerified=f3dc3613
Pontuao 1 2 3 4 5 (5=Excelente) Respond to this message
Rasia
(Login Rasia)
201.14.216.95 Esquema Eltrico DVD Recorder Gradiente DR-660
Sem pontuao para esta mensagem August 17 2007, 4:13 PM
http://www.4shared.com/file/18907998/c4afad09/Esquema_Eltrico_DVD_Recorder_Gradi
ente_DR-660_Schematics.html?dirPwdVerified=ef4757f5
Pontuao 1 2 3 4 5 (5=Excelente) Respond to this message
Rasia
(Login Rasia)
201.10.41.176 Gradiente - Tuner - t1 Pcb 209 1- Esquema Eletrnico
Sem pontuao para esta mensagem August 17 2007, 8:33 PM
http://www.4shared.com/file/18907972/baf96999/Gradiente_-_Tuner_-_t1_Pcb_209_1-_
Esquema_Eletrnico.html?dirPwdVerified=ef4757f5

Pontuao 1 2 3 4 5 (5=Excelente) Respond to this message


Rasia
(Login Rasia)
201.10.41.176 MCS 230 Sistem Magnavox Manual de Servio
Sem pontuao para esta mensagem August 17 2007, 10:31 PM
http://www.4shared.com/file/20566377/3a5a03fa/MCS_230_Sistem_Magnavox_Manual__de
_Servio.html?dirPwdVerified=8ce31ad5
Pontuao 1 2 3 4 5 (5=Excelente) Respond to this message
Rasia
(Login Rasia)
201.10.41.176 Painel Eletrico Principal -MPEG-Fase 1 2 3 DVP Philips 3020K
Sem pontuao para esta mensagem August 17 2007, 10:35 PM
http://www.4shared.com/file/21699286/31d7bb09/Painel_Eletrico_Principal_-MPEG-Fa
se_1_2__3_DVP_Philips_3020K_DVP.html?dirPwdVerified=8ce31ad5
Amigos cuidado com o Stress.
Pontuao 1 2 3 4 5 (5=Excelente) Respond to this message
ALAIN/DF
(Login alainsomeimagem)
201.34.59.100 rasia
Sem pontuao para esta mensagem August 17 2007, 10:58 PM
estou gostando de ver
alain
Pontuao 1 2 3 4 5 (5=Excelente) Respond to this message
ALAIN/DF
(Login alainsomeimagem)
201.34.59.100 treinamento dvd sony 2 que o gilberto colocou
Sem pontuao para esta mensagem August 17 2007, 11:22 PM
http://www.4shared.com/file/22255586/11c7a7be/sony-dvp-ns50p.html?dirPwdVerified
=587021d0
Pontuao 1 2 3 4 5 (5=Excelente) Respond to this message
ALAIN/DF
(Login alainsomeimagem)

201.34.59.100 treinamento dvd sony que o gilberto colocou


Sem pontuao para esta mensagem August 17 2007, 11:24 PM
http://www.4shared.com/file/22255118/20b4992c/sony-dvp-ns325.html?dirPwdVerified
=587021d0
Pontuao 1 2 3 4 5 (5=Excelente) Respond to this message
Rasia
(Login Rasia)
201.10.41.176 KP 57WV-600 Sony Treinamento TV de Progeo Chassi DA-4X Prtico e terico
.
Sem pontuao para esta mensagem August 18 2007, 12:30 PM
http://www.4shared.com/file/22287976/cddc4e2f/KP_Sony_Treinamento_TV_de_Progeo.h
tml?dirPwdVerified=8ce31ad5
Pontuao 1 2 3 4 5 (5=Excelente) Respond to this message
ALAIN/df
(Login alainsomeimagem)
200.181.89.43 cdigos de autoradio todas as marcas
Sem pontuao para esta mensagem August 18 2007, 12:41 PM
http://www.4shared.com/file/22292075/51bafd98/Caraudio_Decoder-calculadores_de_c
odigos-auto_radios-todas_as_marcas.html?dirPwdVerified=5e566111
Pontuao 1 2 3 4 5 (5=Excelente) Respond to this message
ALAIN/df
(Login alainsomeimagem)
200.181.89.43 burlando o tubo defeituoso das PT'S philips
Sem pontuao para esta mensagem August 18 2007, 1:09 PM
http://www.4shared.com/file/22105840/12bd230a/burlando_o_tubo_defeituoso_da_phil
ips__pt_.html?dirPwdVerified=fdb8908e
Pontuao 1 2 3 4 5 (5=Excelente) Respond to this message
ALAIN/df
(Login alainsomeimagem)
200.181.89.43 LG LM1030
Sem pontuao para esta mensagem August 18 2007, 1:39 PM
http://www.4shared.com/file/21603063/be173473/LM-M1030A.html

Pontuao 1 2 3 4 5 (5=Excelente) Respond to this message


ALAIN/df
(Login alainsomeimagem)
200.181.89.43 Re: LG LM1030
Sem pontuao para esta mensagem August 18 2007, 1:46 PM
104B19/48 >>> http://www.4shared.com/file/11588642/10c1a358/4806_727_17230.html
105E11/68B >>> http://www.4shared.com/file/11541352/b7e9f279/4806_727_17256.html
105E19/68B >>> http://www.4shared.com/file/11541352/b7e9f279/4806_727_17256.html
105S11/48 >>> http://www.4shared.com/file/11888566/9b42a844/4806_727_17231.html
105S21/68B >>> http://www.4shared.com/file/11452797/88b6b4dd/4806_727_17254.html
105S29/68B >>> http://www.4shared.com/file/11452797/88b6b4dd/4806_727_17254.html
107E21/68B >>> http://www.4shared.com/file/11630142/217ede8d/4806_727_17255.html
107E29/68B >>> http://www.4shared.com/file/11630142/217ede8d/4806_727_17255.html
107S11/48 >>> http://www.4shared.com/file/11887874/3cec7b2c/4806_727_17226.html
107T21/75H >>> http://www.4shared.com/file/11499098/fb7d5c9/4806_727_17241.html
12BX1011 >>> http://www.4shared.com/file/11564466/d3f8d074/4806_727_17144.html
14GX1610 >>> http://www.4shared.com/file/11565293/983b23e3/4806_727_17149.html
14GX1616 >>> http://www.4shared.com/file/11567467/b64a4f0c/4806_727_17156.html
14GX1618 >>> http://www.4shared.com/file/11570013/59d8a407/4806_727_17165.html
14GX1619 >>> http://www.4shared.com/file/11583810/5e279c3a/4806_727_17193.html
14PT100G >>> http://www.4shared.com/file/11886745/d3263821/4806_727_17208.html
14PT110A >>> http://www.4shared.com/file/11588277/4c8facc8/4806_727_17198.html
14PT110B >>> http://www.4shared.com/file/11886694/104d1ccd/4806_727_17203.html
14PT111A >>> http://www.4shared.com/file/11588277/4c8facc8/4806_727_17198.html
14PT112A >>> http://www.4shared.com/file/11886694/104d1ccd/4806_727_17203.html
14PT113A >>> http://www.4shared.com/file/11886745/d3263821/4806_727_17208.html
14PT210A >>> http://www.4shared.com/file/11588277/4c8facc8/4806_727_17198.html
14PT212A >>> http://www.4shared.com/file/11886733/75040bd3/4806_727_17207.html
14PT218A/78R >>> http://www.4shared.com/file/11824005/52bc3b8a/4806_727_17249.ht
ml
14PT240S >>> http://www.4shared.com/file/11887540/18747fa5/4806_727_17218.html
14PT314A/78R >>> http://www.4shared.com/file/11811207/cf48042a/4806_727_17246.ht
ml
14PT316A >>> http://www.4shared.com/file/11888592/1bb77092/4806_727_17232.html
14PT316A/78R >>> http://www.4shared.com/file/11811207/cf48042a/4806_727_17246.ht
ml
14PT414A/78R >>> http://www.4shared.com/file/11811207/cf48042a/4806_727_17246.ht
ml
14PT418/78R >>> http://www.4shared.com/file/11449678/6d294044/4806_727_17252.htm
l
14PT616A >>> http://www.4shared.com/file/11888592/1bb77092/4806_727_17232.html
14PT616A/78R >>> http://www.4shared.com/file/11811207/cf48042a/4806_727_17246.ht
ml
14PV461/78 >>> http://www.4shared.com/file/11581636/25e5be0c/4806_727_17189.html
17A280BQ/77C >>> http://www.4shared.com/file/11579785/193ee374/4806_727_17184.ht
ml
17B1821W/80C >>> http://www.4shared.com/file/11572927/d040c0d9/4806_727_17169.ht
ml
17BL2022 >>> http://www.4shared.com/file/11564415/5b01709/4806_727_17143.html
20GX1650 >>> http://www.4shared.com/file/11565310/c8299266/4806_727_17150.html
20GX1656 >>> http://www.4shared.com/file/11567467/b64a4f0c/4806_727_17156.html
20GX1658 >>> http://www.4shared.com/file/11570013/59d8a407/4806_727_17165.html
20GX1659 >>> http://www.4shared.com/file/11583810/5e279c3a/4806_727_17193.html
20HT528A/78H >>> http://www.4shared.com/file/11481192/167457bf/4806_727_17257.ht
ml
20HT528A/78S >>> http://www.4shared.com/file/11481192/167457bf/4806_727_17257.ht

ml
20PT120A >>> http://www.4shared.com/file/11588277/4c8facc8/4806_727_17198.html
20PT120B >>> http://www.4shared.com/file/11886694/104d1ccd/4806_727_17203.html
20PT122A >>> http://www.4shared.com/file/11886694/104d1ccd/4806_727_17203.html
20PT123A >>> http://www.4shared.com/file/11886745/d3263821/4806_727_17208.html
20PT220A >>> http://www.4shared.com/file/11588277/4c8facc8/4806_727_17198.html
20PT222A >>> http://www.4shared.com/file/11886733/75040bd3/4806_727_17207.html
20PT228A/78R >>> http://www.4shared.com/file/11824005/52bc3b8a/4806_727_17249.ht
ml
20PT260S >>> http://www.4shared.com/file/11887540/18747fa5/4806_727_17218.html
20PT324A/78R >>> http://www.4shared.com/file/11811207/cf48042a/4806_727_17246.ht
ml
20PT326A >>> http://www.4shared.com/file/11888592/1bb77092/4806_727_17232.html
20PT326A/78R >>> http://www.4shared.com/file/11811207/cf48042a/4806_727_17246.ht
ml
20PT424A >>> http://www.4shared.com/file/11887557/9f0bdb47/4806_727_17223.html
20PT424A/78R >>> http://www.4shared.com/file/11811207/cf48042a/4806_727_17246.ht
ml
20PT428A/78R >>> http://www.4shared.com/file/11824005/52bc3b8a/4806_727_17249.ht
ml
20PT524A/78R >>> http://www.4shared.com/file/11811207/cf48042a/4806_727_17246.ht
ml
20PT528A/78R >>> http://www.4shared.com/file/11824005/52bc3b8a/4806_727_17249.ht
ml
20PT529A/78R >>> http://www.4shared.com/file/11471719/cfa2ef5c/4806_727_17262.ht
ml
20PV471/78 >>> http://www.4shared.com/file/11589567/e867ec69/4806_727_17200.html
2120DCGY02 >>> http://www.4shared.com/file/11570442/54a1c808/4806_727_17166.html
21A11202/01S >>> http://www.4shared.com/file/11574723/f8d87616/4806_727_17175.ht
ml
21B30300/01S >>> http://www.4shared.com/file/11570442/54a1c808/4806_727_17166.ht
ml
21GX1660 >>> http://www.4shared.com/file/11565321/9403f133/4806_727_17151.html
21GX1665 >>> http://www.4shared.com/file/11565321/9403f133/4806_727_17151.html
21GX1666 >>> http://www.4shared.com/file/11567467/b64a4f0c/4806_727_17156.html
21GX1668 >>> http://www.4shared.com/file/11570013/59d8a407/4806_727_17165.html
21GX1669 >>> http://www.4shared.com/file/11583810/5e279c3a/4806_727_17193.html
21PT230A >>> http://www.4shared.com/file/11589541/33322bde/4806_727_17199.html
21PT232A >>> http://www.4shared.com/file/11886733/75040bd3/4806_727_17207.html
21PT280S >>> http://www.4shared.com/file/11887540/18747fa5/4806_727_17218.html
21PT434A >>> http://www.4shared.com/file/11535654/6503dee0/4806_727_17238.html
21PT434A/78R >>> http://www.4shared.com/file/11811207/cf48042a/4806_727_17246.ht
ml
21PT534A/78R >>> http://www.4shared.com/file/11811207/cf48042a/4806_727_17246.ht
ml
21PT639A/78R >>> http://www.4shared.com/file/11484201/6b27f327/4806_727_17261.ht
ml
21PT836A >>> http://www.4shared.com/file/11588437/2c6e157e/4806_727_17229.html
21PT836A/78R >>> http://www.4shared.com/file/11823462/5c99ca/4806_727_17248.html
21PT838A/78R >>> http://www.4shared.com/file/11807652/dd57da50/4806_727_17243.ht
ml
21PT839A/78R >>> http://www.4shared.com/file/11484201/6b27f327/4806_727_17261.ht
ml
25GX1888 >>> http://www.4shared.com/file/11575638/cf6f938d/4806_727_17177.html
25GX1889 >>> http://www.4shared.com/file/11584430/f8dc3f65/4806_727_17195.html
25GX1989 >>> http://www.4shared.com/file/11587966/76a552a8/4806_727_17197.html
25PT848A/78R >>> http://www.4shared.com/file/11807652/dd57da50/4806_727_17243.ht
ml
28GR7580 >>> http://www.4shared.com/file/11564395/c8268b84/4806_727_17140.html
28GR7585 >>> http://www.4shared.com/file/11564507/f3672d53/4806_727_17147.html

28GR7680 >>> http://www.4shared.com/file/11564395/c8268b84/4806_727_17140.html


28GR7685 >>> http://www.4shared.com/file/11564507/f3672d53/4806_727_17147.html
28PW778B >>> http://www.4shared.com/file/11579815/c3a01f00/4806_727_17186.html
28PW858A/78R >>> http://www.4shared.com/file/11759838/b82ff354/4806_727_17251.ht
ml
29GX1898 >>> http://www.4shared.com/file/11575638/cf6f938d/4806_727_17177.html
29GX1899 >>> http://www.4shared.com/file/11584430/f8dc3f65/4806_727_17195.html
29GX1999 >>> http://www.4shared.com/file/11587966/76a552a8/4806_727_17197.html
29HT558A/78H >>> http://www.4shared.com/file/11481192/167457bf/4806_727_17257.ht
ml
29HT558A/78H >>> http://www.4shared.com/file/11481192/167457bf/4806_727_17257.ht
ml
29PD860A/78R >>> http://www.4shared.com/file/11821893/53d0847c/4806_727_17247.ht
ml
29PT458A/78R >>> http://www.4shared.com/file/11807652/dd57da50/4806_727_17243.ht
ml
29PT552A >>> http://www.4shared.com/file/11616660/a7a2c71a/4806_727_17209.html
29PT554A/78R >>> http://www.4shared.com/file/11823462/5c99ca/4806_727_17248.html
29PT558A/78R >>> http://www.4shared.com/file/11807652/dd57da50/4806_727_17243.ht
ml
29PT652A >>> http://www.4shared.com/file/11887532/b93b884e/4806_727_17216.html
29PT654A >>> http://www.4shared.com/file/11888600/263d14ae/4806_727_17233.html
29PT658A/78R >>> http://www.4shared.com/file/11807652/dd57da50/4806_727_17243.ht
ml
29PT752A >>> http://www.4shared.com/file/11887532/b93b884e/4806_727_17216.html
29PT785A >>> http://www.4shared.com/file/11579477/72ee20ce/4806_727_17183.html
29PT785C >>> http://www.4shared.com/file/11585008/629f2b2d/4806_727_17196.html
29PT854A >>> http://www.4shared.com/file/11585123/c6b9fa10/4806_727_17224.html
32PW878A/78R >>> http://www.4shared.com/file/11759838/b82ff354/4806_727_17251.ht
ml
32PW880A/78R >>> http://www.4shared.com/file/11449915/4e9edc42/4806_727_17253.ht
ml
32PW978B >>> http://www.4shared.com/file/11579795/25d235/4806_727_17185.html
33PT574A >>> http://www.4shared.com/file/11887890/a50292bb/4806_727_17228.html
33PT574A/78R >>> http://www.4shared.com/file/11823462/5c99ca/4806_727_17248.html
33PT578A/78R >>> http://www.4shared.com/file/11807652/dd57da50/4806_727_17243.ht
ml
33PT670A >>> http://www.4shared.com/file/11885258/a0f218d8/4806_727_17201.html
33PT772A >>> http://www.4shared.com/file/11887532/b93b884e/4806_727_17216.html
34PT8419/78R >>> http://www.4shared.com/file/11483891/2aa5f501/4806_727_17259.ht
ml
37KT6001 >>> http://www.4shared.com/file/11564363/a6dd327e/4806_727_17098.html
37PT782A >>> http://www.4shared.com/file/11887532/b93b884e/4806_727_17216.html
37PT784A >>> http://www.4shared.com/file/11887532/b93b884e/4806_727_17216.html
48PP790A >>> http://www.4shared.com/file/11886678/87787d68/4806_727_17202.html
48VP41C >>> http://www.4shared.com/file/11583185/f05ee873/4806_727_17191.html
4CM2299/77T >>> http://www.4shared.com/file/11576120/cf559395/4806_727_17178.htm
l
4CM5299/48T >>> http://www.4shared.com/file/11574214/4b5a729d/4806_727_17172.htm
l
4CM6282/75T/78T >>> http://www.4shared.com/file/11573759/ca9b3176/4806_727_17171
.html
50YP43C >>> http://www.4shared.com/file/11578183/4c6c5d96/4806_727_17234.html
53TP60C >>> http://www.4shared.com/file/11572481/cb141e35/4806_727_17168.html
53UP72G >>> http://www.4shared.com/file/11579466/1cf22119/4806_727_17182.html
54PP700A >>> http://www.4shared.com/file/11886678/87787d68/4806_727_17202.html
54VP51C >>> http://www.4shared.com/file/11583185/f05ee873/4806_727_17191.html
55YP43C >>> http://www.4shared.com/file/11578183/4c6c5d96/4806_727_17234.html
60VP51C >>> http://www.4shared.com/file/11583185/f05ee873/4806_727_17191.html
78M749/48T >>> http://www.4shared.com/file/11565421/914ce7b6/4806_727_17154.html

7CM5299/68T >>> http://www.4shared.com/file/11570787/8a38cdd2/4806_727_17167.htm


l
A10 >>> http://www.4shared.com/file/11561780/918016a4/4806_727_17235.html
A10A-DVD >>> http://www.4shared.com/file/11821893/53d0847c/4806_727_17247.html
A8 - Training >>> http://www.4shared.com/file/11886974/8592767e/4806_727_17215.h
tml
ACT7583/19 >>> http://www.4shared.com/file/11539268/a47d66c/4806_725_27076.html
AE1490/00 >>> http://www.4shared.com/file/11508065/886e630a/4806_725_17227.html
AE6890 >>> http://www.4shared.com/file/11508097/e1f81ee9/4806_725_17232.html
AH929/01/02 >>> http://www.4shared.com/file/11508059/aaf57ce2/4806_725_17223.htm
l
AH929/03 >>> http://www.4shared.com/file/11508050/d329c446/4806_725_17221.html
AJ3000/01 >>> http://www.4shared.com/file/11536380/c3be09b1/4806_725_27070.html
AJ3010/19 >>> http://www.4shared.com/file/11508126/74c99d83/4806_725_17235.html
AJ3015/19 >>> http://www.4shared.com/file/11508150/d2ebae71/4806_725_17239.html
AJ3180/19 >>> http://www.4shared.com/file/11508146/22933a05/4806_725_17238.html
AL233 >>> http://www.4shared.com/file/11508020/9c685281/4806_725_17215.html
ANUBIS >>> http://www.4shared.com/file/11565270/9fb15fd7/4806_727_17148.html
ANUBIS-S >>> http://www.4shared.com/file/11567317/fc44cf4e/4806_727_17155.html
ANUBIS-S LATAM >>> http://www.4shared.com/file/11884468/37ee50cc/4806_727_17158.
html
ANUBIS-VA >>> http://www.4shared.com/file/11569867/5f8fc15b/4806_727_17164.html
ANUBIS-VA AA >>> http://www.4shared.com/file/11575600/ea99487c/4806_727_17176.ht
ml
AQ4030/01 >>> http://www.4shared.com/file/11508141/bcf7afa6/4806_725_17237.html
AQ5130/01 >>> http://www.4shared.com/file/11508134/83dccdee/4806_725_17236.html
AQ6508/00 >>> http://www.4shared.com/file/11508074/e67262dd/4806_725_17230.html
AQ6513/00 >>> http://www.4shared.com/file/11508107/31f8cf97/4806_725_17233.html
AQ6518/00 >>> http://www.4shared.com/file/11508120/9daa38b6/4806_725_17234.html
AQ6524/00 >>> http://www.4shared.com/file/11508086/8fe41f3e/4806_725_17231.html
AR246/346 >>> http://www.4shared.com/file/11508027/20cc722/4806_725_17216.html
AR490 >>> http://www.4shared.com/file/11508035/f519974f/4806_725_17218.html
AR676 >>> http://www.4shared.com/file/11508040/ca32f507/4806_725_17220.html
AS125 >>> http://www.4shared.com/file/11508958/d22377fb/4806_725_27007.html
AS205 >>> http://www.4shared.com/file/11507562/48a22414/4806_725_17209.html
AS325 >>> http://www.4shared.com/file/11505419/3bfac9e7/4806_725_17207.html
AS325M >>> http://www.4shared.com/file/11505419/3bfac9e7/4806_725_17207.html
AS405 >>> http://www.4shared.com/file/11505470/147cd6c5/4806_725_17208.html
AS425 >>> http://www.4shared.com/file/11505419/3bfac9e7/4806_725_17207.html
AS440 >>> http://www.4shared.com/file/11510029/1d60eb7a/4806_725_27008.html
AS450 >>> http://www.4shared.com/file/11505408/55e6c830/4806_725_17206.html
AS450M >>> http://www.4shared.com/file/11505408/55e6c830/4806_725_17206.html
AS465 >>> http://www.4shared.com/file/11513282/616ca1f8/4806_725_27046.html
AS560 >>> http://www.4shared.com/file/11512221/ba367fad/4806_725_27019.html
AS565 >>> http://www.4shared.com/file/11512221/ba367fad/4806_725_27019.html
AS575 >>> http://www.4shared.com/file/11517227/648b2aaa/4806_725_27051.html
AS660C >>> http://www.4shared.com/file/11512221/ba367fad/4806_725_27019.html
AS665C >>> http://www.4shared.com/file/11512221/ba367fad/4806_725_27019.html
AS667C >>> http://www.4shared.com/file/11517152/59e6f6bb/4806_725_27049.html
AS675C >>> http://www.4shared.com/file/11517085/73ee7762/4806_725_27048.html
AS680C >>> http://www.4shared.com/file/11518159/96573f65/4806_725_27056.html
AS765C >>> http://www.4shared.com/file/11512221/ba367fad/4806_725_27019.html
AS785C >>> http://www.4shared.com/file/11517085/73ee7762/4806_725_27048.html
AS800C >>> http://www.4shared.com/file/11518159/96573f65/4806_725_27056.html
AS9100/19 >>> http://www.4shared.com/file/11508926/7adacc3b/4806_725_27005.html
AS9300 >>> http://www.4shared.com/file/11508349/b1a8f3fa/4806_725_27001.html
AS9400 >>> http://www.4shared.com/file/11508546/259a92d9/4806_725_27002.html
AS9604/21 >>> http://www.4shared.com/file/11508878/e1d77f4e/4806_725_27003.html
AW7030/01 >>> http://www.4shared.com/file/11507722/2f4a357e/4806_725_17211.html
AW7150 >>> http://www.4shared.com/file/11503439/2ca7f4b9/4806_725_17195.html

AW7301/01 >>> http://www.4shared.com/file/11507712/46766bd/4806_725_17210.html


AW7550 >>> http://www.4shared.com/file/11500823/cec67a6c/4806_725_17178.html
AW7730 >>> http://www.4shared.com/file/11500545/7927eb8c/4806_725_17176.html
AX1000/19 >>> http://www.4shared.com/file/11769201/a0e9e735/4806_725_27105.html
AX1001/19 >>> http://www.4shared.com/file/11766710/905d345f/4806_725_27100.html
AX1100/19 >>> http://www.4shared.com/file/11449461/e6a1dcf/4806_725_27127.html
AX1101/19 >>> http://www.4shared.com/file/11449461/e6a1dcf/4806_725_27127.html
AX2003/19 >>> http://www.4shared.com/file/11766614/96f29a71/4806_725_27099.html
AX2004/19 >>> http://www.4shared.com/file/11807163/8432af80/4806_725_27109.html
AZ1008/19 >>> http://www.4shared.com/file/11767982/1db3a455/4806_725_27103.html
AZ1010 >>> http://www.4shared.com/file/11505349/43c22b27/4806_725_17203.html
AZ1030 >>> http://www.4shared.com/file/11562888/86b27645/4806_725_27078.html
AZ1050/19 >>> http://www.4shared.com/file/11766553/6ebc748f/4806_725_27098.html
AZ1100 >>> http://www.4shared.com/file/11503520/4da2176b/4806_725_17196.html
AZ1101 >>> http://www.4shared.com/file/11503520/4da2176b/4806_725_17196.html
AZ1102 >>> http://www.4shared.com/file/11503520/4da2176b/4806_725_17196.html
AZ1103 >>> http://www.4shared.com/file/11504407/7de5b2c4/4806_725_17201.html
AZ1110 >>> http://www.4shared.com/file/11523684/c8a6d6c1/4806_725_27058.html
AZ1145/19 >>> http://www.4shared.com/file/11564318/7e4e7d31/4806_725_27089.html
AZ1155/01 >>> http://www.4shared.com/file/11436132/69cb69d/4806_725_27115.html
AZ1200/01 >>> http://www.4shared.com/file/11505366/e14b5434/4806_725_17205.html
AZ1202/01 >>> http://www.4shared.com/file/11503816/873472ce/4806_725_17197.html
AZ1207/01 >>> http://www.4shared.com/file/11504398/39d70299/4806_725_17200.html
AZ1500/19 >>> http://www.4shared.com/file/11443761/639143f2/4806_725_27124.html
AZ1508 >>> http://www.4shared.com/file/11502145/d4278bdb/4806_725_17183.html
AZ1550/19 >>> http://www.4shared.com/file/11538415/878627c1/4806_725_27075.html
AZ1565 >>> http://www.4shared.com/file/11536366/b45e810a/4806_725_27069.html
AZ1574/19 >>> http://www.4shared.com/file/11820858/d00b759d/4806_725_27108.html
AZ1575/19 >>> http://www.4shared.com/file/11767753/d584c784/4806_725_27102.html
AZ1602/01 >>> http://www.4shared.com/file/11503816/873472ce/4806_725_17197.html
AZ2000 >>> http://www.4shared.com/file/11522788/786e97b8/4806_725_27057.html
AZ2025/19 >>> http://www.4shared.com/file/11766404/8c6d7f5e/4806_725_27097.html
AZ2045/19 >>> http://www.4shared.com/file/11442080/37e62f0a/4806_725_27123.html
AZ2405 >>> http://www.4shared.com/file/11502604/c20368cc/4806_725_17185.html
AZ2407 >>> http://www.4shared.com/file/11518092/acf2c3d6/4806_725_27055.html
AZ2425/19 >>> http://www.4shared.com/file/11537315/daaa2112/4806_725_27071.html
AZ2600 >>> http://www.4shared.com/file/11502295/63cf4bcf/4806_725_17184.html
AZ2755 >>> http://www.4shared.com/file/11525224/102bc94b/4806_725_27068.html
AZ3708/01 >>> http://www.4shared.com/file/11502870/80b11718/4806_725_17188.html
AZ6815 >>> http://www.4shared.com/file/11508017/292194e1/4806_725_17213.html
AZ6834 >>> http://www.4shared.com/file/11500763/a1f6f855/4806_725_17177.html
AZ7261 >>> http://www.4shared.com/file/11501191/74519e61/4806_725_17181.html
AZ7261- 2 Verso >>> http://www.4shared.com/file/11503369/549f1679/4806_725_17194.h
tml
AZ7362 >>> http://www.4shared.com/file/11501448/bee89a63/4806_725_17182.html
AZ7363 >>> http://www.4shared.com/file/11503220/48ed01ee/4806_725_17192.html
AZ7383 >>> http://www.4shared.com/file/11504653/47b56f6/4806_725_17202.html
AZ7901/19 >>> http://www.4shared.com/file/11562187/19dc505b/4806_725_27077.html
AZ7901/19 Compl. >>> http://www.4shared.com/file/11564349/743eb9e2/4806_725_2709
1.html
AZ8051 >>> http://www.4shared.com/file/11581636/25e5be0c/4806_727_17189.html
AZ8348/01 >>> http://www.4shared.com/file/11499191/77a9075a/4806_725_17171.html
AZ9003/19 >>> http://www.4shared.com/file/11563284/3a2fd8dd/4806_725_27082.html
AZ9040/01 >>> http://www.4shared.com/file/11507732/3651043f/4806_725_17212.html
AZ9055 >>> http://www.4shared.com/file/11499774/9dcda2e9/4806_725_17173.html
AZ9350/01 >>> http://www.4shared.com/file/11499556/42717529/4806_725_17172.html
AZ9555 >>> http://www.4shared.com/file/11500011/5f6193b/4806_725_17174.html
AZ9855 >>> http://www.4shared.com/file/11500310/70b797f4/4806_725_17175.html
AZT9230/19 >>> http://www.4shared.com/file/11417924/3a8b4754/4806_725_27079.html
CD471 >>> http://www.4shared.com/file/11527241/9c1252c9/4806_725_17225.html

CD53U >>> http://www.4shared.com/file/12008410/d16922b0/4806_725_27066.html


CD63U/K/F >>> http://www.4shared.com/file/12008410/d16922b0/4806_725_27066.html
CDC751/01B >>> http://www.4shared.com/file/11518333/235ca593/4806_725_17186.html
CDC760/11S >>> http://www.4shared.com/file/12003417/980c3012/4806_725_27059.html
CDC765/11S >>> http://www.4shared.com/file/12003417/980c3012/4806_725_27059.html
CDR570/19 >>> http://www.rogepost.com/n/0988408573
CDR785/01C >>> http://www.4shared.com/file/12009944/1b17e6da/4806_725_27088.html
CDR786/19S >>> http://www.4shared.com/file/11542270/78a6340e/4806_725_27111.html
CDR870/11 >>> http://www.4shared.com/file/11525320/16846765/4806_725_17204.html
D1868/00 >>> http://www.4shared.com/file/11525320/16846765/4806_725_17204.html
DC700/AC >>> http://www.4shared.com/file/11525642/a81b6324/4806_725_17222.html
DC800 >>> http://www.4shared.com/file/11525618/35b97e7f/4806_725_17219.html
DS184 >>> http://www.4shared.com/file/11525347/deba5540/4806_725_17214.html
DVD615/782 >>> http://www.4shared.com/file/11542656/a4fa5b65/4806_727_17263.html
DVD616K/782 >>> http://www.4shared.com/file/11416123/1240e42a/4806_727_17264.htm
l
DVD703/781 >>> http://www.4shared.com/file/11808972/bc5eefb9/4806_727_17245.html
DVD707/782 >>> http://www.4shared.com/file/11483384/4f81df2e/4806_727_17258.html
DVD711/781 >>> http://www.4shared.com/file/11891824/5990f905/4806_727_17239.html
DVD720 >>> http://www.4shared.com/file/12010120/45bb2c7/4806_727_17221.html
DVD951/781 >>> http://www.4shared.com/file/11517785/76a161e7/4806_727_17240.html
ECO CD-SL >>> http://www.4shared.com/file/12001997/f204e1c2/4806_725_27050.html
EM1L >>> http://www.4shared.com/file/11483891/2aa5f501/4806_727_17259.html
EXP103/01 >>> http://www.4shared.com/file/12009209/d9fb082/4806_725_27087.html
EXP401/01 >>> http://www.4shared.com/file/11436223/6ac60913/4806_725_27116.html
F1010 >>> http://www.4shared.com/file/11525667/ea47f529/4806_725_17224.html
F1330 >>> http://www.4shared.com/file/11891882/4a1cb4ba/4806_725_17226.html
FB205 >>> http://www.4shared.com/file/11524760/cd5d6dd8/4806_725_17193.html
FB325 >>> http://www.4shared.com/file/11524789/2a02f8f2/4806_725_17199.html
FB425 >>> http://www.4shared.com/file/11524789/2a02f8f2/4806_725_17199.html
FB440 >>> http://www.4shared.com/file/11524789/2a02f8f2/4806_725_17199.html
FB465 >>> http://www.4shared.com/file/11524775/a42ca816/4806_725_17198.html
FB550 >>> http://www.4shared.com/file/11524760/cd5d6dd8/4806_725_17193.html
FB680 >>> http://www.4shared.com/file/12002978/ee8d7e33/4806_725_27056.html
FB732 >>> http://www.4shared.com/file/11524760/cd5d6dd8/4806_725_17193.html
FB800 >>> http://www.4shared.com/file/12002978/ee8d7e33/4806_725_27056.html
FB900/01S >>> http://www.4shared.com/file/11436285/794a44ac/4806_725_27117.html
FC731 >>> http://www.4shared.com/file/11523112/f548de38/4806_725_17187.html
FI430BL >>> http://www.4shared.com/file/11891927/c15bc288/4806_725_17229.html
FR310FL >>> http://www.4shared.com/file/11525376/82903615/4806_725_17217.html
FR732/01 >>> http://www.4shared.com/file/11523855/91b510/4806_725_17190.html
FR752/01 >>> http://www.4shared.com/file/11524723/3038f966/4806_725_17191.html
FR996/01S >>> http://www.4shared.com/file/11541814/36b37da9/4806_725_27110.html
FW11 >>> http://www.4shared.com/file/11539246/dfc999e9/4806_725_27012.html
FW15 >>> http://www.4shared.com/file/11893135/92540bd6/4806_725_27013.html
FW17 >>> http://www.4shared.com/file/11893764/9ca9b3b7/4806_725_27014.html
FW2010/21 >>> http://www.4shared.com/file/11517785/76a161e7/4806_727_17240.html
FW2012 >>> http://www.4shared.com/file/11537627/1942d116/4806_725_27006.html
FW2019/21 >>> http://www.4shared.com/file/11537036/73d3ac73/4806_725_27004.html
FW26 >>> http://www.4shared.com/file/11538012/1eeb1abe/4806_725_27009.html
FW316C >>> http://www.4shared.com/file/12002968/f7964f72/4806_725_27053.html
FW330 >>> http://www.4shared.com/file/11894295/f72a65bc/4806_725_27015.html
FW332 >>> http://www.4shared.com/file/11999261/4ee9b612/4806_725_27030.html
FW339C >>> http://www.4shared.com/file/12002968/f7964f72/4806_725_27053.html
FW352C >>> http://www.4shared.com/file/11999261/4ee9b612/4806_725_27030.html
FW356C >>> http://www.4shared.com/file/12002968/f7964f72/4806_725_27053.html
FW360 >>> http://www.4shared.com/file/11998224/e253e0fc/4806_725_27016.html
FW380C >>> http://www.4shared.com/file/12005074/753d312e/4806_725_27060.html
FW386C >>> http://www.4shared.com/file/12005074/753d312e/4806_725_27060.html
FW390C >>> http://www.4shared.com/file/12005074/753d312e/4806_725_27060.html

FW395C >>> http://www.4shared.com/file/12000004/da257db/4806_725_27032.html


FW398C >>> http://www.4shared.com/file/12005074/753d312e/4806_725_27060.html
FW46/56 >>> http://www.4shared.com/file/11538632/2850048e/4806_725_27010.html
FW548C >>> http://www.4shared.com/file/12005752/ab27e01c/4806_725_27061.html
FW630 >>> http://www.4shared.com/file/12040135/a5caf879/4806_725_27017.html
FW650C/41 >>> http://www.4shared.com/file/11999108/63291769/4806_725_27018.html
FW65C >>> http://www.4shared.com/file/12005074/753d312e/4806_725_27060.html
FW670P >>> http://www.4shared.com/file/12001163/7ce268ac/4806_725_27034.html
FW750C >>> http://www.4shared.com/file/12001906/54c16a1d/4806_725_27043.html
FW768P >>> http://www.4shared.com/file/12006856/b5a3ccd6/4806_725_27062.html
FW790P >>> http://www.4shared.com/file/12001906/54c16a1d/4806_725_27043.html
FW850C >>> http://www.4shared.com/file/12002545/b20ba829/4806_725_27052.html
FW860P >>> http://www.4shared.com/file/12002545/b20ba829/4806_725_27052.html
FW870C >>> http://www.4shared.com/file/12008313/4d2f658f/4806_725_27063.html
FW-C1/19 >>> http://www.4shared.com/file/12009187/20b8a9d4/4806_725_27083.html
FW-C10/19 >>> http://www.4shared.com/file/11572824/488bfb54/4806_725_27083.html
FW-C100/19 >>> http://www.4shared.com/file/11760405/de011014/4806_725_27092.html
FW-C155/19 >>> http://www.4shared.com/file/11437609/7904d36/4806_725_27119.html
FW-C250/19 >>> http://www.4shared.com/file/11762669/2860e75c/4806_725_27094.html
FW-C252/19 >>> http://www.4shared.com/file/11439984/5a7b8b8d/4806_725_27121.html
FW-C290/19 >>> http://www.4shared.com/file/11764801/5f14ba3e/4806_725_27095.html
FW-C30/19 >>> http://www.4shared.com/file/11564426/b7941570/4806_725_27072.html
FW-C38/19 >>> http://www.4shared.com/file/11567083/28ad0e47/4806_725_27073.html
FW-C380/19 >>> http://www.4shared.com/file/11820197/e3d01c8f/4806_725_27106.html
FW-C505/19 >>> http://www.4shared.com/file/11437158/8af9f60/4806_725_27118.html
FW-C555/19 >>> http://www.4shared.com/file/11438842/a6d36ce6/4806_725_27120.html
FW-C58/19 >>> http://www.4shared.com/file/11632448/6d693df3/4806_725_27080.html
FW-C700/19 >>> http://www.4shared.com/file/11434762/d56ff6e1/4806_725_27112.html
FW-C720/19 >>> http://www.4shared.com/file/11767291/91f42b4f/4806_725_27101.html
FW-C780/19 >>> http://www.4shared.com/file/11768743/94fce693/4806_725_27104.html
FW-C788/19 >>> http://www.4shared.com/file/11449193/6137a2c7/4806_725_27126.html
FW-C798/19 >>> http://www.4shared.com/file/11447119/a9e4b6e2/4806_725_27125.html
FW-C85/19 >>> http://www.4shared.com/file/11643757/ec17140f/4806_725_27084.html
FW-C870/19 >>> http://www.4shared.com/file/11765900/916d87fa/4806_725_27096.html
FW-D5/21 >>> http://www.4shared.com/file/12048121/7e0825ce/4806_725_27086.html
FW-R8/21 >>> http://www.4shared.com/file/11650266/992333ef/4806_725_27090.html
G8 >>> http://www.4shared.com/file/11633921/f28bd6e7/4806_727_17153.html
G8.1 >>> http://www.4shared.com/file/11576890/237071d1/4806_727_17160.html
G88 >>> http://www.4shared.com/file/11654437/18bc1cd9/4806_727_17180.html
GR1-AL >>> http://www.4shared.com/file/11650537/961ce1b9/4806_727_17120.html
GR1-AL (verso 2) >>> http://www.4shared.com/file/11650799/88cff05a/4806_727_17137
.html
GR1-CL >>> http://www.4shared.com/file/11632919/6fc16a73/4806_727_17145.html
GR1-L1 >>> http://www.4shared.com/file/11651784/57d9dac3/4806_727_17141.html
GR1-L1 (verso 2) >>> http://www.4shared.com/file/11633952/24c3119a/4806_727_17157
.html
GR1-R03 >>> http://www.4shared.com/file/11654600/ae710ed7/4806_727_17188.html
GR1-VA >>> http://www.4shared.com/file/11634713/a0e1f1bb/4806_727_17161.html
L01.1L >>> http://www.4shared.com/file/11807652/dd57da50/4806_727_17243.html
L01.1L 2K2 >>> http://www.4shared.com/file/11484201/6b27f327/4806_727_17261.html
L01.2L >>> http://www.4shared.com/file/11824005/52bc3b8a/4806_727_17249.html
L01.2L 2K2 >>> http://www.4shared.com/file/11471719/cfa2ef5c/4806_727_17262.html
L9.1A >>> http://www.4shared.com/file/11823462/5c99ca/4806_727_17248.html
L9.2A >>> http://www.4shared.com/file/11811207/cf48042a/4806_727_17246.html
LX3000/21L >>> http://www.4shared.com/file/11440968/26679b2/4806_725_27122.html
MC-10/19 >>> http://www.4shared.com/file/11760717/2b52fe20/4806_725_27093.html
MC105/19 >>> http://www.4shared.com/file/11435339/807f1495/4806_725_27114.html
MC110/19 >>> http://www.4shared.com/file/11435339/807f1495/4806_725_27114.html
MC-118 >>> http://www.4shared.com/file/11570408/d018e412/4806_725_27081.html
MC-170 >>> http://www.4shared.com/file/11560962/532f1069/4806_725_27035.html

MC-175 >>> http://www.4shared.com/file/11562470/6eb1bdc/4806_725_27067.html


MC200/19 >>> http://www.4shared.com/file/11435108/dfd1a3ae/4806_725_27113.html
MC-70/21 >>> http://www.4shared.com/file/11806729/bcba984d/4806_725_27107.html
PD5029C >>> http://www.4shared.com/file/11654444/cef4dba4/4806_727_17187.html
PTV781 >>> http://www.4shared.com/file/12049252/12ba3b8f/4806_727_17202.html
RT24A5T >>> http://www.4shared.com/file/12052002/8628b515/4806_727_17211.html
SW3000 >>> http://www.4shared.com/file/11440968/26679b2/4806_725_27122.html
TAPE DECK ETF6 >>> http://www.4shared.com/file/11561330/757d67b3/4806_725_27054.
html
TC73705T >>> http://www.4shared.com/file/12049910/948d7046/4806_727_17204.html
TC73745T >>> http://www.4shared.com/file/12049910/948d7046/4806_727_17204.html
TD9210 >>> http://www.4shared.com/file/11520902/f0f5112f/4806_725_17179.html
TD9215 >>> http://www.4shared.com/file/11522685/71d8132/4806_725_17180.html
TL24A5T >>> http://www.4shared.com/file/12052002/8628b515/4806_727_17211.html
TL960A5T >>> http://www.4shared.com/file/12052002/8628b515/4806_727_17211.html
VM6 >>> http://www.4shared.com/file/12051482/5b4d382f/4806_727_17210.html
VM6.1 >>> http://www.4shared.com/file/11630912/521a7b70/4806_727_17217.html
VR3520/78 >>> http://www.4shared.com/file/11651650/e4d80aa0/4806_727_17138.html
VR3522/78 (parte 1) >>> http://www.4shared.com/file/11652415/e1ef40ab/4806_727_1
7142.html
VR3522/78 (parte 2) >>> http://www.4shared.com/file/11633030/9346ecbf/4806_727_1
7146.html
VR354/78 >>> http://www.4shared.com/file/11634472/83fad8f2/4806_727_17159.html
VR355/78 >>> http://www.4shared.com/file/11653617/b4d9928c/4806_727_17174.html
VR407/78 >>> http://www.4shared.com/file/11808446/98c6eb30/4806_727_17244.html
VR410/78 >>> http://www.4shared.com/file/11545042/23d6ea36/4806_727_17236.html
VR43 >>> http://www.4shared.com/file/11651679/af32d086/4806_727_17139.html
VR453/78 >>> http://www.4shared.com/file/11633419/dfa59e45/4806_727_17152.html
VR454/78 >>> http://www.4shared.com/file/11634472/83fad8f2/4806_727_17159.html
VR455/78 >>> http://www.4shared.com/file/11653617/b4d9928c/4806_727_17174.html
VR456/78 >>> http://www.4shared.com/file/11654923/e127ad2/4806_727_17190.html
VR457/78 >>> http://www.4shared.com/file/12050432/58681/4806_727_17205.html
VR488/78 >>> http://www.4shared.com/file/12052990/b63554ff/4806_727_17212.html
VR553/78 >>> http://www.4shared.com/file/11633419/dfa59e45/4806_727_17152.html
VR556/78 >>> http://www.4shared.com/file/11654923/e127ad2/4806_727_17190.html
VR557/78 >>> http://www.4shared.com/file/12050432/58681/4806_727_17205.html
VR588/78 >>> http://www.4shared.com/file/12052990/b63554ff/4806_727_17212.html
VR599/78 >>> http://www.4shared.com/file/11559165/f9f0e128/4806_727_17222.html
VR607/78 >>> http://www.4shared.com/file/11808446/98c6eb30/4806_727_17244.html
VR610/78R >>> http://www.4shared.com/file/11545042/23d6ea36/4806_727_17236.html
VR615/78 >>> http://www.4shared.com/file/11545042/23d6ea36/4806_727_17236.html
VR654/78 >>> http://www.4shared.com/file/11635713/185d96de/4806_727_17162.html
VR755/78 >>> http://www.4shared.com/file/11653042/bd49eef4/4806_727_17170.html
VR756/78 >>> http://www.4shared.com/file/11655295/b06c8ea8/4806_727_17192.html
VR757/78 >>> http://www.4shared.com/file/11559165/f9f0e128/4806_727_17222.html
VR788/78 >>> http://www.4shared.com/file/12052990/b63554ff/4806_727_17212.html
VR799/78 >>> http://www.4shared.com/file/11559165/f9f0e128/4806_727_17222.html
VR857/78 >>> http://www.4shared.com/file/12051216/896f3bcd/4806_727_17206.html
VR988/78 >>> http://www.4shared.com/file/12056829/a2bdc8f0/4806_727_17214.html
VR999/78 >>> http://www.4shared.com/file/11518122/4ec4702a/4806_727_17237.html
VS22605R >>> http://www.4shared.com/file/12051482/5b4d382f/4806_727_17210.html
VS22805T >>> http://www.4shared.com/file/11635948/f8669619/4806_727_17163.html
VS22815R >>> http://www.4shared.com/file/11655301/67019bcf/4806_727_17194.html
VS23645T >>> http://www.4shared.com/file/11630912/521a7b70/4806_727_17217.html
VS23655T >>> http://www.4shared.com/file/12051482/5b4d382f/4806_727_17210.html
VS32805T >>> http://www.4shared.com/file/11653929/7310ab75/4806_727_17179.html
VS73705T >>> http://www.4shared.com/file/12049910/948d7046/4806_727_17204.html
VS73745T >>> http://www.4shared.com/file/12049910/948d7046/4806_727_17204.html
VS82505T >>> http://www.4shared.com/file/11653929/7310ab75/4806_727_17179.html
VSS7370/00T >>> http://www.4shared.com/file/12049910/948d7046/4806_727_17204.htm

l
VSS7374/00T >>> http://www.4shared.com/file/12049910/948d7046/4806_727_17204.htm
l

Pontuao 1 2 3 4 5 (5=Excelente) Respond to this message


ALAIN/df
(Login alainsomeimagem)
200.181.89.43 CCE RD87X
Sem pontuao para esta mensagem August 18 2007, 2:55 PM
http://www.4shared.com/file/22316547/e61c02af/RD87XB_EE.html?dirPwdVerified=f0e1
0d02
Pontuao 1 2 3 4 5 (5=Excelente) Respond to this message
Rasia
(Login Rasia)
201.10.41.176 treinamento DSC P72 sony Camera Digital
Sem pontuao para esta mensagem August 18 2007, 4:04 PM
http://www.4shared.com/file/22313851/2962f5ba/treinamento_DSC__P72_sony_Camera_D
igital_-.html?dirPwdVerified=8ce31ad5
Pontuao 1 2 3 4 5 (5=Excelente) Respond to this message
Rasia
(Login Rasia)
201.10.41.176 Modificaes quando no liga 220V, U17 Toshiba ultima circular
Sem pontuao para esta mensagem August 18 2007, 4:32 PM
http://www.4shared.com/file/21073429/59de8fb8/Modificaes_quando_no_liga__220V_U1
7_ultima_circular.html?dirPwdVerified=8ce31ad5
Pontuao 1 2 3 4 5 (5=Excelente) Respond to this message
Rasia
(Login Rasia)
201.10.41.176 J que a borracha apagou sozinha .Eletronica Basica Lenoxx.
Sem pontuao para esta mensagem August 18 2007, 4:35 PM
http://www.4shared.com/file/21349950/c912da92/Eletronica_Basica_Lenoxx.html?dirP
wdVerified=8ce31ad5
Pontuao 1 2 3 4 5 (5=Excelente) Respond to this message

Rasia
(Login Rasia)
201.10.41.176 Mod 14LR3 Panasonic Esquema e menu..
Sem pontuao para esta mensagem August 18 2007, 4:39 PM
http://www.4shared.com/file/21685553/86eab146/14LR3_Panasonic_Esquema_e_menu.htm
l?dirPwdVerified=8ce31ad5
Pontuao 1 2 3 4 5 (5=Excelente) Respond to this message
Rasia
(Login Rasia)
201.10.41.176 Treinamento Panasonic Chassi MX8 Mod TC29PL22
Sem pontuao para esta mensagem August 18 2007, 4:47 PM
http://www.4shared.com/file/22025265/eceab014/GUIA_de_Treinamento_Panasonic_Chas
si_MX8_Mod_TC29PL22.html?dirPwdVerified=f3dc3613
Sempre calmo!!!!!
Pontuao 1 2 3 4 5 (5=Excelente) Respond to this message
Rasia
(Login Rasia)
201.10.41.176 Treinamento Dvd Theater Panasonic Dvd-RV 30BR e RV60BR.Suplemento
Traduzido.
Sem pontuao para esta mensagem August 18 2007, 4:49 PM
http://www.4shared.com/file/21946158/30223028/Treinamento_Dvd_Theater_Panasonic_
_Dvd-RV_30BR_e_RV60BR.html?dirPwdVerified=f3dc3613

Pontuao 1 2 3 4 5 (5=Excelente) Respond to this message


Rasia
(Login Rasia)
201.10.41.176 Esquema Eltrico DVD Blueskay BlM
Sem pontuao para esta mensagem August 18 2007, 5:01 PM
http://www.4shared.com/file/22324272/55bd013d/Esquema_Eltrico_DVD_Blueskay_BlM.h
tml?dirPwdVerified=f3dc3613
Pontuao 1 2 3 4 5 (5=Excelente) Respond to this message
ALAIN/DF
(Login alainsomeimagem)
200.140.129.78 s o rasia est ajudando

Sem pontuao para esta mensagem August 18 2007, 5:33 PM


27 esquemas pionner,auto radios cd,e mdulos de potencia-p todos
August 18 2007 at 3:55 PM
Sem pontuao para esta mensagem
valdeni (Login valdeni)
Membro VIP
-------------------------------------------------------------------------------TODOS ESTO NO MEU DISCO,VIRTUAL
http://www.4shared.com/file/22313705/582482db/CX-3078.html?dirPwdVerified=133457
c3
http://www.4shared.com/file/22313853/c76c9496/CX-3098.html?dirPwdVerified=133457
c3
http://www.4shared.com/file/22314030/9bfb0bab/CX-3110.html?dirPwdVerified=133457
c3
http://www.4shared.com/file/22314303/2b99b78b/DEH-343R-DEH-344R-DEH-345R.html?di
rPwdVerified=133457c3
http://www.4shared.com/file/22314595/17b5d545/DEH-605RDS.html?dirPwdVerified=133
457c3
http://www.4shared.com/file/22314909/c6dbdb43/DEH-625.html?dirPwdVerified=133457
c3
http://www.4shared.com/file/22315177/d88d565e/DEH-1650-DEH-1650B.html?dirPwdVeri
fied=133457c3
http://www.4shared.com/file/22315383/5bfc5ae6/DEH-P26-DEH-P2600-DEH-P2650.html?d
irPwdVerified=133457c3
http://www.4shared.com/file/22315870/4938f872/DEH-P460MP-_DEH-P4600MP-_DEH-P4650
MP.html?dirPwdVerified=133457c3
http://www.4shared.com/file/22316182/3dca11f0/DEH-P560MP-_DEH-P5650MP.html?dirPw
dVerified=133457c3
http://www.4shared.com/file/22316183/4acd2166/DEH-P560MP-DEH-P5650MP.html?dirPwd
Verified=133457c3
http://www.4shared.com/file/22317116/53d909c5/DEH-P860MP-DEH-P8600MP-_DEH-P8650M
P.html?dirPwdVerified=133457c3
http://www.4shared.com/file/22317983/fc6217bb/DEH-P960MP-DEH-P9600MP-DEH-P9650MP
.html?dirPwdVerified=133457c3
http://www.4shared.com/file/22318356/6c5208f9/DEH-P3600-DEH-P3600MPB-_DEH-_P3630
M.html?dirPwdVerified=133457c3
http://www.4shared.com/file/22318765/d97fa25c/GM-5000T.html?dirPwdVerified=13345
7c3
http://www.4shared.com/file/22318938/d02707ae/GM-6000F.html?dirPwdVerified=13345
7c3

http://www.4shared.com/file/22319037/f7f546d5/GM-D510.html?dirPwdVerified=133457
c3
http://www.4shared.com/file/22319273/977093a6/KD-S890.html?dirPwdVerified=133457
c3
http://www.4shared.com/file/22319287/17854b70/KE-1818-1616-1033.html?dirPwdVerif
ied=133457c3
http://www.4shared.com/file/22319354/3ae00eb0/KEH-2300r-2100r-2400r.html?dirPwdV
erified=133457c3
http://www.4shared.com/file/22319418/5275911a/KEH-3600_2600.html?dirPwdVerified=
133457c3
http://www.4shared.com/file/22319429/e5ff24f/sobre_o_display_apagado-modificao_a
rquivos.html?dirPwdVerified=133457c3
http://www.4shared.com/file/22319431/199f4b3c/TROCA_DE_9KHZ_P_10KHZ_arquivos.htm
l?dirPwdVerified=133457c3
http://www.4shared.com/file/22319481/fa6b92f7/XR-P270_-170.html?dirPwdVerified=1
33457c3
http://www.4shared.com/file/22319654/3c2bcc5b/XR-P350.html?dirPwdVerified=133457
c3
http://www.4shared.com/file/22319727/eba16111/XR-P470.html?dirPwdVerified=133457
c3
http://www.4shared.com/file/22319873/9ae71670/XR-P560-760_-_Power_Module.html?di
rPwdVerified=133457c3
bom proveito amigos,

Pontuao 1 2 3 4 5 (5=Excelente) Respond to this message


luis carlos gomes
(Login luislokomeu)
201.3.128.67 Re: s o rasia est ajudando
Sem pontuao para esta mensagem August 18 2007, 11:38 PM

cdigos de flyback
http://www.4shared.com/file/16661259/180a5e86/codigos_de_fly_back.html
manuais de servio LG
http://www.4shared.com/file/11203628/5c3a11b8/Manuais_de_servio_LG.html
informativo de televisores e microondas CCE
http://www.4shared.com/file/11198325/78c53830/Informativos_de_Televisores_e_Micr

oondas.html
curso no-break
http://www.4shared.com/file/12356250/1f2311eb/no-break_-_curso_completo.html

esquemas de tv e monitor
http://www.4shared.com/dir/2061495/1adf4e75/sharing.html
http://www.4shared.com/dir/3292210/ddbbdec0/sharing.html
Pontuao 1 2 3 4 5 (5=Excelente) Respond to this message
ALAIN/DF
(Login alainsomeimagem)
200.140.164.29 technics pelo nosso portuga victor santarem
Sem pontuao para esta mensagem August 19 2007, 12:33 AM
esquemas TECHNICS varios 3
August 18 2007 at 11:27 PM
Sem pontuao para esta mensagem
v.santarem (Login v.santarem)
Conselheiro
-------------------------------------------------------------------------------http://www.4shared.com/file/22208846/8f202c4c/SA_G56_PP.html?dirPwdVerified=22b9
ea35
http://www.4shared.com/file/22209471/8bcf742d/SA_G67_PP.html?dirPwdVerified=22b9
ea35
http://www.4shared.com/file/22210633/42416251/SA_TX30_E_EB_EG.html?dirPwdVerifie
d=22b9ea35
http://www.4shared.com/file/22212690/8bae13ea/SA_TX30_GK.html?dirPwdVerified=22b
9ea35
http://www.4shared.com/file/22213634/ce90581c/SA_TX50_E_EB_EG_GU_GN.html?dirPwdV
erified=22b9ea35
http://www.4shared.com/file/22263752/c24bec88/SA_TX50_GK.html?dirPwdVerified=22b
9ea35
http://www.4shared.com/file/22265478/37858691/SE_A1000_GU.html?dirPwdVerified=22
b9ea35
http://www.4shared.com/file/22265505/7b706dc/SE_A3000_GK.html?dirPwdVerified=22b
9ea35
http://www.4shared.com/file/22264173/1e20fa97/SE_A800SM2_E_EB_EG.html?dirPwdVeri
fied=22b9ea35
http://www.4shared.com/file/22264588/963970c/SE_A900SM2_E_EB_EG.html?dirPwdVerif
ied=22b9ea35
http://www.4shared.com/file/22266626/bc7b2453/SH_AC300_E_EB_EG.html?dirPwdVerifi
ed=22b9ea35
http://www.4shared.com/file/22267145/cedba38f/SH_AC300_GC_GN.html?dirPwdVerified
=22b9ea35
http://www.4shared.com/file/22267534/f194ad02/SH_AC300_PP.html?dirPwdVerified=22
b9ea35
http://www.4shared.com/file/22270769/5161e09d/SH_AC500D_PP.html?dirPwdVerified=2
2b9ea35
http://www.4shared.com/file/22274761/d0d8fff8/SH_DJ1200_PP.html?dirPwdVerified=2
2b9ea35
http://www.4shared.com/file/22275043/b1138db6/SH_GE50_E_EB_EG.html?dirPwdVerifie

d=22b9ea35
http://www.4shared.com/file/22275235/14b56a2a/SH_GE50_GC_GN.html?dirPwdVerified=
22b9ea35

Pontuao 1 2 3 4 5 (5=Excelente) Respond to this message


ALAIN/DF
(Login alainsomeimagem)
200.140.164.29 LG F700PL e 720PL
Sem pontuao para esta mensagem August 19 2007, 2:00 AM
http://www.4shared.com/file/22348836/febdcfee/F700PL_F720PL_.html?dirPwdVerified
=4a196eb5
Pontuao 1 2 3 4 5 (5=Excelente) Respond to this message
ALAIN/DF
(Login alainsomeimagem)
200.163.22.98 AZ 2558
Sem pontuao para esta mensagem August 19 2007, 10:44 AM
http://friendlyfiles.net/dw_up/4e376b247558/AZ2558-mp3-sound-machine.pdf.html
Pontuao 1 2 3 4 5 (5=Excelente) Respond to this message
ALAIN/DF
(Login alainsomeimagem)
200.163.22.98 esquemas pioneer
Sem pontuao para esta mensagem August 19 2007, 10:56 AM
27 esquemas pionner,auto radios cd,e mdulos de potencia-p todos
August 18 2007 at 3:55 PM
Sem pontuao para esta mensagem
valdeni (Login valdeni)
Membro VIP
-------------------------------------------------------------------------------TODOS ESTO NO MEU DISCO,VIRTUAL
http://www.4shared.com/file/22313705/582482db/CX-3078.html?dirPwdVerified=133457
c3
http://www.4shared.com/file/22313853/c76c9496/CX-3098.html?dirPwdVerified=133457
c3
http://www.4shared.com/file/22314030/9bfb0bab/CX-3110.html?dirPwdVerified=133457
c3

http://www.4shared.com/file/22314303/2b99b78b/DEH-343R-DEH-344R-DEH-345R.html?di
rPwdVerified=133457c3
http://www.4shared.com/file/22314595/17b5d545/DEH-605RDS.html?dirPwdVerified=133
457c3
http://www.4shared.com/file/22314909/c6dbdb43/DEH-625.html?dirPwdVerified=133457
c3
http://www.4shared.com/file/22315177/d88d565e/DEH-1650-DEH-1650B.html?dirPwdVeri
fied=133457c3
http://www.4shared.com/file/22315383/5bfc5ae6/DEH-P26-DEH-P2600-DEH-P2650.html?d
irPwdVerified=133457c3
http://www.4shared.com/file/22315870/4938f872/DEH-P460MP-_DEH-P4600MP-_DEH-P4650
MP.html?dirPwdVerified=133457c3
http://www.4shared.com/file/22316182/3dca11f0/DEH-P560MP-_DEH-P5650MP.html?dirPw
dVerified=133457c3
http://www.4shared.com/file/22316183/4acd2166/DEH-P560MP-DEH-P5650MP.html?dirPwd
Verified=133457c3
http://www.4shared.com/file/22317116/53d909c5/DEH-P860MP-DEH-P8600MP-_DEH-P8650M
P.html?dirPwdVerified=133457c3
http://www.4shared.com/file/22317983/fc6217bb/DEH-P960MP-DEH-P9600MP-DEH-P9650MP
.html?dirPwdVerified=133457c3
http://www.4shared.com/file/22318356/6c5208f9/DEH-P3600-DEH-P3600MPB-_DEH-_P3630
M.html?dirPwdVerified=133457c3
http://www.4shared.com/file/22318765/d97fa25c/GM-5000T.html?dirPwdVerified=13345
7c3
http://www.4shared.com/file/22318938/d02707ae/GM-6000F.html?dirPwdVerified=13345
7c3
http://www.4shared.com/file/22319037/f7f546d5/GM-D510.html?dirPwdVerified=133457
c3
http://www.4shared.com/file/22319273/977093a6/KD-S890.html?dirPwdVerified=133457
c3
http://www.4shared.com/file/22319287/17854b70/KE-1818-1616-1033.html?dirPwdVerif
ied=133457c3
http://www.4shared.com/file/22319354/3ae00eb0/KEH-2300r-2100r-2400r.html?dirPwdV
erified=133457c3
http://www.4shared.com/file/22319418/5275911a/KEH-3600_2600.html?dirPwdVerified=
133457c3
http://www.4shared.com/file/22319429/e5ff24f/sobre_o_display_apagado-modificao_a
rquivos.html?dirPwdVerified=133457c3
http://www.4shared.com/file/22319431/199f4b3c/TROCA_DE_9KHZ_P_10KHZ_arquivos.htm
l?dirPwdVerified=133457c3

http://www.4shared.com/file/22319481/fa6b92f7/XR-P270_-170.html?dirPwdVerified=1
33457c3
http://www.4shared.com/file/22319654/3c2bcc5b/XR-P350.html?dirPwdVerified=133457
c3
http://www.4shared.com/file/22319727/eba16111/XR-P470.html?dirPwdVerified=133457
c3
http://www.4shared.com/file/22319873/9ae71670/XR-P560-760_-_Power_Module.html?di
rPwdVerified=133457c3
bom proveito amigos,

Pontuao 1 2 3 4 5 (5=Excelente) Respond to this message


ALAIN/DF
(Login alainsomeimagem)
200.163.22.98 TV PHILIPS 34 PW850
Sem pontuao para esta mensagem August 19 2007, 10:00 PM
http://www.4shared.com/file/22384025/ff9aac14/TV_Philips_chassis_EM1_2A_AA_-_SM.
html?dirPwdVerified=b9b2953d
Pontuao 1 2 3 4 5 (5=Excelente) Respond to this message
ALAIN/DF
(Login alainsomeimagem)
200.163.22.98 tv's da china
Sem pontuao para esta mensagem August 19 2007, 10:37 PM
esquemas TV CHINA varios 1
August 19 2007 at 9:34 PM
Sem pontuao para esta mensagem
v.santarem (Login v.santarem)
Conselheiro
-------------------------------------------------------------------------------http://www.4shared.com/file/22402483/e3016dd2/21_inch_China_Tv_with_-LA76810.htm
l?dirPwdVerified=36d6400a
http://www.4shared.com/file/22404417/10c54d5e/China_1240_Service_manual_CASIL.ht
ml?dirPwdVerified=36d6400a
http://www.4shared.com/file/22403824/362c8efa/China_2101F.html?dirPwdVerified=36
d6400a
http://www.4shared.com/file/22402741/a3fcfdab/China_3n10.html?dirPwdVerified=36d
6400a
http://www.4shared.com/file/22402739/e266e35e/China_3s10.html?dirPwdVerified=36d
6400a
http://www.4shared.com/file/22402737/5dece59/China_3S52__STV2110_TA8445___CTV814
8GT.html?dirPwdVerified=36d6400a

http://www.4shared.com/file/22403809/7aab90c5/China_456_VCT3803_MSP3463_TA8246_T
DA6108_TDA8359.html?dirPwdVerified=36d6400a
http://www.4shared.com/file/22402743/4df29c87/China_4S02_ASTRA.html?dirPwdVerifi
ed=36d6400a
http://www.4shared.com/file/22403814/1d01dd39/China_5N11-29-DIAGRAM.html?dirPwdV
erified=36d6400a
http://www.4shared.com/file/22403819/63b0a184/China_ch5N11-Diagram.html?dirPwdVe
rified=36d6400a
http://www.4shared.com/file/22403816/f30fbc15/China_Ch_SS2.html?dirPwdVerified=3
6d6400a
http://www.4shared.com/file/22404411/f9a6e86b/China_CHASSIS_HL13-M__TRINORMA.htm
l?dirPwdVerified=36d6400a
http://www.4shared.com/file/22404408/9961618e/China_CHASSIS_MT02.html?dirPwdVeri
fied=36d6400a
http://www.4shared.com/file/22404424/a2e14f27/China_CN9EA__2SC5287_TMP87PC38N_TB
1238_TA1275_TDA7067_TA8403.html?dirPwdVerified=36d6400a
http://www.4shared.com/file/22404420/a58c8b3e/CHINA_CON_2SC3807__LC863340_LA7683
2.html?dirPwdVerified=36d6400a
http://www.4shared.com/file/22404419/f77d6059/CHINA_CON__2SC3807_LC863324A-5S15.
html?dirPwdVerified=36d6400a

Pontuao 1 2 3 4 5 (5=Excelente) Respond to this message


ALAIN/DF
(Login alainsomeimagem)
200.163.22.98 panasonic plasma 42PA50E
Sem pontuao para esta mensagem August 20 2007, 12:48 AM
http://www.4shared.com/file/22411268/c1086338/PANASONIC_GP8DE_CHASSIS_42PA50E_PL
ASMA_TV_SM.html
Pontuao 1 2 3 4 5 (5=Excelente) Respond to this message
ALAIN/DF
(Login alainsomeimagem)
200.163.22.98 samsung lcd LTM295 WX
Sem pontuao para esta mensagem August 20 2007, 12:53 AM
http://www.4shared.com/file/22412002/66b65620/SAMSUNG_AL29NO_CHASSIS_LTM295WX__L
CD_TV_SM.html
Pontuao 1 2 3 4 5 (5=Excelente) Respond to this message
ALAIN/DF
(Login alainsomeimagem)
200.163.22.98 SAMSUNG PS42P2SDX plasma tv
Sem pontuao para esta mensagem August 20 2007, 1:03 AM

http://www.4shared.com/file/22412934/ab299b59/SAMSUNG_D53A_CHASSIS_PS42P2SDX_PLA
SMA_TV_SM.html
Pontuao 1 2 3 4 5 (5=Excelente) Respond to this message
Anonymous
(Login Rasia)
201.14.243.130 Monitor OAC
Sem pontuao para esta mensagem August 20 2007, 11:20 AM
http://www.4shared.com/file/18773081/acf13554/CMPC_D356N_-_D569N_ESQUEMA.html?di
rPwdVerified=869d2fc6
http://www.4shared.com/file/18773832/d81fec9d/AOC_CM-313_Monitor.html?dirPwdVeri
fied=869d2fc6
http://www.4shared.com/file/18773211/7eb75a73/AOC_5E_CHASSI_D556Q_ESQUEMA.html?d
irPwdVerified=869d2fc6

Pontuao 1 2 3 4 5 (5=Excelente) Respond to this message


ALAIN/df
(Login alainsomeimagem)
200.96.163.208 FWC170
Sem pontuao para esta mensagem August 20 2007, 1:38 PM
http://www.4shared.com/file/14272930/18027b24/FWC170.html?dirPwdVerified=e6a8112
7
Pontuao 1 2 3 4 5 (5=Excelente) Respond to this message
ALAIN/df
(Login alainsomeimagem)
200.96.163.208 LG F730
Sem pontuao para esta mensagem August 20 2007, 1:43 PM
http://www.4shared.com/file/20282406/2a04aaa0/LG_flatron_f730_bhsh.html
Pontuao 1 2 3 4 5 (5=Excelente) Respond to this message
Rasia
(Login Rasia)
201.14.243.130 Zenith - TVC Chassi CA - Training Manual
Sem pontuao para esta mensagem August 20 2007, 3:46 PM
http://www.4shared.com/file/18470341/96231941/Zenith__-_TVC_Chassi_CA_-_Training
_Manual.html?dirPwdVerified=332c7f77

Pontuao 1 2 3 4 5 (5=Excelente) Respond to this message


ALAIN/df
(Login alainsomeimagem)
200.96.163.208 aiwa NSX-D939
Sem pontuao para esta mensagem August 20 2007, 6:55 PM
http://www.2shared.com/file/2180183/174907ef/NSX-D939__RX-N939__FD-N939.html
Pontuao 1 2 3 4 5 (5=Excelente) Respond to this message
Vitor Trucco
(Login Vitortec)
201.29.170.168 Re: aiwa NSX-D939
Sem pontuao para esta mensagem August 20 2007, 10:42 PM
Up!
Pontuao 1 2 3 4 5 (5=Excelente) Respond to this message
Rasia
(Login Rasia)
201.14.243.130 Proview_AY565_LCD_Service_Maunal
Sem pontuao para esta mensagem August 21 2007, 10:45 AM
http://www.4shared.com/file/19825396/93624622/_2__Proview_AY565_LCD_Service_Maun
al.html?dirPwdVerified=8ec9e3c
Pontuao 1 2 3 4 5 (5=Excelente) Respond to this message
Rasia
(Login Rasia)
201.14.243.130 Britania_-_DVD_Matrix_10_-_Esquema_Eletrico.zip
Sem pontuao para esta mensagem August 21 2007, 10:46 AM
http://www.4shared.com/file/20566124/dda0726b/Britania_-_DVD_Matrix_10_-_Esquema
_Eletrico.html?dirPwdVerified=8ec9e3c
Pontuao 1 2 3 4 5 (5=Excelente) Respond to this message
Rasia
(Login Rasia)
201.14.243.130 Samsung_-_Circulares_de_Monitores
Sem pontuao para esta mensagem August 21 2007, 10:57 AM
http://www.4shared.com/file/19449110/3083712/Samsung_-_Circulares_de_Monitores.h

tml?dirPwdVerified=8ec9e3c
Pontuao 1 2 3 4 5 (5=Excelente) Respond to this message
ALAIN/df
(Login alainsomeimagem)
200.140.160.245 revistas elektor no 4shared
Sem pontuao para esta mensagem August 21 2007, 11:11 AM
Revistas ELEKTOR ,as que consegui upar.
August 21 2007 at 8:22 AM
Sem pontuao para esta mensagem
Wilson E. Macioti (Login echevengua)
do endereo IP 189.10.218.178
-------------------------------------------------------------------------------http://www.4shared.com/file/22338103/180b8f3d/Elektor_125__Octubre_.html?dirPwdV
erified=f0d0d28b
http://www.4shared.com/file/22337592/e1a4bc68/Elektor_124__Septiembre_.html?dirP
wdVerified=f0d0d28b
http://www.4shared.com/file/22337026/3f66351/Elektor_122-123__Julio-Agosto_.html
?dirPwdVerified=f0d0d28b
http://www.4shared.com/file/22336289/d29e2541/Elektor_121__Junio_.html?dirPwdVer
ified=f0d0d28b
http://www.4shared.com/file/22335809/5658571/Elektor_120__Mayo_.html?dirPwdVerif
ied=f0d0d28b
http://www.4shared.com/file/22335289/c02b8aaf/Elektor_119__Abril_.html?dirPwdVer
ified=f0d0d28b
http://www.4shared.com/file/22333729/1964ff12/Elektor_118__Marzo_.html?dirPwdVer
ified=f0d0d28b
http://www.4shared.com/file/22333177/87265ae2/Elektor_117__Febrero_.html?dirPwdV
erified=f0d0d28b
http://www.4shared.com/file/22332749/f7823ff1/Elektor_116__Enero_.html?dirPwdVer
ified=f0d0d28b
http://www.4shared.com/file/22332324/d8604c16/Elektor_115__Diciembre_.html?dirPw
dVerified=f0d0d28b
http://www.4shared.com/file/22331799/5099ee52/Elektor_114__Noviembre_.html?dirPw
dVerified=f0d0d28b
http://www.4shared.com/file/22331053/19b65ec5/Elektor_113__Octubre_.html?dirPwdV
erified=f0d0d28b
http://www.4shared.com/file/22328749/a55ff625/Elektor_112__Septiembre_.html?dirP
wdVerified=f0d0d28b
http://www.4shared.com/file/22328157/5f7196d1/Elektor_110-111__Julio-Agosto_.htm
l?dirPwdVerified=f0d0d28b
http://www.4shared.com/file/22327029/ae295770/Elektor_109__Junio_.html?dirPwdVer
ified=f0d0d28b
http://www.4shared.com/file/22326484/95c20cfe/Elektor_108__Mayo_.html?dirPwdVeri
fied=f0d0d28b
http://www.4shared.com/file/22325537/fc484156/Elektor_107__Abril_.html?dirPwdVer
ified=f0d0d28b
http://www.4shared.com/file/22324533/4399e22a/Elektor_105__Febrero_.html?dirPwdV
erified=f0d0d28b
http://www.4shared.com/file/22324097/b8d00c52/Elektor_104__Enero_.html?dirPwdVer
ified=f0d0d28b
http://www.4shared.com/file/22323573/ba221f97/Elektor_103__Diciembre_.html?dirPw
dVerified=f0d0d28b

http://www.4shared.com/file/22322912/2ad91686/Elektor_102__Noviembre_.html?dirPw
dVerified=f0d0d28b
http://www.4shared.com/file/22321441/d4ca8fc4/Elektor_101__Octubre_.html?dirPwdV
erified=f0d0d28b
http://www.4shared.com/file/22320888/b005e66d/Elektor_100__Septiembre_.html?dirP
wdVerified=f0d0d28b
http://www.4shared.com/file/22319757/a4e0f7d6/Elektor_098-099__Julio-Agosto_.htm
l?dirPwdVerified=f0d0d28b
http://www.4shared.com/file/22318977/24f4df3b/Elektor_097__Junio_.html?dirPwdVer
ified=f0d0d28b
http://www.4shared.com/file/22318477/2c2c4c68/Elektor_096__Mayo_.html?dirPwdVeri
fied=f0d0d28b
http://www.4shared.com/file/22317570/ebe9a3aa/Elektor_095__Abril_.html?dirPwdVer
ified=f0d0d28b
http://www.4shared.com/file/22316799/b78e858b/Elektor_094__Marzo_.html?dirPwdVer
ified=f0d0d28b
http://www.4shared.com/file/22315862/be2da81f/Elektor_093__Febrero_.html?dirPwdV
erified=f0d0d28b
http://www.4shared.com/file/22314857/5dd66836/Elektor_092__Enero_.html?dirPwdVer
ified=f0d0d28b
http://www.4shared.com/file/22314371/8ad64060/Elektor_091__Diciembre_.html?dirPw
dVerified=f0d0d28b
http://www.4shared.com/file/22313844/40133074/Elektor_090__Noviembre_.html?dirPw
dVerified=f0d0d28b
http://www.4shared.com/file/22313209/57590c1b/Elektor_089__Octubre_.html?dirPwdV
erified=f0d0d28b
http://www.4shared.com/file/22312629/dadaa120/Elektor_088__Septiembre_.html?dirP
wdVerified=f0d0d28b
http://www.4shared.com/file/22312222/4a01d074/Elektor_086-087__Julio-Agosto_.htm
l?dirPwdVerified=f0d0d28b
http://www.4shared.com/file/22311442/a63a4ae/Elektor_085__Junio_.html?dirPwdVeri
fied=f0d0d28b
http://www.4shared.com/file/22310960/663f5336/Elektor_084__Mayo_.html?dirPwdVeri
fied=f0d0d28b
http://www.4shared.com/file/22310568/61fe2260/Elektor_083__Abril_.html?dirPwdVer
ified=f0d0d28b
http://www.4shared.com/file/22310038/1a4214ce/Elektor_082__Marzo_.html?dirPwdVer
ified=f0d0d28b
http://www.4shared.com/file/22309660/2d0b7231/Elektor_081__Febrero_.html?dirPwdV
erified=f0d0d28b
http://www.4shared.com/file/22309201/b5f4dfd/Elektor_080__Enero_.html?dirPwdVeri
fied=f0d0d28b
http://www.4shared.com/file/22274002/1ac41f41/Elektor_079__Diciembre_.html?dirPw
dVerified=f0d0d28b
http://www.4shared.com/file/22273428/52f904b8/Elektor_078__Noviembre_.html?dirPw
dVerified=f0d0d28b
http://www.4shared.com/file/22272647/2f240da4/Elektor_077__Octubre_.html?dirPwdV
erified=f0d0d28b
http://www.4shared.com/file/22271541/d6b4b926/Elektor_076__Septiembre_.html?dirP
wdVerified=f0d0d28b
http://www.4shared.com/file/22270867/bd858aa7/Elektor_074-75__Julio-Agosto_.html
?dirPwdVerified=f0d0d28b
http://www.4shared.com/file/22270019/1b6f60df/Elektor_073__Junio_.html?dirPwdVer
ified=f0d0d28b
http://www.4shared.com/file/22268872/2c204e36/Elektor_072__Mayo_.html?dirPwdVeri
fied=f0d0d28b
http://www.4shared.com/file/22268212/77ed6c66/Elektor_071__Abril_.html?dirPwdVer
ified=f0d0d28b
http://www.4shared.com/file/22267334/f519d1b0/Elektor_070__Marzo_.html?dirPwdVer
ified=f0d0d28b

http://www.4shared.com/file/22266773/b0a44eae/Elektor_069__Febrero_.html?dirPwdV
erified=f0d0d28b
http://www.4shared.com/file/22266028/5f4e75e6/Elektor_068__Enero_.html?dirPwdVer
ified=f0d0d28b
http://www.4shared.com/file/22265609/c47f4ae/Elektor_067__Diciembre_.html?dirPwd
Verified=f0d0d28b
http://www.4shared.com/file/22263276/f1db88f8/Elektor_058__Marzo_.html?dirPwdVer
ified=f0d0d28b
http://www.4shared.com/file/22262686/c9f65b8e/Elektor_057__Febrero_.html?dirPwdV
erified=f0d0d28b
http://www.4shared.com/file/22262161/cc5ef526/Elektor_056__Enero_.html?dirPwdVer
ified=f0d0d28b
http://www.4shared.com/file/22261650/878e2f18/Elektor_055__Diciembre_.html?dirPw
dVerified=f0d0d28b
http://www.4shared.com/file/22261001/89739779/Elektor_054__Noviembre_.html?dirPw
dVerified=f0d0d28b
http://www.4shared.com/file/22258667/86fdc22/Elektor_053__Octubre_.html?dirPwdVe
rified=f0d0d28b
http://www.4shared.com/file/22258005/b4b6663a/Elektor_052__Septiembre_.html?dirP
wdVerified=f0d0d28b
http://www.4shared.com/file/22256703/b845a2b9/Elektor_049__Junio_.html?dirPwdVer
ified=f0d0d28b
http://www.4shared.com/file/22255904/3e0ab5fe/Elektor_048__Mayo_.html?dirPwdVeri
fied=f0d0d28b
http://www.4shared.com/file/22255273/e37a597b/Elektor_047__Abril_.html?dirPwdVer
ified=f0d0d28b
http://www.4shared.com/file/22253156/860b2ef3/Elektor_045__Febrero_.html?dirPwdV
erified=f0d0d28b
http://www.4shared.com/file/22252447/56608aaa/Elektor_044__Enero_.html?dirPwdVer
ified=f0d0d28b
http://www.4shared.com/file/22251512/480a4fb9/Elektor_043__Diciembre_.html?dirPw
dVerified=f0d0d28b
http://www.4shared.com/file/22250693/4d2e2c1b/Elektor_042__Noviembre_.html?dirPw
dVerified=f0d0d28b
http://www.4shared.com/file/22246594/c907718d/Elektor_037__Junio_.html?dirPwdVer
ified=f0d0d28b
http://www.4shared.com/file/22245986/25bd776a/Elektor_036__Mayo_.html?dirPwdVeri
fied=f0d0d28b
http://www.4shared.com/file/22245280/c08b3dbe/Elektor_035__Abril_.html?dirPwdVer
ified=f0d0d28b
http://www.4shared.com/file/22244605/c78d8c80/Elektor_034__Marzo_.html?dirPwdVer
ified=f0d0d28b
http://www.4shared.com/file/22242584/5f7ed79b/Elektor_033__Febrero_.html?dirPwdV
erified=f0d0d28b
http://www.4shared.com/file/22241949/96d5b2a0/Elektor_032__Enero_.html?dirPwdVer
ified=f0d0d28b
http://www.4shared.com/file/22241283/d6e0fb53/Elektor_031__Diciembre_.html?dirPw
dVerified=f0d0d28b
http://www.4shared.com/file/22240624/dde49c3/Elektor_030__Noviembre_.html?dirPwd
Verified=f0d0d28b
http://www.4shared.com/file/22240091/9acd1835/Elektor_029__Octubre_.html?dirPwdV
erified=f0d0d28b
http://www.4shared.com/file/22239372/502949c2/Elektor_028__Septiembre_.html?dirP
wdVerified=f0d0d28b
http://www.4shared.com/file/22238814/5bf9c3f5/Elektor_025__Junio_.html?dirPwdVer
ified=f0d0d28b
http://www.4shared.com/file/22238263/874b4547/Elektor_024__Mayo_.html?dirPwdVeri
fied=f0d0d28b
http://www.4shared.com/file/22237726/cde5a671/Elektor_023__Abril_.html?dirPwdVer
ified=f0d0d28b

http://www.4shared.com/file/22237310/8a2f85b/Elektor_022__Marzo_.html?dirPwdVeri
fied=f0d0d28b
http://www.4shared.com/file/22236963/6bc1dd95/Elektor_021__Febrero_.html?dirPwdV
erified=f0d0d28b
http://www.4shared.com/file/22236661/8e93fb84/Elektor_020__Enero_.html?dirPwdVer
ified=f0d0d28b
http://www.4shared.com/file/22277425/a32aef52/_2__Elektor_079__Diciembre_.html?d
irPwdVerified=f0d0d28b
http://www.4shared.com/file/22277036/24312775/_2__Elektor_078__Noviembre_.html?d
irPwdVerified=f0d0d28b
http://www.4shared.com/file/22276593/10c39efe/_2__Elektor_077__Octubre_.html?dir
PwdVerified=f0d0d28b
http://www.4shared.com/file/22276059/5a68fa07/_2__Elektor_076__Septiembre_.html?
dirPwdVerified=f0d0d28b
http://www.4shared.com/file/22275557/a9aeba05/_2__Elektor_074-75__Julio-Agosto_.
html?dirPwdVerified=f0d0d28b
talvez algum outro colega se habilite a colocar a outra parte,sds.
Do extremo sul do brasil

Pontuao 1 2 3 4 5 (5=Excelente) Respond to this message


ALAIN/df
(Login alainsomeimagem)
200.140.160.245 manuis de cameras panasonic
Sem pontuao para esta mensagem August 21 2007, 11:13 AM
http://free-service-manuals.blogspot.com/
Pontuao 1 2 3 4 5 (5=Excelente) Respond to this message
ALAIN/df
(Login alainsomeimagem)
200.140.160.245 PROVIEW 456 e 462
Sem pontuao para esta mensagem August 21 2007, 1:24 PM
http://www.4shared.com/file/18595242/4d5abf3a/Proview_456_e_462.html
Pontuao 1 2 3 4 5 (5=Excelente) Respond to this message
ALAIN/df
(Login alainsomeimagem)
200.140.160.245 tv china 4
Sem pontuao para esta mensagem August 21 2007, 1:32 PM
esquemas TV CHINA varios 4
August 21 2007 at 10:58 AM

Sem pontuao para esta mensagem


v.santarem (Login v.santarem)
Conselheiro
-------------------------------------------------------------------------------http://www.4shared.com/file/22517943/868ebbaa/china-ctv-8148-8208.html?dirPwdVer
ified=a508e1d3
http://www.4shared.com/file/22517938/5e1df4e5/china-tv.html?dirPwdVerified=a508e
1d3
http://www.4shared.com/file/22517974/33c77dca/CHINA_TV_chassis_CJ14.html?dirPwdV
erified=a508e1d3
http://www.4shared.com/file/22517973/ada3e869/CHINA_TV_chassis_CJ16.html?dirPwdV
erified=a508e1d3
http://www.4shared.com/file/22517967/b3d51d31/CHINA_TV_chassis_CJ20_fly_bsc26.ht
ml?dirPwdVerified=a508e1d3
http://www.4shared.com/file/22517961/5ab6b804/China_tv_cn9ea__2sc5287_tmp87pc38n
_tb1238_ta1275_tda7067_ta8403_105.html?dirPwdVerified=a508e1d3
http://www.4shared.com/file/22517960/2db18892/China_TV_CTV2811N-JL.html?dirPwdVe
rified=a508e1d3
http://www.4shared.com/file/22517954/1f11f48/China_tv_P21A79.html?dirPwdVerified
=a508e1d3
http://www.4shared.com/file/22517952/e892ba7d/China_TV_various_-_service_modespa
rt1.html?dirPwdVerified=a508e1d3
http://www.4shared.com/file/22517949/665b52b4/China_TV_various_-_service_modespa
rt2.html?dirPwdVerified=a508e1d3
http://www.4shared.com/file/22517948/115c6222/China_TV_various_-_service_modespa
rt3.html?dirPwdVerified=a508e1d3
http://www.4shared.com/file/22517946/f6e44f25/China_TV_various_-_service_modespa
rt4.html?dirPwdVerified=a508e1d3
http://www.4shared.com/file/22517944/18ea2e09/China_TV_various_-_service_modespa
rt5.html?dirPwdVerified=a508e1d3
http://www.4shared.com/file/22517940/1f87ea10/ChinaTH2029__PAL.html?dirPwdVerifi
ed=a508e1d3
http://www.4shared.com/file/22519313/16b1bd0a/tvchina.html?dirPwdVerified=a508e1
d3

abrao de portugal

Pontuao 1 2 3 4 5 (5=Excelente) Respond to this message


ALAIN/df
(Login alainsomeimagem)
200.140.160.245 tv china 3
Sem pontuao para esta mensagem August 21 2007, 1:44 PM
esquemas TV CHINA varios 3
August 20 2007 at 11:23 PM
Sem pontuao para esta mensagem
v.santarem (Login v.santarem)
Conselheiro
--------------------------------------------------------------------------------

http://www.4shared.com/file/22488221/aca03363/CHINA_MOD___AT-2175-MA1__LA76818_P
AL.html?dirPwdVerified=852b4fcb
http://www.4shared.com/file/22488219/8956e892/China_MT02.html?dirPwdVerified=852
b4fcb
http://www.4shared.com/file/22488216/19e9f503/China_PF29T18__sch.html?dirPwdVeri
fied=852b4fcb
http://www.4shared.com/file/22488213/6983018c/China_SS1.html?dirPwdVerified=852b
4fcb
http://www.4shared.com/file/22488209/904dd9d3/China_TH2029.html?dirPwdVerified=8
52b4fcb
http://www.4shared.com/file/22488208/e74ae945/China_TV2K__2SD1710_ST92195_STV224
8_TDA8174.html?dirPwdVerified=852b4fcb
http://www.4shared.com/file/22488206/f2c442/China_TV3K.html?dirPwdVerified=852b4
fcb
http://www.4shared.com/file/22488205/99fb95f8/China_TV4K__2SC5299_ST92195_STV224
6_STV9306.html?dirPwdVerified=852b4fcb
http://www.4shared.com/file/22488203/709830cd/CHINA_tv_3s10strg6653st92185stv224
8.html?dirPwdVerified=852b4fcb
http://www.4shared.com/file/22488199/43c9dcc3/CHINA_TV__2SC5148_LA8633XX_LA76810
_LA4285_LA7840.html?dirPwdVerified=852b4fcb
http://www.4shared.com/file/22488190/3a156467/CHINA_TV__2SC5148_LA8633XX_LA76810
_LA4285_LA7840.html?dirPwdVerified=852b4fcb
http://www.4shared.com/file/22488184/2463913f/CHINA_TV_chassis_CJ11.html?dirPwdV
erified=852b4fcb
http://www.4shared.com/file/22488178/aa4dc1db/CHINA_TV_chassis_CJ13.html?dirPwdV
erified=852b4fcb
http://www.4shared.com/file/22488176/4df5ecdc/CHINA_TV_chassis_CJ13_TB1238.html?
dirPwdVerified=852b4fcb

abrao de portugal
Pontuao 1 2 3 4 5 (5=Excelente) Editar Mensagem Apagar Mensagem Lock Thread Respon
d to this message

Pontuao 1 2 3 4 5 (5=Excelente) Respond to this message


ALAIN/df
(Login alainsomeimagem)
200.96.248.85 AZ 3067
Sem pontuao para esta mensagem August 21 2007, 4:27 PM
http://www.network54.com/Forum/183758/thread/1187713536/last-1187713536/philipsAZ-3067-para+todos
Pontuao 1 2 3 4 5 (5=Excelente) Respond to this message
ALAIN/df
(Login alainsomeimagem)
200.96.248.85 AZ 4000
Sem pontuao para esta mensagem August 21 2007, 4:41 PM

http://www.4shared.com/file/22538638/77e2f0ee/AZ-4000.html?dirPwdVerified=bc876a
c0
Pontuao 1 2 3 4 5 (5=Excelente) Respond to this message
ALAIN/df
(Login alainsomeimagem)
200.96.248.85 AZ1140 e outros
Sem pontuao para esta mensagem August 21 2007, 5:13 PM
http://www.4shared.com/file/22538796/6b775f54/az-1140-1141-1142-1143-1144-1145.h
tml?dirPwdVerified=bc876ac0
Pontuao 1 2 3 4 5 (5=Excelente) Respond to this message
ALAIN/df
(Login alainsomeimagem)
200.96.248.85 samsung lcd 510 710 910
Sem pontuao para esta mensagem August 21 2007, 5:25 PM
http://www.4shared.com/file/22288776/9f217373/LCD_Monitor_510_710_910.html
Pontuao 1 2 3 4 5 (5=Excelente) Respond to this message
ALAIN/df
(Login alainsomeimagem)
200.96.248.85 tv china 5
Sem pontuao para esta mensagem August 21 2007, 5:29 PM
esquemas TV CHINA varios 5
August 21 2007 at 4:22 PM
Sem pontuao para esta mensagem
v.santarem (Login v.santarem)
Conselheiro
-------------------------------------------------------------------------------http://www.4shared.com/file/22529337/644a6141/Codigos_de_error_12_y_China.html?d
irPwdVerified=eb9d3f88
http://www.4shared.com/file/22529336/134d51d7/CURSO_Television_china.html?dirPwd
Verified=eb9d3f88
http://www.4shared.com/file/22529335/8a44006d/Curso_TV_CHINAS__contrasea_130652_
.html?dirPwdVerified=eb9d3f88
http://www.4shared.com/file/22529333/6327a558/DVD_-_China_DVD-815_schematic.html
?dirPwdVerified=eb9d3f88
http://www.4shared.com/file/22529331/8d29c474/IC_Supply_CHINA_DVD.html?dirPwdVer
ified=eb9d3f88
http://www.4shared.com/file/22529330/fa2ef4e2/KONKA_K2169_china.html?dirPwdVerif
ied=eb9d3f88

http://www.4shared.com/file/22529323/7a3c9419/Konka_T3498_3898__TDA9143_TDA8351_
TDA9151_TDA4605_3___100HZ_TV_konka_china.html?dirPwdVerified=eb9d3f88
http://www.4shared.com/file/22529322/d3ba48f/modo_de_servicio_tv_cronw__china_.h
tml?dirPwdVerified=eb9d3f88
http://www.4shared.com/file/22541849/8a12e82f/Panasonic__TC-20LA2G_hecho_en_chin
a.html?dirPwdVerified=eb9d3f88
http://www.4shared.com/file/22541840/f3ce508b/TOSHIBA__29JF6C_HECHO_EN_CHINA.htm
l?dirPwdVerified=eb9d3f88
http://www.4shared.com/file/22541828/ab4f7f3f/Toshiba_MOD_29g3SHC_CHINA.html?dir
PwdVerified=eb9d3f88
http://www.4shared.com/file/22545950/64759caa/TV-CHINA-20TD29M8807HR.html?dirPwd
Verified=eb9d3f88
http://www.4shared.com/file/22545961/385fffff/TV20_China_TDA937_AN7522_LA78045.h
tml?dirPwdVerified=eb9d3f88
http://www.4shared.com/file/22545953/fd7ccd10/tv_China_Konka_K2979PY_KP2171PY__w
ith_TDA9378_TDA9859__-_sch.html?dirPwdVerified=eb9d3f88

Pontuao 1 2 3 4 5 (5=Excelente) Respond to this message


Rasia
(Login Rasia)
201.10.43.15 Manual de Servio GBA Nintendo Game
Sem pontuao para esta mensagem August 21 2007, 5:43 PM
http://www.4shared.com/file/22549938/76220ca6/Manual_de_Servio_GBA_Nintendo_Game
.html?dirPwdVerified=f3dc3613
Pontuao 1 2 3 4 5 (5=Excelente) Respond to this message
ALAIN/df
(Login alainsomeimagem)
200.96.248.85 FW 850 e 860C
Sem pontuao para esta mensagem August 21 2007, 5:44 PM
http://www.4shared.com/file/16267457/45c512f9/FW850C_860c.html?s=1
Pontuao 1 2 3 4 5 (5=Excelente) Respond to this message
ALAIN/df
(Login alainsomeimagem)
200.96.248.85 burlando o tubo defeituoso das PT'S philips
Pontuao 5.0 (1 pessoa) August 21 2007, 6:43 PM
http://www.4shared.com/file/22105840/12bd230a/burlando_o_tubo_defeituoso_da_phil
ips__pt_.html?dirPwdVerified=fdb8908e
Pontuao 1 2 3 4 5 (5=Excelente) Respond to this message

ALAIN/df
(Login alainsomeimagem)
200.96.248.85 panasonic informao tcnica
Sem pontuao para esta mensagem August 21 2007, 7:29 PM
http://www.4shared.com/file/22317054/d879c7da/panasonic_inf_tecnica.html
Pontuao 1 2 3 4 5 (5=Excelente) Respond to this message
ALAIN/df
(Login alainsomeimagem)
200.96.248.85 Re: panasonic informao tcnica
Sem pontuao para esta mensagem August 21 2007, 8:10 PM
http://www.4shared.com/file/22560370/16cad8ac/az1510_ms.html
Pontuao 1 2 3 4 5 (5=Excelente) Respond to this message
ALAIN/df
(Login alainsomeimagem)
200.96.248.85 samsung SP47W3HF1X
Sem pontuao para esta mensagem August 21 2007, 8:38 PM
http://www.4shared.com/file/22562394/252df9b0/SAMSUNG_J54A_CHASSIS_SP47W3HF1X_PR
OJECTION_TV_SM.html
Pontuao 1 2 3 4 5 (5=Excelente) Respond to this message
ALAIN/df
(Login alainsomeimagem)
200.96.248.85 AZ1510
Sem pontuao para esta mensagem August 21 2007, 8:52 PM
http://www.4shared.com/file/22560370/16cad8ac/az1510_ms.html
Pontuao 1 2 3 4 5 (5=Excelente) Respond to this message
Anonymous
(Login alainsomeimagem)
200.140.85.118 samsung SP43T7HPS
Sem pontuao para esta mensagem August 21 2007, 10:05 PM
http://www.4shared.com/file/22563304/4c53259c/SAMSUNG_J54A_CHASSIS_SP43T7HPS_PRO
JECTION_TV_SM.html

Pontuao 1 2 3 4 5 (5=Excelente) Respond to this message


ALAIN/DF
(Login alainsomeimagem)
200.140.85.118 samsung SP43J5HFX
Sem pontuao para esta mensagem August 21 2007, 10:14 PM
http://www.4shared.com/file/22565194/bb7e1567/SAMSUNG_J51A_CHASSIS_SP43J5HFX_PRO
JECTION_TV_SM.html
Pontuao 1 2 3 4 5 (5=Excelente) Respond to this message
ALAIN/DF
(Login alainsomeimagem)
200.140.85.118 motorola v300 v500 v600
Sem pontuao para esta mensagem August 21 2007, 10:22 PM
http://www.4shared.com/file/19677870/b03407f3/Manuales_Tecnicos_Motorola_v300_v5
00_v600.html
Pontuao 1 2 3 4 5 (5=Excelente) Respond to this message
ALAIN/DF
(Login alainsomeimagem)
200.140.85.118 monitor LG
Sem pontuao para esta mensagem August 21 2007, 10:27 PM
http://www.4shared.com/file/19656877/ec2ca655/LG_Studioworks_710b_710s_710e_773n
_773e_710bl-ale_710bl-alm_alb_710bl-ala_773nl-alm_773nl-ale_cha.html
Pontuao 1 2 3 4 5 (5=Excelente) Respond to this message
ALAIN/DF
(Login alainsomeimagem)
200.140.85.118 boletins sony
Sem pontuao para esta mensagem August 21 2007, 10:44 PM
http://www.4shared.com/file/19651088/68cfce0a/boletimtecnicoconfidencial-sony.ht
ml
Pontuao 1 2 3 4 5 (5=Excelente) Respond to this message
ALAIN/DF
(Login alainsomeimagem)
200.140.85.118 toshiba MS 6526CD e outros
Sem pontuao para esta mensagem August 21 2007, 10:47 PM

http://www.4shared.com/file/13022102/93bd0886/MS-6526CD_MS6531CD_MS6538CD_MS6539
CD.html
Pontuao 1 2 3 4 5 (5=Excelente) Respond to this message
ALAIN/DF
(Login alainsomeimagem)
200.140.85.118 apostila LCD
Sem pontuao para esta mensagem August 21 2007, 11:03 PM
http://www.4shared.com/file/13518161/243ef5bd/Apostila_Bsica_de_LCD.html
Pontuao 1 2 3 4 5 (5=Excelente) Respond to this message
ALAIN/DF
(Login alainsomeimagem)
200.140.85.118 boletim tecnico
Sem pontuao para esta mensagem August 21 2007, 11:07 PM
http://www.4shared.com/file/21421231/b3eb4f94/14-boletimtecnicojunho2007.html
Pontuao 1 2 3 4 5 (5=Excelente) Respond to this message
ALAIN/DF
(Login alainsomeimagem)
200.140.85.118 mecanismos de cd
Sem pontuao para esta mensagem August 21 2007, 11:10 PM
http://www.4shared.com/file/19656600/3797883b/mecanismos_CD.html
Pontuao 1 2 3 4 5 (5=Excelente) Respond to this message
ALAIN/DF
(Login alainsomeimagem)
200.140.85.118 celulares desbloqueio
Sem pontuao para esta mensagem August 21 2007, 11:22 PM
http://www.4shared.com/file/22483308/31890473/AnBCalcv01.html
http://www.4shared.com/file/22483065/1b246111/Nokia_Unlock_Software_Manual.html
Pontuao 1 2 3 4 5 (5=Excelente) Respond to this message
ALAIN/DF
(Login alainsomeimagem)

200.140.85.118 panasonic TC-21FJ30L


Sem pontuao para esta mensagem August 21 2007, 11:28 PM
http://www.4shared.com/file/22561750/9b497597/MS_TC-21FJ30L.html?dirPwdVerified=
f7e9f3a
Pontuao 1 2 3 4 5 (5=Excelente) Respond to this message
Carlos
(Login jcfalchi)
189.33.141.156 ATENDENDO AO PEDIDO DO AMIGO ALAIN/DF
Sem pontuao para esta mensagem August 21 2007, 11:52 PM
SUPER CURSO COMPLETO DE CONSERTO DE PLACAS-ME - TOTALMENTE EM PORTUGUS.
August 21 2007 at 9:31 PM
Sem pontuao para esta mensagem
Carlos (Login jcfalchi)
do endereo IP 189.33.141.156
-------------------------------------------------------------------------------A SENHA DO ARQUIVO PDF ESTA MESMA QUE EST ABAIXO.
www.aquicurso.com
O LINK PARA BAIXAR
http://www.4shared.com/file/22571859/d4a9a3be/Manutencaodeplaca-maePT_BR.html

Pontuao 1 2 3 4 5 (5=Excelente) Respond to this message


Rasia
(Login Rasia)
201.10.43.15 sony_ps2_scph-39001
Sem pontuao para esta mensagem August 22 2007, 10:34 AM
http://www.4shared.com/file/11812923/e4f3e2be/sony_ps2_scph-39001.html?dirPwdVer
ified=a7c7f5c4
Pontuao 1 2 3 4 5 (5=Excelente) Respond to this message
Rasia
(Login Rasia)
201.10.43.15 IBM-6543-G50
Sem pontuao para esta mensagem August 22 2007, 10:40 AM
http://www.4shared.com/file/11397822/ff5ff32f/IBM-6543-G50.html?dirPwdVerified=f

07b1294
Pontuao 1 2 3 4 5 (5=Excelente) Respond to this message
Rasia
(Login Rasia)
201.10.43.15 Manual de Servio U18 Toshiba .
Sem pontuao para esta mensagem August 22 2007, 10:44 AM
http://www.4shared.com/file/19021358/bb5e3113/U18.html
UM TECNICO SEM UM MANUAL COMO
UM CEGO SEM GUIA.

Pontuao 1 2 3 4 5 (5=Excelente) Respond to this message


Rasia
(Login Rasia)
201.10.43.15 Fonte LG com STR-F6654
Sem pontuao para esta mensagem August 22 2007, 11:24 AM
http://www.4shared.com/file/22603558/35cb664e/Fonte_LG_com__STR-F6654.html?dirPw
dVerified=8ce31ad5
Pontuao 1 2 3 4 5 (5=Excelente) Respond to this message
Rasia
(Login Rasia)
201.10.43.15 Esquema fonte Chaveada Super Color Century
Sem pontuao para esta mensagem August 22 2007, 11:33 AM
http://www.4shared.com/file/22604257/3dec55e3/Esquema_fonte_chaveada_Super_Color
.html?dirPwdVerified=8ce31ad5
Pontuao 1 2 3 4 5 (5=Excelente) Respond to this message
Rasia
(Login Rasia)
201.10.43.15 Equivalencia-modelo X chassi Toshiba
Sem pontuao para esta mensagem August 22 2007, 11:36 AM
http://www.4shared.com/file/22604433/68564ace/Equivalencia-modelo_X_chassi_Toshi
ba.html?dirPwdVerified=8ce31ad5
Pontuao 1 2 3 4 5 (5=Excelente) Respond to this message

ALAIN/df
(Login alainsomeimagem)
200.140.5.173 home lg LH-T252SC-25SC
Sem pontuao para esta mensagem August 22 2007, 2:18 PM
http://www.4shared.com/file/22614984/207ebc45/LH-T252SC_LHS-25SC.html?dirPwdVeri
fied=1cd70b91
Pontuao 1 2 3 4 5 (5=Excelente) Respond to this message
ALAIN/df
(Login alainsomeimagem)
200.140.5.173 panasonic SC DK20GN
Sem pontuao para esta mensagem August 22 2007, 4:04 PM
http://www.bestsharing.com/f/AzMym324315
Pontuao 1 2 3 4 5 (5=Excelente) Respond to this message
ALAIN/df
(Login alainsomeimagem)
200.140.5.173 samsung LTM1525 LCD
Sem pontuao para esta mensagem August 22 2007, 4:48 PM
http://www.4shared.com/file/22616185/f36315e0/SAMSUNG_MB15U_CHASSIS_LTM1525_LCD_
TV_SM.html
Pontuao 1 2 3 4 5 (5=Excelente) Respond to this message
ALAIN/df
(Login alainsomeimagem)
200.140.5.173 20PT228
Sem pontuao para esta mensagem August 22 2007, 5:27 PM
http://www.4shared.com/file/5173819/7ccd6886/Philips-L012L_AA.html?s=1
Pontuao 1 2 3 4 5 (5=Excelente) Respond to this message
Rasia
(Login Rasia)
201.10.43.15 Treinamento Monitores LCD
Sem pontuao para esta mensagem August 22 2007, 5:31 PM
http://www.4shared.com/file/22629138/71e5da10/Treinamento_Monitores_LCD.html?dir
PwdVerified=f3dc3613

Pontuao 1 2 3 4 5 (5=Excelente) Respond to this message


Rasia
(Login Rasia)
201.10.43.15 TVDIGITAL-Apresentao oficial
Sem pontuao para esta mensagem August 22 2007, 5:37 PM
http://www.4shared.com/file/22629389/e692e723/TVDIGITAL-Apresentao_oficial.html?
dirPwdVerified=f3dc3613
Pontuao 1 2 3 4 5 (5=Excelente) Respond to this message
Rasia
(Login Rasia)
201.10.43.15 Mudana de cdigo de area Dvd
Sem pontuao para esta mensagem August 22 2007, 7:12 PM
http://www.4shared.com/file/22637214/959c1463/Mudana_de_cdigo_de_area_Dvd.html?d
irPwdVerified=8ce31ad5
Pontuao 1 2 3 4 5 (5=Excelente) Respond to this message
Rasia
(Login Rasia)
201.10.43.15 Analize de circuitos de DVD
Sem pontuao para esta mensagem August 22 2007, 7:21 PM
http://www.4shared.com/file/22638048/baba6835/Analize_de_circuitos_de_DVD.html?d
irPwdVerified=8ce31ad5
Pontuao 1 2 3 4 5 (5=Excelente) Respond to this message
Rasia
(Login Rasia)
201.10.43.15 L6.1 Philips_L6[1].1AA Manual de Servio
Sem pontuao para esta mensagem August 22 2007, 7:28 PM
http://www.4shared.com/file/22638491/71c10600/L61_Philips_L611AA_Manual_de_Servi
o.html?dirPwdVerified=8ce31ad5
Pontuao 1 2 3 4 5 (5=Excelente) Respond to this message
Rasia
(Login Rasia)
201.10.43.15 dicas tv LCD Toshiba
Sem pontuao para esta mensagem August 22 2007, 7:35 PM

http://www.4shared.com/file/22638933/6df81cf5/dicas_tv_LCD_Toshiba.html?dirPwdVe
rified=8ce31ad5
Pontuao 1 2 3 4 5 (5=Excelente) Respond to this message
Rasia
(Login Rasia)
201.10.43.15 defeitos de proteo tvcs geral CCE
Sem pontuao para esta mensagem August 22 2007, 7:39 PM
http://www.4shared.com/file/22639206/8256333d/defeitos_de_proteo_tvcs_geral_CCE.
html?dirPwdVerified=8ce31ad5
Pontuao 1 2 3 4 5 (5=Excelente) Respond to this message
ALAIN/df
(Login alainsomeimagem)
200.140.5.173 esquemas pioneer by victor santarem
Sem pontuao para esta mensagem August 22 2007, 8:42 PM
esquemas PIONEER
August 22 2007 at 7:15 PM
Sem pontuao para esta mensagem
v.santarem (Login v.santarem)
Conselheiro
-------------------------------------------------------------------------------http://www.4shared.com/file/22639236/a97b60fe/Pioneer__F-208_RDS___RRV-2114___Tu
ner.html?dirPwdVerified=fa8b34fa
http://www.4shared.com/file/22639231/371ff55d/pioneer_CT-F1250_audio.html?dirPwd
Verified=fa8b34fa
http://www.4shared.com/file/22639229/20df4c2e/pioneer_DJM-300-RRV1711.html?dirPw
dVerified=fa8b34fa
http://www.4shared.com/file/22639239/39c47d6f/pioneer_DJM-300-S-RRV2007.html?dir
PwdVerified=fa8b34fa
http://www.4shared.com/file/22639238/4ec34df9/PIONEER_F-204RDS.html?dirPwdVerifi
ed=fa8b34fa
http://www.4shared.com/file/22634939/c7fb4a53/Pioneer_SX-1080_receiverpart01.htm
l?dirPwdVerified=fa8b34fa
http://www.4shared.com/file/22634937/20436754/Pioneer_SX-1080_receiverpart02.htm
l?dirPwdVerified=fa8b34fa
http://www.4shared.com/file/22634936/574457c2/Pioneer_SX-1080_receiverpart03.htm
l?dirPwdVerified=fa8b34fa
http://www.4shared.com/file/22635016/d21f69aa/Pioneer_SX-1080_receiverpart04.htm
l?dirPwdVerified=fa8b34fa
http://www.4shared.com/file/22634941/866154a6/Pioneer_SX-1080_receiverpart05.htm
l?dirPwdVerified=fa8b34fa
http://www.4shared.com/file/22635815/450569a8/Pioneer_SX-1080_receiverpart06.htm
l?dirPwdVerified=fa8b34fa
http://www.4shared.com/file/22635814/3202593e/Pioneer_SX-1080_receiverpart07.htm
l?dirPwdVerified=fa8b34fa

http://www.4shared.com/file/22635828/109946d6/Pioneer_SX-1080_receiverpart08.htm
l?dirPwdVerified=fa8b34fa
http://www.4shared.com/file/22635825/6e283a6b/Pioneer_SX-1080_receiverpart09.htm
l?dirPwdVerified=fa8b34fa
http://www.4shared.com/file/22635822/f04cafc8/Pioneer_SX-1080_receiverpart10.htm
l?dirPwdVerified=fa8b34fa
http://www.4shared.com/file/22635821/6945fe72/Pioneer_SX-1080_receiverpart11.htm
l?dirPwdVerified=fa8b34fa
http://www.4shared.com/file/22068600/ca3935dc/VSX-607RDS.html?dirPwdVerified=fa8
b34fa
penso que este ultimo repetido DESCULPEM OK

abrao de portugal

Pontuao 1 2 3 4 5 (5=Excelente) Respond to this message


ALAIN/df
(Login alainsomeimagem)
200.140.5.173 LG 500G T530BL e SL
Sem pontuao para esta mensagem August 22 2007, 8:48 PM
http://www.4shared.com/file/22642636/cb539333/LG_500G_T530BL_T530SL__CA-138.html
?dirPwdVerified=f80162b6
Pontuao 1 2 3 4 5 (5=Excelente) Respond to this message
ALAIN/df
(Login alainsomeimagem)
200.140.5.173 panasonic sa ak88
Sem pontuao para esta mensagem August 22 2007, 8:54 PM
http://www.4shared.com/file/21841816/eaac08b8/Manual_de_Servio_SA_AK_88_Panasoni
c.html
Pontuao 1 2 3 4 5 (5=Excelente) Respond to this message
ALAIN/DF
(Login alainsomeimagem)
200.140.164.187 AZ 2060
Sem pontuao para esta mensagem August 22 2007, 10:41 PM
http://www.2shared.com/file/2188601/f165d2a1/AZ2060.html
Pontuao 1 2 3 4 5 (5=Excelente) Respond to this message

ALAIN/DF
(Login alainsomeimagem)
200.140.164.187 CURSO PLASMA
Sem pontuao para esta mensagem August 22 2007, 11:09 PM
CURSO TV PLASMA
August 22 2007 at 9:55 PM
Sem pontuao para esta mensagem
luizmegatron (Login luizmegatron)
Membro VIP
-------------------------------------------------------------------------------http://www.2shared.com/file/2188682/a0b50913/CURSO_DE_TV_PLASMA.html? http://www
.2shared.com/file/2188654/fc78d26b/CURSO_TVs_DE_PLASMA.html?

Pontuao 1 2 3 4 5 (5=Excelente) Respond to this message


Odilon
(Login odilonsouza)
201.78.161.7 Re: CURSO PLASMA
Sem pontuao para esta mensagem August 23 2007, 10:59 AM
Subindo!!!
Pontuao 1 2 3 4 5 (5=Excelente) Respond to this message
ALAIN/df
(Login alainsomeimagem)
200.181.86.153 Re: CURSO PLASMA
Sem pontuao para esta mensagem August 23 2007, 12:31 PM
esquemas PIONEER 1
August 23 2007 at 7:16 AM
Sem pontuao para esta mensagem
v.santarem (Login v.santarem)
do endereo IP 85.242.241.179
-------------------------------------------------------------------------------http://www.4shared.com/file/22652276/9556d75b/Pioneer_HTP702_302_0202.html?dirPw
dVerified=4949156e
http://www.4shared.com/file/22652274/7b58b677/pioneer_PD-004_104_204__RRV1324_.h
tml?dirPwdVerified=4949156e
http://www.4shared.com/file/22652271/b3242f8/pioneer_PD-J320__RRV1024_.html?dirP
wdVerified=4949156e
http://www.4shared.com/file/22652269/1cf2fb8b/pioneer_PD-J920M__RRV1021_.html?di
rPwdVerified=4949156e
http://www.4shared.com/file/22652266/8c4de61a/Pioneer_PD-S06_RRV1837.html?dirPwd
Verified=4949156e
http://www.4shared.com/file/22652264/62438736/pioneer_PD-S502__ARP2684_.html?dir

PwdVerified=4949156e
http://www.4shared.com/file/22652263/fc271295/pioneer_PD-S503__RRV1135_.html?dir
PwdVerified=4949156e
http://www.4shared.com/file/22652273/e53c23d4/pioneer_PDC-Q180__RRV1227_.html?di
rPwdVerified=4949156e
http://www.4shared.com/file/22652259/37dfa848/pioneer_SX-Q180__RRV1228_.html?dir
PwdVerified=4949156e
http://www.4shared.com/file/22653167/41b00fb0/pioneer_SX-Q180__RRV1265_.html?dir
PwdVerified=4949156e
http://www.4shared.com/file/22653164/d8b95e0a/Pioneer_SX-R9.html?dirPwdVerified=
4949156e
http://www.4shared.com/file/22653163/46ddcba9/Pioneer_VSA-E03.html?dirPwdVerifie
d=4949156e
http://www.4shared.com/file/22653160/dfd49a13/pioneer_VSX-512_S.html?dirPwdVerif
ied=4949156e
http://www.4shared.com/file/22653158/fa2241e2/Pioneer_VSX-D458_receiver.html?dir
PwdVerified=4949156e
http://www.4shared.com/file/22653156/1d9a6ce5/Pioneer_XC-L7.html?dirPwdVerified=
4949156e
http://www.4shared.com/file/22653153/6df0986a/Pioneer_XR-A200_100.html?dirPwdVer
ified=4949156e
http://www.4shared.com/file/22653151/83fef946/Pioneer_CRT3169___DEH-P26___DEH-P2
600__DEH-P2650.html?dirPwdVerified=4949156e
http://www.4shared.com/file/22653150/f4f9c9d0/pioneer_DVD-V550_dvd_player_.html?
dirPwdVerified=4949156e
http://www.4shared.com/file/22653149/943e4035/pioneer_RX-ED50_RX-ED50GS_RX-ED55.
html?dirPwdVerified=4949156e

abrao de portugal

Pontuao 1 2 3 4 5 (5=Excelente) Respond to this message


Rasia
(Login Rasia)
201.10.43.15 Esquemas Britania do Odair Rodrigues
Sem pontuao para esta mensagem August 23 2007, 12:57 PM

-------------------------------------------------------------------------------Como prometido ai esta algums esquemas britania:


http://www.4shared.com/file/22682243/3681b4a6/BAW_100.html
http://www.4shared.com/file/22682339/98d7a148/BAW_50.html
http://www.4shared.com/file/22682601/bbeab852/BS_166.html
http://www.4shared.com/file/22682713/4d3d8208/BS_190.html
http://www.4shared.com/file/22682809/bfaf1d6a/BS_2__MP_3.html
http://www.4shared.com/file/17http://www.4shared.com/file/22682925/85ed59f4/BS_2
79.
html388355/24fc1376/BS_229.html
http://www.4shared.com/file/22269811/5bcfdf6f/BS_360.html
http://www.4shared.com/file/22683171/49585f75/BS_72.html

http://www.4shared.com/file/22683943/82683c22/BSI_20000.html
http://www.4shared.com/file/22683941/6c665d0e/DVD_3600.html
http://www.4shared.com/file/22683939/2dfc43fb/DVD_D_3000.html
http://www.4shared.com/file/22683935/244a0fd0/DVD_FAMA.html
http://www.4shared.com/file/18728808/c065e31/DVD51K_EE.html

Pontuao 1 2 3 4 5 (5=Excelente) Respond to this message


ALAIN/df
(Login alainsomeimagem)
200.181.86.153 aiwa NSX999MKII
Sem pontuao para esta mensagem August 23 2007, 6:27 PM
http://www.4shared.com/file/19057567/930a803f/Aiwa_-_NSX999MKII.html?s=1
Pontuao 1 2 3 4 5 (5=Excelente) Respond to this message
ALAIN/df
(Login alainsomeimagem)
200.181.86.153 esquemas century
Sem pontuao para esta mensagem August 23 2007, 7:33 PM
ESQUEMAS DE RECEPTORES CENTURY PARA TODOS
August 23 2007 at 5:26 PM
Sem pontuao para esta mensagem
Leandro Palmeira (Login lpalmeira)
Membro VIP
-------------------------------------------------------------------------------http://www.2shared.com/file/2191661/e757131d/ESQUEMA_RECEPTOR_ROTASAT_RTS-1900AV
.html
http://www.2shared.com/file/2191663/9597231/ESQUEMA_RECEPTOR_SUPER_COLOR__Transf
.html
http://www.2shared.com/file/2191665/e03ad704/PROCEDIMENTOS_PARA_ATUALIZAO_DO_DSR
1900.html
http://www.2shared.com/file/2191666/793386be/ESQUEMA_CENTURY_SUPER_COLOR_JL3.htm
l
http://www.2shared.com/file/2191667/e34b628/ESQUEMA_CENTURY_SUPER_COLOR_JL8.html
http://www.2shared.com/file/2191669/e98c9b2f/ESQUEMA_CENTURY_USR-1950SC.html
http://www.2shared.com/file/2191670/894b12ca/ESQUEMA_CONTROLE_REMOTO_CENTURY_PAR
A_RECEPTOR_SUPER_COLOR.html

http://www.2shared.com/file/2191671/fe4c225c/ESQUEMA_DA_FONTE_DO_RECEPTOR_CENTUR
Y_CTY_DSR1900__DSR1900s.html
http://www.2shared.com/file/2191672/674573e6/ESQUEMA_DO_RECEPTOR_CENTURY_FX1000.
html
http://www.2shared.com/file/2191673/10424370/ESQUEMA_FONTE_CHAVEADA_ANALGICA_CEN
TURY_SUPER_COLOR.html
http://www.2shared.com/file/2191674/8e26d6d3/ESQUEMA_MODULADOR_CENTURY_SMD.html
http://www.2shared.com/file/2191676/6028b7ff/ESQUEMA_RECEPTOR_CENTURY_FX-1000.ht
ml
http://www.2shared.com/file/2191677/172f8769/ESQUEMA_RECEPTOR_CENTURY_USR1900_4_
DGITOS.html
http://www.2shared.com/file/2191679/f097aa6e/ESQUEMA_RECEPTOR_CENTURY_USR-1700.h
tml
http://www.2shared.com/file/2191680/ed30e05/ESQUEMA_RECEPTOR_CENTURY_USR-1700__U
RSFX.html
http://www.2shared.com/file/2191681/79d43e93/ESQUEMA_RECEPTOR_CENTURY_USR-1700_U
SRFX_COLORIDO.html
http://www.2shared.com/file/2191682/e0dd6f29/ESQUEMA_RECEPTOR_CENTURY_USR-1900_V
ERSO_II.html
http://www.2shared.com/file/2191683/97da5fbf/ESQUEMA_RECEPTOR_ROTASAT_RTS-1900AF
.html

"Os grandes sucessos so sempre atravessados por diversos obstculos e dificuldades.


"

Pontuao 1 2 3 4 5 (5=Excelente) Respond to this message


ALAIN/df
(Login alainsomeimagem)
200.181.86.153 fwc700
Sem pontuao para esta mensagem August 23 2007, 7:49 PM
http://www.4shared.com/file/18449055/b0bb671a/FWC700.html?s=1
Pontuao 1 2 3 4 5 (5=Excelente) Respond to this message
Rasia
(Login Rasia)
201.10.43.15 TV PHILIPS MODELO 28GR7585
Sem pontuao para esta mensagem August 24 2007, 10:52 AM

http://www.4shared.com/file/13391771/a2895f18/TV_PHILIPS_MODELO_28GR7585.html?di
rPwdVerified=8c42741a
Pontuao 1 2 3 4 5 (5=Excelente) Respond to this message
ALAIN/df
(Login alainsomeimagem)
200.140.80.115 esquemas sony 1 do victor
Sem pontuao para esta mensagem August 24 2007, 12:23 PM
esquemas SONY 1
August 24 2007 at 10:45 AM
Sem pontuao para esta mensagem
v.santarem (Login v.santarem)
Conselheiro
-------------------------------------------------------------------------------http://www.4shared.com/file/22745521/18e16294/SONY_KV_20TS20_20TX10_20TS24_CHASI
S__P-3A.html?dirPwdVerified=b87d7ae1
http://www.4shared.com/file/22742653/263f139f/SONY_KV-21FS140part1.html?dirPwdVe
rified=b87d7ae1
http://www.4shared.com/file/22742652/51382309/SONY_KV-21FS140part2.html?dirPwdVe
rified=b87d7ae1
http://www.4shared.com/file/22742651/c83172b3/SONY_KV-21FS140part3.html?dirPwdVe
rified=b87d7ae1
http://www.4shared.com/file/22742650/bf364225/SONY_KV-21FS140part4.html?dirPwdVe
rified=b87d7ae1
http://www.4shared.com/file/22742649/dff1cbc0/SONY_KV-21FS140part5.html?dirPwdVe
rified=b87d7ae1
http://www.4shared.com/file/22742648/a8f6fb56/SONY_KV-21FS140part6.html?dirPwdVe
rified=b87d7ae1
http://www.4shared.com/file/22742647/3849e6c7/SONY_KV-21FS140part7.html?dirPwdVe
rified=b87d7ae1
http://www.4shared.com/file/22742644/a140b77d/sony_KV-21XTR3_chasis_BA-3__inform
e_reparacion_de_fuente.html?dirPwdVerified=b87d7ae1
http://www.4shared.com/file/22742642/48231248/Sony_KV-25FS12C_BA-5.html?dirPwdVe
rified=b87d7ae1
http://www.4shared.com/file/22745520/6fe65202/Sony_KV-XA21M80.html?dirPwdVerifie
d=b87d7ae1
http://www.4shared.com/file/22745518/4a1089f3/Sony_KV-XA25M93.html?dirPwdVerifie
d=b87d7ae1
http://www.4shared.com/file/22745525/1f8ca68d/Sony_KV-XG25M80.html?dirPwdVerifie
d=b87d7ae1
http://www.4shared.com/file/22745524/688b961b/sony_mod_KV-13fm12-KV-20FS12_chasi
s__BA-5_Training.html?dirPwdVerified=b87d7ae1
http://www.4shared.com/file/22745523/f6ef03b8/SONY_MONITOR_CPD-G400___ChF99____T
raining__Manual.html?dirPwdVerified=b87d7ae1
http://www.4shared.com/file/22746531/134ffc3b/SONY_PDP01_PLASMA_TV_TRAINING_MANU
ALpart1.html?dirPwdVerified=b87d7ae1
http://www.4shared.com/file/22746530/6448ccad/SONY_PDP01_PLASMA_TV_TRAINING_MANU
ALpart2.html?dirPwdVerified=b87d7ae1
http://www.4shared.com/file/22746529/48f4548/SONY_PDP01_PLASMA_TV_TRAINING_MANUA
Lpart3.html?dirPwdVerified=b87d7ae1
http://www.4shared.com/file/22746528/738875de/SONY_PDP01_PLASMA_TV_TRAINING_MANU

ALpart4.html?dirPwdVerified=b87d7ae1
http://www.4shared.com/file/22746527/e337684f/SONY_PDP01_PLASMA_TV_TRAINING_MANU
ALpart5.html?dirPwdVerified=b87d7ae1
http://www.4shared.com/file/22746526/943058d9/SONY_PDP01_PLASMA_TV_TRAINING_MANU
ALpart6.html?dirPwdVerified=b87d7ae1
http://www.4shared.com/file/22745522/81e8332e/Sony_Plasma.html?dirPwdVerified=b8
7d7ae1
http://www.4shared.com/file/22746525/d390963/Sony_Plasma_Training-1.html?dirPwdV
erified=b87d7ae1
http://www.4shared.com/file/22746523/e45aac56/Sony_plasma_wega_diagguide_Trainin
g.html?dirPwdVerified=b87d7ae1http://www.4shared.com/file/22746521/a54cd7a/sony_
tv__fe2__kv25_29fx30_service_manual.html?dirPwdVerified=b87d7ae1

abrao de portugal

Pontuao 1 2 3 4 5 (5=Excelente) Respond to this message


ALAIN/df
(Login alainsomeimagem)
200.140.80.115 panasonic manual TC-PL2920 postado pelo adair
Sem pontuao para esta mensagem August 24 2007, 12:41 PM
http://www.2shared.com/file/2192397/9dd2c7e2/Manual_TC-PL2920.html
Pontuao 1 2 3 4 5 (5=Excelente) Respond to this message
Rasia
(Login Rasia)
201.10.43.15 MCM530-590 Som Philips Manual de servio
Sem pontuao para esta mensagem August 24 2007, 12:51 PM
http://www.4shared.com/file/22752681/40ff254e/MCM530-590_Som_Philips_Manual_de_s
ervio.html?dirPwdVerified=8ce31ad5
Pontuao 1 2 3 4 5 (5=Excelente) Respond to this message
Rasia
(Login Rasia)
201.10.43.15 tv_philco_pcs_2976_tps2063[1] S eaquema.
Sem pontuao para esta mensagem August 24 2007, 4:03 PM
http://www.4shared.com/file/22767449/916bbcfc/tv_philco_pcs_2976_tps20631_S_eaqu
ema.html?dirPwdVerified=8ce31ad5
As borrachas foram jogas fora n!!!

Pontuao 1 2 3 4 5 (5=Excelente) Respond to this message


ALAIN/df
(Login alainsomeimagem)
200.140.80.115 LX3000
Sem pontuao para esta mensagem August 24 2007, 4:59 PM
http://www.4shared.com/file/20633809/e75c5a37/LX3000____19.html?s=1
Pontuao 1 2 3 4 5 (5=Excelente) Respond to this message
Rasia
(Login Rasia)
201.10.43.15 Videos.teste de Msfet "til"
Sem pontuao para esta mensagem August 24 2007, 6:49 PM
http://www.4shared.com/file/22778453/da65d45/Videosteste_de__Msfet.html?dirPwdVe
rified=8ce31ad5
Pontuao 1 2 3 4 5 (5=Excelente) Respond to this message
ALAIN/df
(Login alainsomeimagem)
200.140.80.115 amplificador LL-140-120
Sem pontuao para esta mensagem August 24 2007, 8:51 PM
http://www.4shared.com/file/22776928/3d32f66a/LL_140-120.html?dirPwdVerified=7df
8bfaf
Pontuao 1 2 3 4 5 (5=Excelente) Respond to this message
ALAIN/df
(Login alainsomeimagem)
200.163.14.163 philips DSR3401
Sem pontuao para esta mensagem August 25 2007, 11:39 AM
http://www.4shared.com/file/13103528/4f77cc66/DSR3401.html?dirPwdVerified=f0e10d
02
Pontuao 1 2 3 4 5 (5=Excelente) Respond to this message
ALAIN/df
(Login alainsomeimagem)
200.163.14.163 sony MHC-RG22 e 33
Sem pontuao para esta mensagem August 25 2007, 2:52 PM

http://www.4shared.com/file/22827893/c9dcc6de/MHC-RG22_RG33.html?dirPwdVerified=
1cd70b91
Pontuao 1 2 3 4 5 (5=Excelente) Respond to this message
Odilon
(Login odilonsouza)
201.78.206.118 Re: philips DSR3401
Sem pontuao para esta mensagem August 25 2007, 2:52 PM
Subindo...
Pontuao 1 2 3 4 5 (5=Excelente) Respond to this message
ALAIN/DF
(Login alainsomeimagem)
201.24.182.249 sony KV32HS20
Sem pontuao para esta mensagem August 25 2007, 3:50 PM
http://www.4shared.com/file/22795347/5bc5d824/KV32HS20.html?dirPwdVerified=3c2c7
bf9
Pontuao 1 2 3 4 5 (5=Excelente) Respond to this message
ALAIN/DF
(Login alainsomeimagem)
201.24.182.249 toshiba RG8155 e 8158CD
Sem pontuao para esta mensagem August 25 2007, 4:07 PM
http://www.4shared.com/file/12606712/ba769eb/RG-8155__RG-8158CD.html?dirPwdVerif
ied=9ceaca0
Pontuao 1 2 3 4 5 (5=Excelente) Respond to this message
ALAIN/DF
(Login alainsomeimagem)
201.24.182.249 panasonic SC-AK521LB-S1
Sem pontuao para esta mensagem August 25 2007, 5:00 PM
http://www.4shared.com/file/18293643/53a4814/SC-AK521LB-S1.html?s=1
Pontuao 1 2 3 4 5 (5=Excelente) Respond to this message
ALAIN/DF
(Login alainsomeimagem)

201.24.182.249 teinamento europeu THOMSON


Sem pontuao para esta mensagem August 25 2007, 7:26 PM
http://www.4shared.com/file/22841230/d865044/THOMSOM___ICC21-Training.html
Pontuao 1 2 3 4 5 (5=Excelente) Respond to this message
ALAIN/DF
(Login alainsomeimagem)
201.24.182.249 Re: teinamento europeu THOMSON
Sem pontuao para esta mensagem August 25 2007, 7:34 PM
http://www.4shared.com/file/22842048/5d2d3531/thomson_training_TX91_92.html
Pontuao 1 2 3 4 5 (5=Excelente) Respond to this message
ALAIN/DF
(Login alainsomeimagem)
201.24.182.249 sony vaio
Sem pontuao para esta mensagem August 25 2007, 7:51 PM
http://www.network54.com/Forum/183758/thread/1188074944/last-1188074944/sony+vai
o
Pontuao 1 2 3 4 5 (5=Excelente) Respond to this message
ALAIN/DF
(Login alainsomeimagem)
201.24.182.249 apresentao
Sem pontuao para esta mensagem August 25 2007, 8:04 PM
http://www.4shared.com/file/16184321/cdb954af/g6_presentation_panel_592.html
Pontuao 1 2 3 4 5 (5=Excelente) Respond to this message
ALAIN/DF
(Login alainsomeimagem)
201.24.182.249 philips DPTV210
Sem pontuao para esta mensagem August 25 2007, 8:16 PM
http://www.4shared.com/file/15079060/561a9950/Philips_chassis_DPTV210-211-215-21
6-220-225_64PP975_Rearprojectorsma.html
Pontuao 1 2 3 4 5 (5=Excelente) Respond to this message

ALAIN/DF
(Login alainsomeimagem)
201.24.182.249 Re: philips DPTV210
Sem pontuao para esta mensagem August 25 2007, 8:20 PM
http://www.4shared.com/file/20492859/25ef70bd/PHILIPS_PROJECTION___CHASSIS_DPTV_
400_Training__Manual.html
Pontuao 1 2 3 4 5 (5=Excelente) Respond to this message
ALAIN/DF
(Login alainsomeimagem)
201.24.182.249 mais um do nosso katatudo hehehe e muito bom
Sem pontuao para esta mensagem August 25 2007, 8:28 PM
tecnologia lcd
August 25 2007 at 6:59 PM
Sem pontuao para esta mensagem
hidrowest, ,,, jorge luis (Login hidrowest)
Membro VIP
-------------------------------------------------------------------------------http://www.4shared.com/file/18232324/39c3c71e/TECNOLOGIA_LCD_A.html
http://www.4shared.com/file/18233145/a3a6e305/TECNOLOGIA_LCD_B.html

Pontuao 1 2 3 4 5 (5=Excelente) Respond to this message


luis carlos gomes
(Login luislokomeu)
200.102.138.122 Re: mais um do nosso katatudo hehehe e muito bom
Sem pontuao para esta mensagem August 26 2007, 12:16 AM
topo para o ALAIN
esquemas de tv e monitor
http://www.4shared.com/dir/2061495/1adf4e75/sharing.html
http://www.4shared.com/dir/3292210/ddbbdec0/sharing.html
Pontuao 1 2 3 4 5 (5=Excelente) Respond to this message
ALAIN/DF
(Login alainsomeimagem)
200.96.166.130 aiwa NSX999MKII
Sem pontuao para esta mensagem August 26 2007, 6:37 AM
http://www.4shared.com/file/19057567/930a803f/Aiwa_-_NSX999MKII.html?s=1

Pontuao 1 2 3 4 5 (5=Excelente) Respond to this message


ALAIN/DF
(Login alainsomeimagem)
200.96.166.130 aiwa NSX-S111
Sem pontuao para esta mensagem August 26 2007, 12:24 PM
http://www.4shared.com/file/22879573/77b88040/Aiwa_NSX-S_111_NSX-S_112_NSX-S_116
_NSX-S_16__XG-S_111_XG-S_125__XG-S_126__XG-S_128.html?dirPwdVerified=e632f63c
Pontuao 1 2 3 4 5 (5=Excelente) Respond to this message
Rasia
(Login Rasia)
201.10.43.15 Modos de Servio vrias Marcas Tvs.
Sem pontuao para esta mensagem August 27 2007, 8:15 PM
http://www.4shared.com/file/22985928/97ddaf25/modos_de_Servio_vrias_Marcas.html?
dirPwdVerified=8ce31ad5
Estes modos eu no comprei,achei na net e estou repassando.
Pontuao 1 2 3 4 5 (5=Excelente) Respond to this message
Cladio Brito
(Login Claudiobrito)
200.149.51.226 TOP.
Sem pontuao para esta mensagem August 29 2007, 10:39 PM
UP.
Pontuao 1 2 3 4 5 (5=Excelente) Respond to this message
Odilon
(Login odilonsouza)
201.78.129.134 Mais algumas informaes para todos
Sem pontuao para esta mensagem August 30 2007, 12:52 AM
http://www.4shared.com/dir/3273379/f47372d1/sharing.html
Peguem a vontade.
Boa sorte.
Pontuao 1 2 3 4 5 (5=Excelente) Respond to this message
ALAIN/DF
(Login alainsomeimagem)
201.10.185.43 MCM 530 e 590

Sem pontuao para esta mensagem August 30 2007, 10:10 PM


http://www.4shared.com/file/16761714/cf40f671/MCM_530-590.html?dirPwdVerified=e6
a81127
Pontuao 1 2 3 4 5 (5=Excelente) Respond to this message
ALAIN/DF
(Login alainsomeimagem)
201.24.137.50 Re: MCM 530 e 590
Sem pontuao para esta mensagem August 31 2007, 11:15 PM
http://www.4shared.com/file/23298865/8f7876b1/FW_360.html?dirPwdVerified=1cd70b9
1
Pontuao 1 2 3 4 5 (5=Excelente) Respond to this message
Rasia
(Login Rasia)
201.10.43.15 Treinamento TV CCE HPS 2004
Sem pontuao para esta mensagem September 1 2007, 11:12 AM
http://www.4shared.com/file/23327259/449b1e6d/Treinamento_TV_CCE_HPS_2004.html?d
irPwdVerified=8ce31ad5

Pontuao 1 2 3 4 5 (5=Excelente) Respond to this message


Edison
(Login ETHERNO_CRHISTAL)
200.232.194.60 Re: Treinamento TV CCE HPS 2004
Sem pontuao para esta mensagem September 7 2007, 5:33 PM
sobe
Pontuao 1 2 3 4 5 (5=Excelente) Respond to this message
ALAIN/DF
(Login alainsomeimagem)
200.140.163.145 DVDR615
Sem pontuao para esta mensagem September 8 2007, 11:23 PM
http://www.4shared.com/file/23839427/5f97775f/dvdr615.html?dirPwdVerified=1cd70b
91
Pontuao 1 2 3 4 5 (5=Excelente) Respond to this message

Edison
(Login ETHERNO_CRHISTAL)
201.1.76.103 Re: DVDR615
Sem pontuao para esta mensagem September 10 2007, 11:33 PM
Sobe

Pontuao 1 2 3 4 5 (5=Excelente) Respond to this message


Edison
(Login ETHERNO_CRHISTAL)
201.13.13.161 Re: DVDR615
Sem pontuao para esta mensagem September 11 2007, 1:59 PM
Subindo
Pontuao 1 2 3 4 5 (5=Excelente) Respond to this message
Rasia
(Login Rasia)
201.10.43.15 Alguns links do meu disco 4Shared
Pontuao 1.0 (1 pessoa) September 11 2007, 5:52 PM

-------------------------------------------------------------------------------Alguns Links do meu disco no 4 Shared que disponibilizo para os amigos.


http://www.4shared.com/file/23750717/75e2923a/_2__Manual_de_Treinamento_Philips_
Chassis_A8.html?dirPwdVerified=8ce31ad5
http://www.4shared.com/file/21685553/86eab146/14LR3_Panasonic_Esquema_e_menu.htm
l?dirPwdVerified=8ce31ad5
http://www.4shared.com/file/19013725/600ec1ee/Ajustes_RP-29FA30A.html?dirPwdVeri
fied=8ce31ad5
http://www.4shared.com/file/22765706/cdf712bb/Alterando_menu_e_informaes_dvd_Phi
lips.html?dirPwdVerified=8ce31ad5
http://www.4shared.com/file/22638048/baba6835/Analize_de_circuitos_de_DVD.html?d
irPwdVerified=8ce31ad5
http://www.4shared.com/file/20788354/8342589b/Apostila_para_fazer_Antena_de_TV.h
tml?dirPwdVerified=8ce31ad5
http://www.4shared.com/file/21335254/3adc92c2/AZ2055_Sistem_Philips_Manual_de_Se
rvio.html?dirPwdVerified=8ce31ad5
http://www.4shared.com/file/18924048/16a51445/Boletins_tecnicos_Philips.html?dir
PwdVerified=8ce31ad5
http://www.4shared.com/file/21224539/59f8c20c/CCE_dicas_de_defeitos_TV_e_informa
oes.html?dirPwdVerified=8ce31ad5
http://www.4shared.com/file/20733435/7816f1e/curso_de_osciloscopio.html?dirPwdVe
rified=8ce31ad5
http://www.4shared.com/file/20733914/4a68ae59/Defeito_F61em_Panasonic.html?dirPw
dVerified=8ce31ad5
http://www.4shared.com/file/22639206/8256333d/defeitos_de_proteo_tvcs_geral_CCE.
html?dirPwdVerified=8ce31ad5
http://www.4shared.com/file/21064069/9a0cf369/Dicas_de_Som_CCE.html?dirPwdVerifi

ed=8ce31ad5
http://www.4shared.com/file/22638933/6df81cf5/dicas_tv_LCD_Toshiba.html?dirPwdVe
rified=8ce31ad5
http://www.4shared.com/file/21268339/e223a7c6/Diferenas_entreTDA83606162.html?di
rPwdVerified=8ce31ad5
http://www.4shared.com/file/23752377/8eb855eb/DVDs_Dicas_de_Reparo_Gradiente_Phi
lco.html?dirPwdVerified=8ce31ad5
http://www.4shared.com/file/21698937/11cddad0/DVP3020K-3020-3040K-3040_Manual_de
_Servio_Philips.html?dirPwdVerified=8ce31ad5
http://www.4shared.com/file/21349950/c912da92/Eletronica_Basica_Lenoxx.html?dirP
wdVerified=8ce31ad5
http://www.4shared.com/file/22604433/68564ace/Equivalencia-modelo_X_chassi_Toshi
ba.html?dirPwdVerified=8ce31ad5
http://www.4shared.com/file/23277862/f64f4d25/Esq_Super_Color_com_MC68HC908JL3-l
a_1140.html?dirPwdVerified=8ce31ad5
http://www.4shared.com/file/22637039/da9fde32/Esqfonte_ATX_para_PC.html?dirPwdVe
rified=8ce31ad5
http://www.4shared.com/file/19012961/b12d8a9c/Esquema_eletrico_LG_Chassi_MC-022A
.html?dirPwdVerified=8ce31ad5
http://www.4shared.com/file/19013379/13c6d15c/Esquema_Eletrico_LG_RP_29FA30A.htm
l?dirPwdVerified=8ce31ad5
http://www.4shared.com/file/22604257/3dec55e3/Esquema_fonte_chaveada_Super_Color
.html?dirPwdVerified=8ce31ad5
http://www.4shared.com/file/19259079/c67588aa/Esquema_SA-AK15.html?dirPwdVerifie
d=8ce31ad5
http://www.4shared.com/file/20693887/828de599/Esquema_USR1900__Century_4_Digitos
.html?dirPwdVerified=8ce31ad5
http://www.4shared.com/file/21338153/549461e5/Esquemas_Warn_Music_udio.html?dirP
wdVerified=8ce31ad5
http://www.4shared.com/file/22603558/35cb664e/Fonte_LG_com__STR-F6654.html?dirPw
dVerified=8ce31ad5
http://www.4shared.com/file/18805598/ace04f43/Fonte_tipo_BUCSO_Philips_Chassi_An
ubis.html?dirPwdVerified=8ce31ad5
http://www.4shared.com/file/21677692/77472fdf/FWM_57__Manual_de_Servio_Philips.h
tml?dirPwdVerified=8ce31ad5
http://www.4shared.com/file/22679721/dd4fa037/Informaes_AS680C_que_manual_usar.h
tml?dirPwdVerified=8ce31ad5
http://www.4shared.com/file/22287976/cddc4e2f/KP_Sony_Treinamento_TV_de_Progeo.h
tml?dirPwdVerified=8ce31ad5
http://www.4shared.com/file/20502186/c963993a/L101L_AC2K3_21PT5431Manual_e_Esque
ma.html?dirPwdVerified=8ce31ad5
http://www.4shared.com/file/22638491/71c10600/L61_Philips_L611AA_Manual_de_Servi
o.html?dirPwdVerified=8ce31ad5
http://www.4shared.com/file/19112582/74e1dc69/L91L_Manual_de_servio_-.html?dirPw
dVerified=8ce31ad5
http://www.4shared.com/file/23277655/4998a64f/Manua_Usuario__Super_Color_Century
.html?dirPwdVerified=8ce31ad5
http://www.4shared.com/file/21601570/92c75ee8/Manuais_DVP_530.html?dirPwdVerifie
d=8ce31ad5
http://www.4shared.com/file/18902053/c7c7f030/Manual_de_Servio__DVD625_Philips.h
tml?dirPwdVerified=8ce31ad5
http://www.4shared.com/file/21605155/58f0f76e/Manual_de_Servio_Gradiente_TV1423TF2140-TP1410-2010-TPF2130.html?dirPwdVerified=8ce31ad5
http://www.4shared.com/file/18942508/de29b9d6/Manual_de_servio_Lafinion_82W_RP-3
2FZ40P_LG.html?dirPwdVerified=8ce31ad5
http://www.4shared.com/file/21713954/f2b33389/Manual_de_Servio_TV_NEXT_29L_Gradi
ente.html?dirPwdVerified=8ce31ad5
http://www.4shared.com/file/22604177/d9c8938/Manual_Receptor_PR2010_udio_Varivel
.html?dirPwdVerified=8ce31ad5
http://www.4shared.com/file/23600848/90ca6006/Manual_de_Treinamento_Philips_Chas

sis_A8.html?dirPwdVerified=8ce31ad5
http://www.4shared.com/file/22752681/40ff254e/MCM530-590_Som_Philips_Manual_de_s
ervio.html?dirPwdVerified=8ce31ad5
http://www.4shared.com/file/20566377/3a5a03fa/MCS_230_Sistem_Magnavox_Manual__de
_Servio.html?dirPwdVerified=8ce31ad5
http://www.4shared.com/file/22841301/506e5926/Modelos_Versus_Chassi_e_micros.htm
l?dirPwdVerified=8ce31ad5
http://www.4shared.com/file/21073429/59de8fb8/Modificaes_quando_no_liga__220V_U1
7_ultima_circular.html?dirPwdVerified=8ce31ad5
http://www.4shared.com/file/22985928/97ddaf25/modos_de_Servio_vrias_Marcas.html?
dirPwdVerified=8ce31ad5
http://www.4shared.com/file/21269697/4103c7c5/Montagem_do_Jig_estensor_da_placa_
_-_Placa_MT.html?dirPwdVerified=8ce31ad5
http://www.4shared.com/file/22637214/959c1463/Mudana_de_cdigo_de_area_Dvd.html?d
irPwdVerified=8ce31ad5
http://www.4shared.com/file/22659481/5f26a584/Mundo_em_miniatura.html?dirPwdVeri
fied=8ce31ad5
http://www.4shared.com/file/22659544/823b7430/Osfamosos.html?dirPwdVerified=8ce3
1ad5
http://www.4shared.com/file/21699286/31d7bb09/Painel_Eletrico_Principal_-MPEG-Fa
se_1_2__3_DVP_Philips_3020K_DVP.html?dirPwdVerified=8ce31ad5
http://www.4shared.com/file/19176191/f3d876b9/panasonic-SC-AK200Manual_de_Servio
.html?dirPwdVerified=8ce31ad5
http://www.4shared.com/file/19386456/85a5827/SA-PM11_Manual_de_Servio_Panasonic_
Som.html?dirPwdVerified=8ce31ad5
http://www.4shared.com/file/19316511/fe8000c6/SC-AK300_Panasonic_Manual_de_Servi
o_Completo.html?dirPwdVerified=8ce31ad5
http://www.4shared.com/file/19200629/a67c0a7/SC-AK500_Manual_de_Servio_Som_Panas
oniuc.html?dirPwdVerified=8ce31ad5
http://www.4shared.com/file/21679538/8fe4e721/Tabela_de_Options_Bytes_Chass_L011
L_e_L012L_Philips.html?dirPwdVerified=8ce31ad5
http://www.4shared.com/file/23006166/b9a7a8cd/Treinamento__no-break_completo.htm
l?dirPwdVerified=8ce31ad5
http://www.4shared.com/file/23598095/1bf60b7e/Treinamento_de_uso_da_fonte_ajustv
el__digital.html?dirPwdVerified=8ce31ad5
http://www.4shared.com/file/22313851/2962f5ba/treinamento_DSC__P72_sony_Camera_D
igital_-.html?dirPwdVerified=8ce31ad5
http://www.4shared.com/file/21269769/20e19c3a/Treinamento_na_prtica_Yv_Sony_Chas
sis_BA-6.html?dirPwdVerified=8ce31ad5
http://www.4shared.com/file/21534200/2e2326e6/Treinamento_Narrado.html?dirPwdVer
ified=8ce31ad5
http://www.4shared.com/file/21192591/79e3bed7/Treinamento_TV__Sony__Chassi__BA-6
_.html?dirPwdVerified=8ce31ad5
http://www.4shared.com/file/23327259/449b1e6d/Treinamento_TV_CCE_HPS_2004.html?d
irPwdVerified=8ce31ad5
http://www.4shared.com/file/22778055/e3cc50ac/treinamento_bga_retrabalho_em_BGA.
html?dirPwdVerified=8ce31ad5
http://www.4shared.com/file/23006559/53c4e43/Tutorial_FONTES_DE_TV_MODERNOS.html
?dirPwdVerified=8ce31ad5
http://www.4shared.com/file/22680779/51bb041b/TV_29_queima_da_fonte_alteraao.htm
l?dirPwdVerified=8ce31ad5
http://www.4shared.com/file/22681142/51759587/TV_29_soldas_frias_queima_do_STR_d
a_fonte.html?dirPwdVerified=8ce31ad5
http://www.4shared.com/file/22767449/916bbcfc/tv_philco_pcs_2976_tps20631_S_eaqu
ema.html?dirPwdVerified=8ce31ad5
http://www.4shared.com/file/23328419/7c19b78d/USR1950-_Century_MC68HRC908JK3CP_T
BA120U.html?dirPwdVerified=8ce31ad5
http://www.4shared.com/file/22778453/da65d45/Videosteste_de__Msfet.html?dirPwdVe
rified=8ce31ad5
http://www.4shared.com/file/21223579/a0433fb1/udio_Philips_FWM_777.html?dirPwdVe

rified=8ce31ad5
http://www.4shared.com/file/19612986/6793d1ac/AS_300.html?dirPwdVerified=f3dc361
3
http://www.4shared.com/file/18794337/86c7712b/Audio_todas_as_familias_Unidade_Le
itora_de_CD_Philips.html?dirPwdVerified=f3dc3613
http://www.4shared.com/file/21625050/53983ab6/BOLETIMTVPLASMASANSUNG.html?dirPwd
Verified=f3dc3613
http://www.4shared.com/file/19041550/3e483033/Carta_de_2070.html?dirPwdVerified=
f3dc3613
http://www.4shared.com/file/18865236/3bb869eb/Circular_Philco.html?dirPwdVerifie
d=f3dc3613
http://www.4shared.com/file/22629682/778bfc40/Curso_dicas_tv_LCD_Toshiba.html?di
rPwdVerified=f3dc3613
http://www.4shared.com/file/21629985/d35b3443/DVD__LG_5822N_Esquema_Eltrico.html
?dirPwdVerified=f3dc3613
http://www.4shared.com/file/18823609/57c87679/Dvd_Digital_Cinema_Sistem_JVC_Mod_
TH_A9.html?dirPwdVerified=f3dc3613
http://www.4shared.com/file/21627713/1bb7006/Dvd_Game__Britania_Esquema_e_Vista_
Esplodida.html?dirPwdVerified=f3dc3613
http://www.4shared.com/file/21633456/a5f94133/Dvd_SD1700-1750_Toshiba_Manual_Tcn
ico.html?dirPwdVerified=f3dc3613
http://www.4shared.com/file/22324272/55bd013d/Esquema_Eltrico_DVD_Blueskay_BlM.h
tml?dirPwdVerified=f3dc3613
http://www.4shared.com/file/22024993/36f8816a/F_1330_Philips_udio.html?dirPwdVer
ified=f3dc3613
http://www.4shared.com/file/22258464/92e259f6/GUIA_DE_CONSERTO_CHASSI_CPH_05_Phi
lco.html?dirPwdVerified=f3dc3613
http://www.4shared.com/file/22025265/eceab014/GUIA_de_Treinamento_Panasonic_Chas
si_MX8_Mod_TC29PL22.html?dirPwdVerified=f3dc3613
http://www.4shared.com/file/22115473/94e3f1a7/Manual_de_Servio_AS440_Philips_udi
o.html?dirPwdVerified=f3dc3613
http://www.4shared.com/file/22549938/76220ca6/Manual_de_Servio_GBA_Nintendo_Game
.html?dirPwdVerified=f3dc3613
http://www.4shared.com/file/21841816/eaac08b8/Manual_de_Servio_SA_AK_88_Panasoni
c.html?dirPwdVerified=f3dc3613
http://www.4shared.com/file/22746817/c0c2a8df/TP50F61__MS___64___I_Toshiba.html?
dirPwdVerified=f3dc3613
http://www.4shared.com/file/21946158/30223028/Treinamento_Dvd_Theater_Panasonic_
_Dvd-RV_30BR_e_RV60BR.html?dirPwdVerified=f3dc3613
http://www.4shared.com/file/22629138/71e5da10/Treinamento_Monitores_LCD.html?dir
PwdVerified=f3dc3613
http://www.4shared.com/file/21952343/f6db268/Treinamento_Tcnico_Dvd__Panasonic_T
heater.html?dirPwdVerified=f3dc3613
http://www.4shared.com/file/22629389/e692e723/TVDIGITAL-Apresentao_oficial.html?
dirPwdVerified=f3dc3613
http://www.4shared.com/file/20160598/8e11529d/UOCs_Dos_Chassis_L011L_e_2L_Inform
ao_Tec.html?dirPwdVerified=f3dc3613

Pontuao 1 2 3 4 5 (5=Excelente) Respond to this message


LUIZ - RJ
(Login eletron.luiz)
201.70.146.2 CONSERTO DE AUTO FALANTES
Sem pontuao para esta mensagem October 27 2007, 12:15 AM

http://www.4shared.com/file/27534102/a1bbcca9/apostila_autofalante1.html?dirPwdV
erified=ec239f88
http://www.4shared.com/account/file/27534161/6ee83a95/apostila_autofalante2.html
?sId=Wvqmzr3XNG8FY6BG
http://www.4shared.com/account/file/27534789/fa3de39b/apostila_autofalante3.html
?sId=4VTYU2D3YS1Sgoni
http://www.4shared.com/account/file/27534960/17fc5bbb/apostila_autofalante4.html
?sId=4VTYU2D3YS1Sgoni
Aproveitem
LUIZ - RJ
Pontuao 1 2 3 4 5 (5=Excelente) Respond to this message
Anonymous
(Login eletronicaintegrada)
189.11.247.11 Re: TVDIGITAL-Apresentao oficial
Sem pontuao para esta mensagem November 17 2007, 5:22 PM
up
"Voc pode at viver sem Jesus,porem ser terrivel morrer sem Ele"
Pontuao 1 2 3 4 5 (5=Excelente) Respond to this message
Vitor Trucco
(Login Vitortec)
201.51.123.244 Re: FIRST LESSON QUE ALGUM APAGOU AQUI DE NOVO
Sem pontuao para esta mensagem September 12 2007, 7:08 PM
Up!
Pontuao 1 2 3 4 5 (5=Excelente) Respond to this message
ALAIN/df
(Login alainsomeimagem)
200.103.113.194 compair
Sem pontuao para esta mensagem September 12 2007, 7:16 PM
http://www.4shared.com/file/17435942/36abeb36/hercules.html?dirPwdVerified=e6a81
127
Pontuao 1 2 3 4 5 (5=Excelente) Respond to this message
ALAIN/df
(Login alainsomeimagem)

201.14.83.249 Re: sobre soft ComPair da philips


Sem pontuao para esta mensagem September 12 2007, 4:55 PM
http://www.4shared.com/file/17435942/36abeb36/hercules.html?dirPwdVerified=e6a81
127

Pontuao 1 2 3 4 5 (5=Excelente) Respond to this message


ALAIN/df
(Login alainsomeimagem)
200.140.81.131 FWC507
Sem pontuao para esta mensagem September 14 2007, 12:17 PM
http://www.4shared.com/file/11595482/70fac957/FWC507.html?dirPwdVerified=f0e10d0
2
Pontuao 1 2 3 4 5 (5=Excelente) Respond to this message
ALAIN/df
(Login alainsomeimagem)
200.140.81.131 treinamento LG tv
Sem pontuao para esta mensagem September 14 2007, 12:43 PM
http://www.4shared.com/file/24127981/7bd49876/Apostila_de_Treinamento_de_Televis
ores__LG.html?dirPwdVerified=8ce31ad5
Pontuao 1 2 3 4 5 (5=Excelente) Respond to this message
ALAIN/df
(Login alainsomeimagem)
200.181.82.164 tvs philco modernas
Sem pontuao para esta mensagem September 14 2007, 2:03 PM
Esquemas philco,tvs recentes:
http://www.4shared.com/file/24188731/806d6440/TPF34S31_TPF32S55_e_TPW3280__Manua
l_Tcnico.html
http://www.4shared.com/file/24188880/1fc2ca20/TP-2921_Esquema_Eletrico.html
http://www.4shared.com/file/24190137/9557bc98/MANUAL_TEC_TP14U_TP29C21.html

Pontuao 1 2 3 4 5 (5=Excelente) Respond to this message


ALAIN/df
(Login alainsomeimagem)
201.11.184.251 esquemas de amplificadores
Sem pontuao para esta mensagem September 14 2007, 5:03 PM
Esquemas e manuais de amplificadores Crown j fora de linha
http://www.crownaudio.com/gen_htm/legacy/legacamp.htm
//////////////////////////////////////////////
Esquemas de amplificadores, crossovers e controladores Renkus-heinz
http://www.renkus-heinz.com/support/product-support/schematics/schematics.html
/////////////////////////////////////////////
Manuais de servio dos equipamentos Yorkville
http://www.yorkville.com/default.asp?p1=6&p2=0&p_id=61
///////////////////////////////////////////
Muitos esquemas de amplificadores antigos valvulados
http://www.ampslab.com/vintage1.htm
///////////////////////////////////////////
Esquemas e boletins de servio QSC
http://www.qscaudio.com/support/technical_support/schematics.htm

Pontuao 1 2 3 4 5 (5=Excelente) Respond to this message


ALAIN/DF
(Login alainsomeimagem)
200.101.18.165 funcionamento de microprocessadores de tv
Sem pontuao para esta mensagem September 16 2007, 1:03 PM
http://www.4shared.com/file/24331972/30860264/Funcionamento_MICROPROCESSADORES_D
E_TV.html?dirPwdVerified=8ce31ad5
Pontuao 1 2 3 4 5 (5=Excelente) Respond to this message
ALAIN/DF
(Login alainsomeimagem)
200.101.18.165 manuteno de notebooks toshiba
Sem pontuao para esta mensagem September 16 2007, 1:13 PM

http://www.4shared.com/file/24327195/26799d9d/Manuteno_de_notebooks_-_Toshiba_A7
0.html?dirPwdVerified=f3dc3613
Pontuao 1 2 3 4 5 (5=Excelente) Respond to this message
ALAIN/DF
(Login alainsomeimagem)
200.101.18.165 staner top 500
Sem pontuao para esta mensagem September 16 2007, 1:42 PM
http://www.2shared.com/file/2275269/5843686b/Staner_TOP-500r.html
Pontuao 1 2 3 4 5 (5=Excelente) Respond to this message
Robson-PB
(Login Robson-PB)
200.172.94.87 SOBE
Sem pontuao para esta mensagem September 17 2007, 3:48 PM
SOBE
Pontuao 1 2 3 4 5 (5=Excelente) Respond to this message
ALAIN/DF
(Login alainsomeimagem)
201.34.59.229 LG RP40NZ60P
Sem pontuao para esta mensagem September 17 2007, 10:59 PM
http://www.4shared.com/file/24478940/6028e979/RP40NZ60P.html?dirPwdVerified=1cd7
0b91
Pontuao 1 2 3 4 5 (5=Excelente) Respond to this message
ALAIN/DF
(Login alainsomeimagem)
201.34.59.229 FWR8-21 philips
Sem pontuao para esta mensagem September 17 2007, 11:43 PM
http://www.4shared.com/file/24454995/95fa8f63/FW-R8_21.html
Pontuao 1 2 3 4 5 (5=Excelente) Respond to this message
ALAIN/df
(Login alainsomeimagem)

200.140.6.6 aiwa
Sem pontuao para esta mensagem September 18 2007, 12:15 PM
http://circuit.lt/saugykla/elektronika/Serviso%20manualai/Audio/Aiwa/Aiwa%20CX-N
999MK2_N2200.pdf

http://www.4shared.com/file/24468355/39ae80d1/Aiwa_CX-NS999.html?dirPwdVerified=
e632f63c

Pontuao 1 2 3 4 5 (5=Excelente) Respond to this message


ALAIN/df
(Login alainsomeimagem)
200.140.6.6 toshiba tvc 160
Sem pontuao para esta mensagem September 18 2007, 2:00 PM
http://www.4shared.com/file/24516243/51b70614/tvc-160-tvc200a.html?dirPwdVerifie
d=f0e10d02
Pontuao 1 2 3 4 5 (5=Excelente) Respond to this message
ALAIN/df
(Login alainsomeimagem)
200.140.6.6 philips 109B50 chassis V50
Sem pontuao para esta mensagem September 18 2007, 7:13 PM
http://www.4shared.com/file/24540036/8093609e/109B50_chassis_V50.html?dirPwdVeri
fied=f0e10d02
Pontuao 1 2 3 4 5 (5=Excelente) Respond to this message
ALAIN/df
(Login alainsomeimagem)
200.140.6.6 LG FFH386
Sem pontuao para esta mensagem September 18 2007, 7:28 PM
http://www.2shared.com/file/2288508/c6ba6f2/Esquema_Eltrico_e_Mecnico_386.html
Pontuao 1 2 3 4 5 (5=Excelente) Respond to this message
ALAIN/DF
(Login alainsomeimagem)

201.14.124.232 sanyo CTP3771


Sem pontuao para esta mensagem September 18 2007, 10:33 PM
http://www.4shared.com/file/16501052/8588d46e/Sanyo_CTP3771.html?s=1
Pontuao 1 2 3 4 5 (5=Excelente) Respond to this message
Anderson
(Login chapolintbg)
201.89.246.9 First lesson
Sem pontuao para esta mensagem September 19 2007, 1:23 PM
Up!!!
Pontuao 1 2 3 4 5 (5=Excelente) Respond to this message
ALAIN/df
(Login alainsomeimagem)
200.101.96.208 aiwa nsx222 229 333
Sem pontuao para esta mensagem September 19 2007, 8:40 PM
http://www.4shared.com/file/24621331/add9ab0f/NSX-S222NSX-S229NSX-S333.html?dirP
wdVerified=f0e10d02
Pontuao 1 2 3 4 5 (5=Excelente) Respond to this message
ALAIN/df
(Login alainsomeimagem)
200.101.96.208 SONY MHC-DX90
Sem pontuao para esta mensagem September 19 2007, 9:04 PM
http://www.4shared.com/file/11914869/8fbf28ea/MHC-DX90.html
Pontuao 1 2 3 4 5 (5=Excelente) Respond to this message
ALAIN/df
(Login alainsomeimagem)
200.140.6.107 dvd philco DVT100
Sem pontuao para esta mensagem September 20 2007, 11:51 AM
http://www.4shared.com/file/24659669/af2ae16c/Philco_DVT100.html
Pontuao 1 2 3 4 5 (5=Excelente) Respond to this message
ALAIN/df

(Login alainsomeimagem)
200.140.6.107 LG RP14CB25
Sem pontuao para esta mensagem September 20 2007, 5:30 PM
http://www.4shared.com/file/24674929/48b0e8e8/Manual_de_Servio_LG_Chassi_RP-14CB
25A.html?dirPwdVerified=8ce31ad5
Pontuao 1 2 3 4 5 (5=Excelente) Respond to this message
ALAIN/df
(Login alainsomeimagem)
200.140.6.107 philco DVT 100
Sem pontuao para esta mensagem September 20 2007, 8:48 PM
http://www.4shared.com/file/24659669/af2ae16c/Philco_DVT100.html
Pontuao 1 2 3 4 5 (5=Excelente) Respond to this message
Edison
(Login ETHERNO_CRHISTAL)
201.1.119.239 Re: philco DVT 100
Sem pontuao para esta mensagem September 22 2007, 4:19 PM
Subindo
Pontuao 1 2 3 4 5 (5=Excelente) Respond to this message
Emanuel Macedo/PA
(Login derbyy)
201.9.136.70 Re: philco DVT 100
Sem pontuao para esta mensagem September 23 2007, 1:30 AM
up.
procura algum?
http://eletronicalatina.forumeiros.com/index.htm
http://www.network54.com/Forum/562807/
http://santtana.informe.com/
Pontuao 1 2 3 4 5 (5=Excelente) Respond to this message
Chagas
(Login fra_chagas)
201.18.52.99 Catlogo SMD para todos
Sem pontuao para esta mensagem September 24 2007, 9:30 AM

Para os que no baixaram.


http://www.4shared.com/account/file.jsp?id=24929449&sId=GYKmL7t0enLCfuuk
Pontuao 1 2 3 4 5 (5=Excelente) Respond to this message
LOPES31
(Login LOPES31)
201.68.234.135 Re: Catlogo SMD para todos
Sem pontuao para esta mensagem September 25 2007, 1:29 PM
UP
Pontuao 1 2 3 4 5 (5=Excelente) Respond to this message
ALAIN/DF
(Login alainsomeimagem)
201.14.79.52 Re: Catlogo SMD para todos
Sem pontuao para esta mensagem September 25 2007, 10:07 PM
sobe
Pontuao 1 2 3 4 5 (5=Excelente) Respond to this message
ALAIN/df
(Login alainsomeimagem)
200.140.6.220 FW 650
Sem pontuao para esta mensagem September 26 2007, 11:50 AM
http://www.4shared.com/file/9997665/2b055e4f/FW650.html?dirPwdVerified=f0e10d02
Pontuao 1 2 3 4 5 (5=Excelente) Respond to this message
ALAIN/df
(Login alainsomeimagem)
200.140.6.220 MHC DX9
Sem pontuao para esta mensagem September 26 2007, 12:16 PM
http://www.4shared.com/file/18474550/73d0f373/MHC-DX9.html?dirPwdVerified=f0e10d
02
Pontuao 1 2 3 4 5 (5=Excelente) Respond to this message
ALAIN/df
(Login alainsomeimagem)
200.140.6.220 HPS2085 D e F
Sem pontuao para esta mensagem September 26 2007, 1:55 PM

http://www.4shared.com/file/17692325/69adddd6/HPS-2085D.html?s=1
http://www.4shared.com/file/17692530/45164aa/HPS-2085F.html?s=1

Pontuao 1 2 3 4 5 (5=Excelente) Respond to this message


ALAIN/df
(Login alainsomeimagem)
200.140.6.220 panasonic SA-AK310
Sem pontuao para esta mensagem September 26 2007, 8:17 PM
http://www.2shared.com/file/2316671/1e23f02f/SA-AK310.html
Pontuao 1 2 3 4 5 (5=Excelente) Respond to this message
ALAIN/DF
(Login alainsomeimagem)
200.140.164.249 sony FH-W55AV
Sem pontuao para esta mensagem September 26 2007, 10:21 PM
http://www.2shared.com/file/2316481/9a3f388e/FH-W55AV.html
Pontuao 1 2 3 4 5 (5=Excelente) Respond to this message
ALAIN/DF
(Login alainsomeimagem)
200.140.164.249 curso de scope
Sem pontuao para esta mensagem September 26 2007, 10:54 PM
http://www.4shared.com/file/25134515/2dc393a8/Tektronix.html
Pontuao 1 2 3 4 5 (5=Excelente) Respond to this message
ALAIN/df
(Login alainsomeimagem)
200.140.80.84 JVC GR-AX230-430-730
Sem pontuao para esta mensagem September 27 2007, 1:26 PM
http://www.4shared.com/file/25169232/be5425a1/GR-AX230-430-730.html
Pontuao 1 2 3 4 5 (5=Excelente) Respond to this message
ALAIN/df
(Login alainsomeimagem)

200.140.80.84 LG CP29Q54
Sem pontuao para esta mensagem September 27 2007, 1:36 PM
http://www.4shared.com/file/25172471/addd631c/Manual_de_Servio_LG_CP29Q54.html?d
irPwdVerified=8ce31ad5
Pontuao 1 2 3 4 5 (5=Excelente) Respond to this message
ALAIN/df
(Login alainsomeimagem)
200.140.80.84 LG RP-29CC26
Sem pontuao para esta mensagem September 27 2007, 1:45 PM
http://www.4shared.com/file/23235365/3bf7592c/RP-29CC26.html?s=1
Pontuao 1 2 3 4 5 (5=Excelente) Respond to this message
ALAIN/df
(Login alainsomeimagem)
200.140.80.84 esquemas sony
Sem pontuao para esta mensagem September 27 2007, 1:55 PM
http://circuit.lt/saugykla/?dir=elektronika%2FServiso+manualai%2FAudio%2FSony
Pontuao 1 2 3 4 5 (5=Excelente) Respond to this message
ALAIN/df
(Login alainsomeimagem)
200.140.80.84 philips MAS 55
Sem pontuao para esta mensagem September 27 2007, 2:26 PM
http://www.4shared.com/file/19346490/887c5f1f/MAS_55.html
Pontuao 1 2 3 4 5 (5=Excelente) Respond to this message
ALAIN/df
(Login alainsomeimagem)
200.140.80.84 LG TV chassis MP-00PA
Sem pontuao para esta mensagem September 27 2007, 6:54 PM
http://www.2shared.com/file/2319782/5913c73b/TV_LG_CHASSIS_MP-00PA.html
Pontuao 1 2 3 4 5 (5=Excelente) Respond to this message
ALAIN/df

(Login alainsomeimagem)
200.140.80.84 esquemas aiwa
Sem pontuao para esta mensagem September 27 2007, 7:08 PM
http://circuit.lt/saugykla/?dir=elektronika%2FServiso+manualai%2FAudio%2FAiwa
Pontuao 1 2 3 4 5 (5=Excelente) Respond to this message
ALAIN/df
(Login alainsomeimagem)
200.140.80.84 eproms de tv
Sem pontuao para esta mensagem September 27 2007, 7:15 PM
http://www.4shared.com/dir/3498559/7ca0b69c/Data_E2PROM_TVs.html
Pontuao 1 2 3 4 5 (5=Excelente) Respond to this message
ALAIN/df
(Login alainsomeimagem)
200.140.80.84 LG LM730
Sem pontuao para esta mensagem September 27 2007, 7:28 PM
http://www.2shared.com/file/2320168/19604a43/LM-M730A.html
Pontuao 1 2 3 4 5 (5=Excelente) Respond to this message
ALAIN/df
(Login alainsomeimagem)
200.140.80.84 JVC AV-31BM3
Sem pontuao para esta mensagem September 27 2007, 7:33 PM
http://www.4shared.com/file/25195793/fdf1173f/AV-31BM3.html
Pontuao 1 2 3 4 5 (5=Excelente) Respond to this message
ALAIN/df
(Login alainsomeimagem)
200.140.80.84 JVC AV32 F 485
Sem pontuao para esta mensagem September 27 2007, 7:43 PM
http://www.4shared.com/file/25196629/eda7e233/AV-32F485_sch.html
Pontuao 1 2 3 4 5 (5=Excelente) Respond to this message
ALAIN/df

(Login alainsomeimagem)
200.140.80.84 sony DVP-NS355 e outros
Sem pontuao para esta mensagem September 27 2007, 8:27 PM
http://www.2shared.com/file/2319910/6c413054/DVPNS355.html
Pontuao 1 2 3 4 5 (5=Excelente) Respond to this message
ALAIN/df
(Login alainsomeimagem)
200.140.80.84 samsung DVD-P243N
Sem pontuao para esta mensagem September 27 2007, 8:58 PM
http://www.4shared.com/file/25187782/484f7d3/DVD-P243N.html
Pontuao 1 2 3 4 5 (5=Excelente) Respond to this message
Carlos
(Login jcfalchi)
189.33.112.152 Re: samsung DVD-P243N
Sem pontuao para esta mensagem September 28 2007, 1:54 AM
A PEDIDO DO NOSSO GRANDE ALAIN A EST O LINK
MANUTENO DE PLACA-ME
http://www.4shared.com/file/22571859/d4a9a3be/Manutencaodeplaca-maePT_BR.html

Pontuao 1 2 3 4 5 (5=Excelente) Respond to this message


ALAIN/df
(Login alainsomeimagem)
200.181.94.47 trinamento lcd gradiente agosto 2007
Sem pontuao para esta mensagem September 28 2007, 12:04 PM
http://www.4shared.com/file/25200176/abcf5261/Trienamento_LCD_Agosto_2007.html
Pontuao 1 2 3 4 5 (5=Excelente) Respond to this message
ALAIN/df
(Login alainsomeimagem)
200.181.94.47 receptores de parabolica
Sem pontuao para esta mensagem September 28 2007, 2:30 PM
http://www.4shared.com/dir/1088102/a0624902/Receptores.html

Pontuao 1 2 3 4 5 (5=Excelente) Respond to this message


ALAIN/df
(Login alainsomeimagem)
200.181.94.47 philips 190CW7
Sem pontuao para esta mensagem September 28 2007, 6:49 PM
http://www.4shared.com/file/25263801/e8ce30c4/190CW7.html?dirPwdVerified=c767d04
0
Pontuao 1 2 3 4 5 (5=Excelente) Respond to this message
ALAIN/df
(Login alainsomeimagem)
200.181.94.47 roland RA90
Sem pontuao para esta mensagem September 28 2007, 7:06 PM
http://www.4shared.com/file/25268689/f35398f5/RA-90.html?dirPwdVerified=1cd70b91
Pontuao 1 2 3 4 5 (5=Excelente) Respond to this message
ALAIN/df
(Login alainsomeimagem)
200.181.94.47 philips 29PT6441
Sem pontuao para esta mensagem September 28 2007, 8:45 PM
http://www.4shared.com/file/25274154/4ab51a88/29PT6441_85.html?dirPwdVerified=c7
67d040
Pontuao 1 2 3 4 5 (5=Excelente) Respond to this message
ALAIN/DF
(Login alainsomeimagem)
200.140.164.37 treinamento sony plasma
Sem pontuao para esta mensagem September 30 2007, 9:54 PM
http://www.4shared.com/file/25372493/90988eb5/Sony_Plasma_Training_-_tvp13.html?
dirPwdVerified=e632f63c
Pontuao 1 2 3 4 5 (5=Excelente) Respond to this message
Robson PB
(Login Robson-PB)
201.79.180.100 Interesse Geral
Sem pontuao para esta mensagem October 3 2007, 8:17 AM

de interesse geral
Robson
Pontuao 1 2 3 4 5 (5=Excelente) Respond to this message
joaopaulo
(Login ledetronica)
201.41.214.53 acabei de "downsar" um!
Sem pontuao para esta mensagem October 3 2007, 11:35 AM
up!
Joao Paulo Martins
jptecc@hotmail.com
Pontuao 1 2 3 4 5 (5=Excelente) Respond to this message
marcos paulo sardinha
(Login mp-sardinha)
200.149.252.247 obrigado Alain
Sem pontuao para esta mensagem October 3 2007, 5:12 PM

up
Pontuao 1 2 3 4 5 (5=Excelente) Respond to this message
ALAIN/df
(Login alainsomeimagem)
200.163.3.4 CCE SS 9000
Sem pontuao para esta mensagem October 3 2007, 6:52 PM
http://www.4shared.com/file/25592781/ca23dfd/SS-9000.html?dirPwdVerified=17e5527
a
Pontuao 1 2 3 4 5 (5=Excelente) Respond to this message
ALAIN/df
(Login alainsomeimagem)
200.163.3.4 philips AS9604
Sem pontuao para esta mensagem October 3 2007, 7:42 PM
http://www.4shared.com/file/25573143/4d18b66b/AS-9604_21.html?cau2=403tNull
Pontuao 1 2 3 4 5 (5=Excelente) Respond to this message

Marcos
(Login eletronicamr)
201.95.114.238 Re: philips AS9604
Sem pontuao para esta mensagem October 4 2007, 11:56 AM
mantendo o topo
Pontuao 1 2 3 4 5 (5=Excelente) Respond to this message
ALAIN/df
(Login alainsomeimagem)
200.103.118.192 LG CP15 Q 90
Sem pontuao para esta mensagem October 4 2007, 11:58 AM
http://www.4shared.com/file/25665029/64ca9606/CP15Q90_EE.html?dirPwdVerified=f0e
10d02
Pontuao 1 2 3 4 5 (5=Excelente) Respond to this message
ALAIN/df
(Login alainsomeimagem)
200.103.118.192 LG RP-20CB20A e 14CB20
Sem pontuao para esta mensagem October 4 2007, 12:04 PM
http://www.4shared.com/file/13256243/f21aa901/RP-20CB20a-_RP-14CB20-rp-21fb32.ht
ml?s=1
Pontuao 1 2 3 4 5 (5=Excelente) Respond to this message
ALAIN/df
(Login alainsomeimagem)
200.103.118.192 LG LH-D6530
Sem pontuao para esta mensagem October 4 2007, 6:15 PM
http://www.2shared.com/file/2346109/9216772f/LH-D6530.html
Pontuao 1 2 3 4 5 (5=Excelente) Respond to this message
ALAIN/df
(Login alainsomeimagem)
200.103.118.192 circulares gradiente
Sem pontuao para esta mensagem October 4 2007, 7:23 PM
http://www.2shared.com/file/2346265/cfbc22db/circulares_gradientepart1.html
http://www.2shared.com/file/2346280/2155fbda/circulares_gradientepart2.html

http://www.2shared.com/file/2346244/8a8d70cf/circulares_gradientepart3.html

Pontuao 1 2 3 4 5 (5=Excelente) Respond to this message


Luiz - PR
(Login eletron.luiz)
201.70.146.2 AIWA CX-ZM2900
Sem pontuao para esta mensagem October 4 2007, 11:52 PM
http://www.4shared.com/file/19058427/aec73f5a/AIWA_CX-ZM2900.html?s=1
Pontuao 1 2 3 4 5 (5=Excelente) Respond to this message
ALAIN/df
(Login alainsomeimagem)
200.140.11.69 magnavox MAS339
Sem pontuao para esta mensagem October 5 2007, 7:44 PM
http://www.4shared.com/file/25769600/aa275c8f/MAS339.html?dirPwdVerified=1cd70b9
1
Pontuao 1 2 3 4 5 (5=Excelente) Respond to this message
ALAIN/df
(Login alainsomeimagem)
200.140.11.69 plasma panasonic 103" training
Sem pontuao para esta mensagem October 5 2007, 7:56 PM
http://www.4shared.com/file/25768892/27c9cc85/Plasma_Panasonic_103_pulgadas__Tra
ining_.html
Pontuao 1 2 3 4 5 (5=Excelente) Respond to this message
ALAIN/df
(Login alainsomeimagem)
200.140.11.69 sony plasma training TVP13
Sem pontuao para esta mensagem October 5 2007, 8:04 PM
http://www.4shared.com/file/25770048/84750b31/Sony__Plasma__Training__tvp13.html
Pontuao 1 2 3 4 5 (5=Excelente) Respond to this message
ALAIN/df
(Login alainsomeimagem)
200.140.11.69 full HD plasma panasonic training

Sem pontuao para esta mensagem October 5 2007, 8:59 PM


http://www.4shared.com/file/25773106/14d626eb/10th_Generation_Full_High_Definiti
on_Plasma_Display_TV.html
Pontuao 1 2 3 4 5 (5=Excelente) Respond to this message
Paulo-ctba
(Login Paulophf)
200.193.176.215 senha:brastemp
Sem pontuao para esta mensagem October 5 2007, 10:28 PM
manual de servio lavadoras brastemp e eletrolux!
http://s10.turboupload.com/f/2072941/1191626360/e06cfd8956bebab4d54d5fa3f44d380c
/lavadoras_roupa.kge
Pontuao 1 2 3 4 5 (5=Excelente) Respond to this message
ALAIN/DF
(Login alainsomeimagem)
201.14.125.236 Re: senha:brastemp
Sem pontuao para esta mensagem October 5 2007, 10:42 PM
tem algo errado a
Pontuao 1 2 3 4 5 (5=Excelente) Respond to this message
Paulo-ctba
(Login Paulophf)
200.103.220.187 senha:brastemp
Sem pontuao para esta mensagem October 6 2007, 5:24 AM
Manual de servio lavadoras brastemp e eletrolux!
http://depositfiles.com/en/files/1976049
utilizar o programa KGB para descompactar,pegue ele neste link!
http://switch.dl.sourceforge.net/sourceforge/kgbarchiver/kgb_arch_win_gui_v1.2.1
.24.exe
Pontuao 1 2 3 4 5 (5=Excelente) Respond to this message
ALAIN/df
(Login alainsomeimagem)
200.181.86.164 tabelas sony do paulo
Sem pontuao para esta mensagem October 6 2007, 11:41 AM
1)alguns defeitos + comuns nas tvs sony kv2970 kv3470t ,kv29t80 e kv29vx2:
http://www.4shared.com/file/25776973/1230e529/Defeitos_de_TV_1KV2970T_SONY.html?
dirPwdVerified=7c1281c1

2)tabelas de ids das tvs tipo KV E KP:


http://www.4shared.com/file/25777395/d0fb8f21/Tabela_ID_tvs_sony_KV_e_KP_2004.ht
ml?dirPwdVerified=7c1281c1

3)sony chassis X modelos:


http://www.4shared.com/file/25777450/96b2227/SONY_CHASSIS_LISTA.html?dirPwdVerif
ied=7c1281c1

Pontuao 1 2 3 4 5 (5=Excelente) Respond to this message


ALAIN/df
(Login alainsomeimagem)
200.181.86.164 philips FW-C250
Sem pontuao para esta mensagem October 6 2007, 11:52 AM
http://www.4shared.com/file/25810808/901cd8f8/FWC_250.html?dirPwdVerified=1cd70b
91
Pontuao 1 2 3 4 5 (5=Excelente) Respond to this message
ALAIN/DF
(Login alainsomeimagem)
200.140.129.119 sharp CD-C265X
Sem pontuao para esta mensagem October 6 2007, 4:38 PM
http://www.4shared.com/file/25821704/6deace5b/SHARP_CD-C265X.html
Pontuao 1 2 3 4 5 (5=Excelente) Respond to this message
Antonia - SP
(Login eletromantonia)
201.70.146.2 PHILLIPS AZ-2425
Sem pontuao para esta mensagem October 7 2007, 12:15 AM
http://www.2shared.com/file/2354472/db271bb0/AZ-2425-19.html
Pontuao 1 2 3 4 5 (5=Excelente) Respond to this message
ALAIN/DF
(Login alainsomeimagem)
200.96.168.186 cmeras digitais da sony

Sem pontuao para esta mensagem October 7 2007, 3:03 AM

http://www.4shared.com/file/25828909/64cdd066/Cameras_Sonypart1.html?dirPwdVerif
ied=651a9d72
http://www.4shared.com/file/25831829/1751bee9/Cameras_Sonypart2.html?dirPwdVerif
ied=651a9d72
http://www.4shared.com/file/25835400/dac30afc/Cameras_Sonypart3.html?dirPwdVerif
ied=651a9d72
http://www.4shared.com/file/25840106/b0954100/Cameras_Sonypart4.html?dirPwdVerif
ied=651a9d72
http://www.4shared.com/file/25844429/9bb56baf/Cameras_Sonypart5.html?dirPwdVerif
ied=651a9d72

Pontuao 1 2 3 4 5 (5=Excelente) Respond to this message


ALAIN/DF
(Login alainsomeimagem)
200.140.162.149 seriis heheheeheh
Sem pontuao para esta mensagem October 7 2007, 2:27 PM
SERIAIS PARA QUEM QUISER
October 5 2007 at 1:31 PM
Sem pontuao para esta mensagem
Carlos (Login jcfalchi)
do endereo IP 189.33.112.152
-------------------------------------------------------------------------------SENHAS PROGRAMAS:
ACDSee 6 PowerPack: 073-286-538-460-487-541
outros:
Mobile Palm: 828-889-876-818-454-541
RealViz Sticher EZ: 753-492-319-203-162-541
VideoMagic: 682-067-685-462-943-541
ADOBE ACROBAT V7.0 PROFESSIONAL---SENHA: 1118-1219-3189-4054-0424-2579
ADOBE ACROBAT 6---SENHA: 1118-1358-8576-4538-6053-6920
ADOBE ACROBAT 5---SENHA:AOW301R7136978-298
ADOBE AFTER EFFECTS 6.0 ---SENHA: 1063-1253-5173-5245-2713-1998
ADOBE AFTER EFFECTS 5.5 ---SENHA: EWW470R1001999-030-259
ADOBE AFTER EFFECTS 4.1 ---SENHA: s/n: EMW400R7100609-703 or s/n: EMW400R7731179
-010-228 or s/n: EMW410R7031337-999-771
or s/n: EWW400R4000123-666-922
ADOBE AFTER EFFECTS PRO BUNDLE 5.5 ---SENHA: EWW470R1001999-030-259
ADOBE AUDITION ---SENHA: 1135-1381-2149-2687-0272-1819
ADOBE GO LIVE 6---SENHA: 1033-1127-2515-4365-9787-1611
ADOBE ENCORE DVD ----- SENHA: 1119-1620-0570-4635-7105-7363
ADOBE FONT FOLIO 9.0 ---SENHA: AWW400R7110870-808
ADOBE FRAME MAKER 7 ---SENHA: 103012088265345892877077
ADOBE GO LIVE 5---SENHA: GJW500R2898273-460
ADOBE INDESIGN 2.01 CE ---SENHA: S/N: 1037-1417-0153-4858-1667-0249
ADOBE ILUSTRATOR 10 --- SENHA: 103410034400000011152040
ADOBE INDESIGNER 1.5---SENHA:IPE123R12345678-337
ADOBE INDESIGN 2.0---SENHA:

1037-1206-1879-8486-1803-3172
1037-1209-8464-2903-8516-9076
1037-1207-3926-9934-2437-2605
1037-1208-8245-1384-6813-9613
ADOBE PAGEMAKER 7.0--- SENHA: 1039-1121-2998-7586-7388-7545
ADOBE PHOTOSHOP ELEMENTS IV --- SENHA: 1057-1214-4006-1011-8405-7989 or 1057-121
3-7063-7310-8476-7987
ADOBE PHOTOSHOP ELEMENTS III--- SENHA: Gerador da senha na pasta CRACK.
ADOBE PHOTOSHOP ELEMENTS II--- SENHA: 1057-4427-8084-7059-3638-1053
ADOBE PHOTOSHOP ELEMENTS--- SENHA: 1057-4422-1198-0751-6983-5530
ADOBE PHOTOSHOP CS2 9.0
Tem manual de instalao na pasta CS2KEYGEM
ADOBE PHOTOSHOP 8- --- SENHA: 1045-1756-2071-0999-3438-3575
ADOBE PHOTOSHOP 7 --- SENHA: 1045 1209 6738 4668 7696 2783
ADOBE PREMIERE ELEMENTS ---SENHA: 1143-1478-1509-0495-8448-5889
ADOBE PREMIERE 1.5 Pro. --- Gerador da SENHA esta dentro da pasta CRACK
ADOBE PREMIERE 7 Pro ---SENHA: 1132-1381-7346-2847-2617-6783
ADOBE PREMIERE 6---SENHA: MBW600R7100765-881 / PHOTOSHOP L---SENHA: SDM501B382450
8-217
ADVANCED ZIP PASSWORD RECOVERY 2.44--- SENHA: 00003112193920061941vTdrwsyxPQPaSt
qU
APLICATIVO COMERCIAIS 2003 --- SENHA: 0947201
ARCHITECTURAL DESKTOP R3---SERIAL: 400-19791979 - CD KEY: TLSQBS
ARQUI VIEW GIS---SERIAL:709901101873 OU: 708281182646
ARCINFO 8.0.1 --- Franklin - 7188051703
ASYMETRIX TOOLBOOK II INSTRUCTOR 8.1 ---SERIAL: 50111234567
AUTOCAD 2006 --- SENHA: 191-75444444
Instalar no modo TIPYCAL , no instalar TOOLS , fazer a instalao no local que indicado
a instalao altomatico, reiniciei o computador ao final da instalao como pede o mesmo
, mantive o computador sem concesso com a internet, copiei o validador que esta n
a pasta crack para dentro da pasta do autocad, abri o programa clicando no cone d
a rea de trabalho, ele vai pedir pra conectar e no deve ser conectado,selecionei a
opo Enter an activation code selecione o Pais Brasil, peguei o cdigo que me dado no
EQUEST CODE coloque o cdigo no gerador do validar que esta dentro da pasta do prog
rama o que eu tinha copiado da pasta CRACK, ai me dado um numero no ATIVATIO CODE ,
pegar o numero que dado e colocar no ENTRE ATIVATION CODE
da instalao, clicar em NEX , pronto.
AUTOCAD 2000 BR--- SENHA:112-11111111 CD KEY: 5X8NUG
AUTODESK MECHANICAL DESKTOP 6 --- SERIAL : 400-19791979 CD-KEY : TLSQBS
AUTODESK CAD OVERLAY 2002 --- SERIAL : 400-12345678 CD-KEY : T4ED6P
AUTODESK MAP 5--- SERIAL : s/n: 647-12345678 Code: B5A213C1 Author: s/n: 647-123
45678 Code: B59E3ACB
AUTODESK CAD MAP 200I --- SERIAL : 400-19791979 CD-KEY : TLSQBS
AUTODESK INVENTOR SERIES V10 --- SERIAL : 191-75444444
AUTODESK LAND DESKTOP --- SERIAL: 400-12345678 CD-KEY: T4ED6P
BORLAND C++ BUILDER 6.0 --- SENHA: 5P2C-HX82H-HYH6W / AUTENTICAO: UBY-CEM
BORIS FX --- SERIAL: AG0303-0644777-15M1.
BORIS RED 2.5--- SERIAL: AG0303-0644777-15M17
CAKEWALK GUITAR TRACKS PRO V2--- SERIAL: CD key; 10-cwgp2.00-30c Serial; CWGP2.0
0-003246
CAKEWALK PLASMA 1.0 --- SENHA:CWHS1.02-002666
CAKEWALK HOME STUDIO 2004--- SENHA CWHS2.20-003021
CAKEWALK HOME STUDIO 2002--- SENHA:CWHS1.02-002666
CAKEWALK CLUB TRACKS V2.01--- SENHA: CWCT2.01-006589 CD Key : 428-270396-5034
CAKEWALK MUSIC CREATOR 2002 EDITION--- SENHA: CWMC102-037545 OU CWMC102-037545
CAKEWALK SONAR 4 PRODUCER EDITION--- SENHA: CWSP-4.00-444448-365496
CAKEWALK SONAR 2.XL--- SENHA: CWSX2.00-000001
CARDIOVASCULAR MEDICINE
ERIC TOPOL--- SENHA: RUSR23351
CHEKIT 6.5---SENHA: TC-025045
COREL BRYCE 5.0 ---SENHA: BF50CRD-1257022-WDB
COREL DRAW 12 ---SENHA DR12WEX-1504397-KTY

COREL DRAW 11 ---SENHA: DR11CRD-0012082-DGW


COREL DRAW 10 ---SENHA: D10NR - 3284253T76
COREL WORDPERFECT OFFICE 2002---SENHA: WXPNR-20K2809095
COREL PAINTER 9---SENHA: PF09CNK-6570936-SRB
COREL PAINTER 7---SENHA: PF70CRD-2564458-SZH
CRIA LOJA VIRTUAL---SENHA: 140350B748/1010
CRIAAO DE WEBSITES BR---SENHA: 7505-W2PRB-683618
CRYSTAL REPORTS 11 ---SENHA: B5W60-01C0200-00GPAJ0-0M80
CRYSTAL REPORTS 9.2 ---SENHA: AVS50-81SG00S-G61002U
CRYSTAL REPORTS 8.5 ---SENHA: A6A50-8900008-ZE1007S
CURSO DE 3DSMAX - TECNICAS AVANCADAS E CARACTER STUDIO---SERIAL: 630150 / CDKEY:
416183 / SENHA1: 13420 / SENHA2: CAD2903CP
CURSO DE AUTOCAD 2000--- SERIE: 715150182 . LICENA: 440214327256 , SENHA: 1944053
CURSO DE FLASH---SERIAL: 540234330 LICENA:55623255258 SENHA: 5279103
CURSO 3D STUDIO MAX AVANADO---SENHA:630150 / CDKEY:416183 / SENHA 1:13520 / SENHA
2: CSD2903CP
CURSO 3D STUDIO MAX 2.5 --- Licena:323011361144 / Senhal 1: 113120008 / Senha 2:
1277296
DELPHI 5---SERIAL:1234567890 / KEY:69X4-91X0
DELTA TRANSLATOR--- SENHA: DTR-16206-26378-00281-40
DIRECTOR 8.5---SENHA: WDW850-02044-87235-26420
DIRECTOR 8---SENHA: WDW800-03945-97288-21542 / WDW700-04074-07099-20430
DICIONRIO ELETRNICO HOUAISS---SENHA: DHS-21771533
DREAMWEAVER ULTRADEVE 4---SENHA: DWW400-74670-24489-39933 OU UDW400-06066-0724171420
DREAWEAVER MX 6.0---SENHA: WSW600-03579-37260-92763
DIRECTOR 8.5 ---SENHA: WDW850-02044-87235-26420
DREAMWEVE4 / FIREWORKS 4 STUDIO---SENHA: WBW400-06648-47236-27654
EASY MEDIA CREATOR V7.5: Gerador da senha esta na pasta CRACK no CD - 01
EASY CD CREATOR 7---SENHA:YN-Y7WVY-CQXG6-K3KWZ
EASY CD CREATOR 6---SENHA: BD-JWZS4-QX3MR-0241L
EASY CD Creator v5 02 Platinum --- SERIAL: G-332NB-MGJNH-ZFVPB
EASY CD CREATOR 5---SENHA: P-7TGQ4-G06CM-N5G1L
EMPRESRIO III ---SENHA: E3CO-1-CO-065-00-00M10E11
ENCICLOPDIA BRITNICA 2002 ---SENHA: 651A00395199
FEMLAB 2.1 ---SENHA: HTFLZ-220977392
FINALE 2003---SENHA: DVDA-002112
FINALE 2002---SENHA: DVDA-002112
FINEREADER 5.0---SENHA: FFN5-0900002-05722 ou FFN5-2100868-46171
FIRWORKS MX 6.0---SENHA: WSW600-03579-37260-92763
FLASH 5 BR--- SERIAL:FLW500-03143-77238-80660
FLEXSIGN PRO 7.0.2--- SERIAL: Apois a instalao copiar os arquivos DLL da pasta CRA
CK e colar na pasta PROGRAM.
HOMESITE 5 ---SENHA: HSW500-03135-17229-93887
IBM VIA-VOCE---SERIAL STANDAR:RSB000003089 / SERIAL PROFISSIONAL:RPB897720001
INSTALL SHIELD DEVELOPER V7.03--- SERIAL: ISCSL8-0703-C01175RISE
INSTALL SHIELD PROFESSIONAL V7--- SERIAL: IDPRF8-0700-7020239533
INTERVIDEO WINDVD RECORDER --- SENHA:
email: stop@spam.net
wachtwoord: pcsoft
Licence: VVEDQADH-T4RM7HU8-2TPD2CVE-WBVXG7N3
credit card: 7665
OU
email: user@yahoo.com
password: yahoo
licence: VVE2HP55-Q59RNTY2-L7GRGU3R-499QJEVW
card number: 5858
J BUILDER 4 ENTERPRISE---SENHA: XA22-?HRS5-2UBGS KEY: F2J-46G
JURISSNTESE MILLENNIUM 2001 - VOL. 5---SENHA: JS164-28
JURISSNTESE MILLENIUM 2001 - VOL. 4---SENHA: JS164-27

JURISSINTESE 2000 MILLENIUM VOL. 2 --- SERIAL: JS164-22


JURISSNTESE FISCAL --- SERIAL: SF431-8
JURISSINTESE FISCAL 2000 --- SERIAL: SF431-8
JURISSNTESE MILLENIUM --- SERIAL: JS164-22
KYLIX V2.0 ENTERPRISE---SENHA: X9JR-J24KP-54P6C KEY: FFP-XMG
LAPLINK GOLD 11.0 --- SERIAL: LGDUSRT650428B00
MACROMEDIA AUTHORWARE V6.5 --- SERIAL: APW650-03323-97216-75466
MACROMEDIA STUDIO MX BR --- SERIAL: WSW600-52278-47260-91461
MACROMEDIA STUDIO MX PLUS 2004 --- SERIAL: WSW600-58072-66160-11982 ou WSW600-52
072-43460-41255 ou WSW600-57571-51160-17452
MATHCAD 2001i --- SERIAL: RT105112UP0073
MATHCAD 2000 PROFESSIONAL--- SENHA: PN900909NZ1291
MATLAB 6---SENHA: 12-64223-05656-55232-40443-24472-55074
MATLAB 6.1 --- SENHA: 12-64042-09547-15401-43505-29671-38658-29723-39869-39940-2
8469-44038-63530-19683-53951
MAPINFO PROFESSIONAL V6.5 ---SENHA: S654433451
MAPLE 9.01---SENHA: 123456969
Maple 7---SENHA: 000001210
MEDIA STUDIO--- SENHA 11102-36500-00030506
MR CLIENTES ---SENHAS: 16075AB84D/3032
NERO 7.0 ---SENHA: Gerador da senha na pasta ADDICTION dentrodo CD.
NERO 6.3 --- SENHA: 1A23-0071-7030-1481-6015-3081
NERO 6 --- SENHA: 1A23-OOO6-7130-1204-8976-4901
NEUROFUNCTIONAL SYSTEMS 3D --- SENHA: SENHA: 8621-9833-6917
Tem manual de instalao dentro da pasta CRACK que
NORTON Internet Security 2005 BR
esta dentro do CD junto com o gerador da SENHA.
O manual de instalao tem de ser aberto pelo BLOCO DE NOTAS do Windows. ((( No pode
instalar antes de ler o manual )))
NORTON Systen Works 2005 BR - Tem manual de instalao dentro da pasta CRACK que est
a dentro do CD junto com o gerador da SENHA.
O manual de instalao tem de ser aberto pelo BLOCO DE NOTAS do Windows. ((( No pode
instalar antes de ler o manual )))
OMINIPAGE 12---SENHA: 2889A-W00-555555
OMINIPAGE 11---SENHA: 2889A-C00-000000 KEY: 78877094
OFFICE 2003 PREFESSIONAL ---SENHA: GWH28-DGCMP-P6RC4-6J4MT-3HFDY
OUTROS WFDWY-XQXJF-RHRYG-BG7RQ-BBDHM
OFFICE XP 2002 COM FRONT PAGE---SENHA: F6V3K-C6Q2D-W2RC4-237GY-WBHK3
PANDA ANTIVRUS PLATINUM 7.04 ---SENHA: User Name: CC3XEXYLEK Password: wdcg3rqe
PARTITION MAGIC 8.05 ---SENHA: PM800EN1-11111111
PARTITION MAGIC 8.02 ---SENHA: THXJ-ACNN-R6KN-ERTY-MGKR
PARTITION MAGIC PRO---SENHA: PP700EIEU-110203
PARTITION MAGIC 8 ---SENHA: PM800FR1-3193805303
PAINTER 3D--- SERIAL: VA100RAZ0000498-CELW-001
PHOTO IMPACT---SENHA: 11103-07000-00001531
PINNACLE COMOTION 4.1 PRO--- SERIAL: CMW41-PRO-904478-44J
PINNACLE HOLLYWOOD FX ---SERIAL: HFX46-PLS-230942-15U
PINNACLE INSTANT COPY V8.0--- SERIAL:
- AARTO-AAFQN-YGWFK-HJLMA-AAAAA
- AARTO-AABAM-NRSBG-CONQA-AAABA
- AARTO-AASXY-QPKOB-TXIEA-AAACA
- AARTO-AAXSO-EZLTR-SVQPA-AAADA
- AARTO-AAFYF-UTWGV-TTLNA-AAAEA
- AARTO-AAFHK-AJWJJ-ILLTA-AAAFA
PINNACLE INSTANT PHOTO ALBUM v1.0--- SERIAL: BBDPL-AAWTI-OZLSX-PINUA-AGDLA
PINNACLE INSTANT CD DVD V7--- SERIAL: ABDPG-AANSY-AVNJO-MKJVA-HJUNA
PINNACLE STUDIO PLUS V 9.3--- SERIAL: S/N: JADQC-ABBAA-KOOOP-AAABQ-MDOAZ
Pinnacle Studio 9 Multilanguage Serial : 9e491-ab745-8948c-a9cbb-874cb
PINACLE STUDIO 8.8--- SERIAL: 4517535441
PINNACLE STUDIO 7--- SERIAL:6558798465
PowerQuest Drive Image 7.0---Senha:AY3A-PH7J-3DM6-R7KR-6XJT

POWER DVD XP 4.0 DELUXE--- SERIAL: DX96742126897829


POWER DVD XP 5.0 DELUXE--- SERIAL: DX88183R73239812 SENHA: 10000360
QUARK X PRESS 6 --- SERIAL: TVWXNX-XCUVE2-641HQH-TWK7GH-RKGV12-E1ETPW-14X57Y-38W
RH
QUARK X PRESS 5 --- SERIAL: 39173027QHSKKJF3199PYJX2
QUICK BOOKS 2003 PRO --- SERIAL: 02506-78235-65502-500104
ROXIO PROSUITE 5.0 PLATINUM --- SERIAL: NP-6Y6ZC-RVYY5-ZW1WG
SIC - SISTEMA INTEGRAL COMERCIAL---SENHA:6E34-ENI9-7H37-B891-9741
SIBELIUS 2 --- SERIAL: SCER210900491205668
SOLID EDGE V14 --- SENHA: 5175796B14C8
SOLIDWORKS 2003---SENHA: 9980 0999 9191 7951 AUTH CODE: 7D9YY253
SOLID WORKS 2001:
SENHA: 9940-0826-5674-6593
AUTHORIZATION : 1F9C
PHOTOWORKS SERIAL: 9940 1826 5674 4365
FEATUREWORKS SERIAL: 0960 0027 4048 4872
PIPING SERIAL: 0520 0392 0600 0932
ANIMATOR SERIAL: 0360 0589 0242 0938
SONIC BACKUP MYPC DELUXE 6.0--- SERIAL: Name: www.serials.ws Serial: CYSVNGUWBZH
WSEKP7
SQL SERVER 7.03.5---SENHA: 111-1111111
STRATA 3D PRO 3.5---SENHA: 3PW-DR-AK5QH5ZYG4DB8
SWIFT 3D V2.0---SENHA: T3DW200-65700-95005-88056
SOUND FORGE 6 ---SENHA: Dentro do CD tem o gerador de senha na pasta KEYGEN
ULEAD CD & DVD PICTURESHOW 3 DELUXE ---SENHA: 121A6-13000-00018203
ULEAD DVD MOVIEFACTORY 2004 V3 DISC CREATOR ---SENHA: 111A2-63000-00334867
ULEAD DVD MOVIE FACTORY 2004 ---SERIAL: S/N: E2302-620TP-4F27DAC3 S/N: E23A2-620
TP-9D885E33 S/N: E2302-620TP-8545EF94 S/N: E2302-620TP-8545EF94 S/N: E23A2-620TP
-07BFEDE2
ULEAD DVD MOVIE FACTORY 2---SERIAL: 111A2-62000-00300082
ULEAD DVD MEDIA FACTORY---SENHA: 111A2-62000-00300082
ULEAD.DVD.WORKSHOP.V1.0---SENHA: 96302-51072-24530822
ULEAD MEDIA STUDIO PRO V7---SENHA: 011A2-27042-0190DCN4
ULEAD PHOTO IMPACT 10 ---SENHA:121A3-0A000-00052988
ULEAD PHOTO IMPACT 8 ---SENHA:124A3-08000-39318665
ULEAD PHOTO IMPACT 7 ---SENHA:11103-07000-00001531
ULEAD VIDEO STUDIO 8 ---SENHA:Gerador da SENHA dentro da pasta CRACK
ULEAD VIDEO STUDIO 8 ---SENHA: 111A2-88000-00230680
ULEAD VIDEO STUDIO 7 ---SENHA: Y22EB-YEJ53-VSC92-PF8E6-CKNDZ
ULEAD VIDEO STUDIO 6 ---SENHA: 81102-86000-13939442
ULEAD VIDEO STUDIO V5.0---SENHA: 11102-85000-00015330
UNIVERSAL TRANSLATOR 20000---SENHA: KRA111464Y3QT
UNIX 5.0:
DEM039445
GWNCOUT6
WONDOWS MILLENIUM FULL --- Senha: R4BV9-2RGBB-HBRFM-G7DJQ-8KMW6
WINDOWS NT WORKSTATION---SENHA: 28997-OEM-0025957
WINDOWS 2003 SMALL BUSINESS---SENHA: BBGC6-TXDG9-J9CDW-JXK3R-GTMMB
MICROSOFT WINDOWS 2003 SERVER ENTERPRISE ---SENHA: K4RBR-F3K42-M9RXG-48TPR-H6BPB
or QW32K-48T2T-3D2PJ-DXBWY-C6WRJ
Aps dar o boot pelo cd selecionar verso 3in1 que no expira.
WINDOWS 2003 WITH SP1 8IN1---SENHA:
1. Insert CD and install your favorite flavor of Windows 2003 or boot from CD an
d install
2. CD Keys:
Windows 2003 Datacenter Corporate: JK6JC-P7P7H-4HRFC-3XM7P-G33HM
Windows 2003 Datacenter Retail: QW32K-48T2T-3D2PJ-DXBWY-C6WRJ
Windows 2003 Enterprise Corporate: JK6JC-P7P7H-4HRFC-3XM7P-G33HM
Windows 2003 Enterprise Retail: QW32K-48T2T-3D2PJ-DXBWY-C6WRJ
Windows 2003 Standard Corporate: JK6JC-P7P7H-4HRFC-3XM7P-G33HM

Windows 2003 Standard Retail: M6RJ9-TBJH3-9DDXM-4VX9Q-K8M8M


Windows 2003 Web Corporate: JK6JC-P7P7H-4HRFC-3XM7P-G33HM
Windows 2003 Web Retail: D42X8-7MWXD-M4B76-MKYP7-CW9FD
3. For non-corporate installs, hit F8 before the splash screen comes up
and select Safe Mode, then run WPA_Kill.exe (in CRACK folder) to
disable activation. Read the .txt in that directory for more info
WINDOWS XP X64 PROFESSIONAL---SENHA: VCFQD-V9FX9-46WVH-K3CD4-4J3JM
WINDOWS XP 2002 PRO ADVANCED SERVER 64 BIT EDITION FINAL---SENHA: C4FPJ-HQCGP-QD
3XC-2JF34-FT8Y6
WONDOWS XP 2002 HOME ( BR ) --- SENHA:K8GMG-PRV3M-VG2JH-DJJ48-RY7FV
WONDOWS XP 2002 HOME ---SENHA: BQJG2-2MJT7-H7F6K-XW98B-4HQRQ
WINDOWS XP 2002 PROFESSIONAL BOOTAVEL ( BR) ---SENHA: FCKGW-RHQQ2-YXRKT-8TG6W-2B
7Q8
WINDOWS XP PROFESSIONAL BOOTAVEL SP2 (BR) SENHA: J6T2H-YBT26-FWXGY-2HVXJ-TTBDY
WINDOWS XP PROFESSIONAL CORP SP2 (BR) SENHA: XP8BF-F8HPF-PY6BX-K24PJ-TWT6M
WINDOWS XP PROFESSIONAL BOOTAVEL SP1 (BR) ---SENHA: 236WQ-D24BH-YXCMX-GTGMC-WGCG
T
WINDOWS XP SP2 9 EM 1 ---SENHA:
Windows XP Home OEM: JQ4T4-8VM63-6WFBK-KTT29-V8966
Windows XP Home Retail: RH6M6-7PPK4-YR86H-YFFFX-PW8M8
Windows XP Home Upgrade: RH6M6-7PPK4-YR86H-YFFFX-PW8M8
Windows XP Media Center 2005: C4BH3-P4J7W-9MT6X-PGKC8-J4JTM
Windows XP Professional Corp: XP8BF-F8HPF-PY6BX-K24PJ-TWT6M
Windows XP Professional OEM: XJM6Q-BQ8HW-T6DFB-Y934T-YD4YT
Windows XP Professional Retail: CD87T-HFP4C-V7X7H-8VY68-W7D7M
Windows XP Professional Upgrade: CD87T-HFP4C-V7X7H-8VY68-W7D7M
WINDOWS XP 2002 PROFESSIONAL ( BR) ---SENHA: BX6HT-MDJKW-H2J4X-BX67W-TVVFG
WINDOWS XP 2002 PROFESSIONAL (Ing.)---SENHA: FCKGW-RHQQ2-YXRKT-8TG6W-2B7Q8
Antes de mais nada verificar dentro do CD se tem a pasta CRACK, se tiver usar a
senha que esta nela.....
WINDOWS XP 2002 PROFESSIONAL SP2 (Ing.) ---SENHA:T9P4G-PCHVK-V376F-4KF64-YWK3T
WINDOWS XP 2002 PROFESSIONAL SP1 (Ing.) ---SENHA: HRXTR-FKTCV-X8QCH-D7PTH-KYYPB
WINDOWS XP 2002 PROFESSIONAL---SENHA: CDWVP-GBJRG-PDJRG-Y6CMB-HCGG3
WONDOWS XP 2002 PROFESSIONAL CORPORATION EDITION ---SENHA: FCKGW-RHQQ2-YXRKT-8TG
6W-2B7Q8
WINDOWS 2000 ADVANCED SERVER ---SENHA: H6TWQ-TQQM8-HXJYG-D69F7-R84VM
WINDOWS 2000 PROFESSIONAL BOOT CD BR ---SENHA:XGH9J-KBPBD-FXDKQ-K36XB-X9J6Y
WINDOWS 2000 PROFESSIONAL ( INGLES )---SENHA: RBDC9-VTRC8-D7972-J97JY- PRVMG
WINDOWS 2000 SERVER BR---SENHA: H6TWQ-TQQM8-HXJYG-D69F7-R84VM
WINDOWS 2000 SERVER USA---SENHA: RBDC9-VTRC8-D7972-J97JY-PRVMG
WINDOWS 1998 SEGUNDA EDIO BR---SENHA: BY4DP 93HP4 7T4CP G9X2F 2H4GM
WINDOWS 1995 --- SENHA: 05697-oem-0019164-28879
VISUAL JAVA++ --- SENHA: 325-3053836
VISUAL KIT 5 2003 --- SENHA: KEY: U5R.IGR.567.J9L.I6K.133.9C9
VISUAL STUDIO.NET--- SENHA: D64GG-GXY6T-V6FTR-WCPBB-2YDYB
VISIO 2002 PROFESSIONAL EDITION --- SENHA: H8748-Q8MKJ-3W38C-PRV2F-JJXYY ou KW77
G-TBTQ2-3V7V6-9DWP2-98VDJ
Depois de instalado ignorar a opo de validar pela internet ou por telefone
VISIO 2000 PROFESSIONAL EDITION --- SENHA: 123035 250002
MICROSOFT VISIO 2003 FOR VS NET --- SENHA:
VISUAL NASTRAN---SENHA: Run setup and choose evaluation installation. Choose mod
ules you want and install it. Once installed run main program and enter 20300503
F12784 where it asked for serial to register it. To register all other modules (
SE/SW/MTD and so on) enter same serial as you entered to register main program.
VOYETRA MUSICWRITE---SENHA: AS5000-003285-005
XARAWEBSTYLE 3.0 ---SENHA: 912565269169
XAR 3D 5 ---SENHA: X3D-111850549990
3D STUDIO MAX 5---SENHA:400-19791979 / KEY:TLSQBS
3D STUDIO MAX 3---SENHA:110-19990726 / CHAVE:SWP9UV / COMPLEMENTO:4C2CACB4
3D STUDIO VIZ--- SERIAL: 110-19990726 / KEY: SWP9UV / AUTORIZE CODE: 71957107

DICAS IMPORTANTES:
Como validar o AUTOCAD 2000 br:
Depois de instalado execute o arquivo validar.exe que est na raiz do cd, ir abrir
uma caixa de dialogo informando um nmero autenticao.Sem fechar o arquivo validar ex
ecute o arquivo gerador.exe que est na raiz do cd. Digite a autenticao. Ir aparecer
o nmero validar. Volte para validar.exe e copie o nmero e copie esse nmero em valid
ar e clique em validao. V para a pasta update ploter na raiz do CD, e execute o arq
uivo plotupdat.exe. que esta na pasta UPDATE.
Como instalar o 3D Studio Max 3:
SENHA: 110-19990726
CHAVE: SWP9UV
COMPLEMENTO: 4C2CACB4
1-Instalar o programa normalmente
2-Aps a instalao copiar a pasta com o nome CRACK que esta dentro do CD para a unida
de C do seu PC.
3-Trocar o nome do 1 arquivo que esta dentro da 1 pasta (exe: 3Dnovo) e copia-lo p
ara onde foi instalado o 3D Studio Max 3, o arquivo que esta na 2 pasta e s copialo sem altera nada.
4-Depois dar 2 clique em cada um e pronto...
Como instalar o 3D Studio Max 4:
CD-Key: 226-19791979
Key: XLSQBQ
1-instale o 3D Studio Max 4.0.
2-Execute o arquivo 3DSMAX4.EXE do diretorio KEYGEN do CD-Rom.
3-Clique no icone do 3D Studio para entrar no programa,aparecera uma tela para r
egistrarcom 3 opes,
escolha a primeira e marque o requeste code para ser digitado no programa KEYGEN
3DSMAX4.EXE que foi executado.
4-Clique em GENERATE apos digitar o Request code no programa KEYGEN 3DSMAX4.EXE
5-Marque o Authorization code, e digite na tela do 3D Studio e confirme ate o fi
m
6-Clique ainda no programa KEYGEN 3DSMAX4.EXE, no boto "Let me Use max Now!!!"
Como instalar Adobe Ilustrator 9.0:
1-Caso voc j tenha instalado o adobe ilustrator verso anterior ao 9.0, tudo bem, el
e ir fazer um upgrade.
2-Use o nmero serial: abw900r71111141-999-830. caso contrro siga os passos abaixo:
3-Crie um diretrio qualquer, por exemplo: c:\iluso, da descompacte o arquivi.zip qu
e esta na pasta craqck nele.
3.1 - inicie o processo de instalao do ilustrator 9.0.
3.2 - clique em "search a specific folder for prior instalation"
3.3 - digite o diretrio c:\iluso, que no caso estaro os arquivos que faro com que o
programa detecte uma verso anterior instalado.
3.4 - digite o nmero serial: abw900r71111141-999-830.
3.5 - no instale por cima do diretrio c:\iluso, dado como exemplo.

Pontuao 1 2 3 4 5 (5=Excelente) Respond to this message


ALAIN/df
(Login alainsomeimagem)
200.103.116.42 philips fwc290
Sem pontuao para esta mensagem October 8 2007, 1:23 PM

http://upload2.net/page/download/CMPRo50XPXQsku0/fwc290-19_ee.zip.html
Pontuao 1 2 3 4 5 (5=Excelente) Respond to this message
ALAIN/df
(Login alainsomeimagem)
200.103.116.42 philco PTV 1412
Sem pontuao para esta mensagem October 8 2007, 7:27 PM
http://www.2shared.com/file/2361322/d3617392/PVT-1412.html
Pontuao 1 2 3 4 5 (5=Excelente) Respond to this message
ALAIN/df
(Login alainsomeimagem)
200.103.116.42 philco TP14U56 BTP20V56 TP29C21
Sem pontuao para esta mensagem October 8 2007, 8:13 PM
http://www.2shared.com/file/2361429/41fcbc9f/TP14U56__BTP20V56__TP29C21.html
Pontuao 1 2 3 4 5 (5=Excelente) Respond to this message
ALAIN/DF
(Login alainsomeimagem)
201.24.18.147 philips mx2500
Sem pontuao para esta mensagem October 8 2007, 10:06 PM
http://www.4shared.com/file/14157809/80bb2b88/MX_2500.html?dirPwdVerified=e6a811
27
Pontuao 1 2 3 4 5 (5=Excelente) Respond to this message
rui
(Login ruifrances)
85.138.43.71 Re: FIRST LESSON QUE ALGUM APAGOU AQUI DE NOVO
Sem pontuao para esta mensagem October 8 2007, 10:19 PM
MR. ALAIN. Vous ete imparable...
Pontuao 1 2 3 4 5 (5=Excelente) Respond to this message
ALAIN/DF
(Login alainsomeimagem)
201.24.18.147 Re: FIRST LESSON QUE ALGUM APAGOU AQUI DE NOVO
Sem pontuao para esta mensagem October 8 2007, 10:34 PM

cette une petite question de travail ehhehehehhe


Pontuao 1 2 3 4 5 (5=Excelente) Respond to this message
ALAIN/DF
(Login alainsomeimagem)
201.24.18.147 philips FW-C777
Sem pontuao para esta mensagem October 8 2007, 10:42 PM
http://www.4shared.com/file/12691765/4a453047/FWC_777.html?dirPwdVerified=f0e10d
02
Pontuao 1 2 3 4 5 (5=Excelente) Respond to this message
ALAIN/DF
(Login alainsomeimagem)
201.24.18.147 philips MX2800
Sem pontuao para esta mensagem October 8 2007, 11:27 PM
http://www.4shared.com/file/25981438/ccdba4ee/mx5800s.html?dirPwdVerified=1cd70b
91
Pontuao 1 2 3 4 5 (5=Excelente) Respond to this message
ALAIN/DF
(Login alainsomeimagem)
201.24.18.147 que vertical este
Sem pontuao para esta mensagem October 9 2007, 12:04 AM
http://www.4shared.com/file/25939217/d8bbbeb1/catalogo__IC_vertical1.html?dirPwd
Verified=42d34648
Pontuao 1 2 3 4 5 (5=Excelente) Respond to this message
ALAIN/df
(Login alainsomeimagem)
200.140.81.224 sharp tvc 2877b
Sem pontuao para esta mensagem October 9 2007, 12:36 PM
http://www.2shared.com/file/2363758/d1f56c1c/SHARP_TVC-2877B.html
Pontuao 1 2 3 4 5 (5=Excelente) Respond to this message
ALAIN/df

(Login alainsomeimagem)
200.140.81.224 panasonic TC29KL05
Sem pontuao para esta mensagem October 9 2007, 1:09 PM
http://www.4shared.com/file/9245356/a7b46224/TC-29KL05.html?s=1
Pontuao 1 2 3 4 5 (5=Excelente) Respond to this message
ALAIN/df
(Login alainsomeimagem)
200.140.81.224 sony hcd gx45
Sem pontuao para esta mensagem October 9 2007, 2:44 PM
http://www.4shared.com/file/16704479/5d739681/HCD-GX45.html?s=1
Pontuao 1 2 3 4 5 (5=Excelente) Respond to this message
ALAIN/df
(Login alainsomeimagem)
200.140.81.224 sony dvp ns325 725
Sem pontuao para esta mensagem October 9 2007, 6:36 PM
http://www.4shared.com/file/26042267/e43c3832/Sony_-_DVD_DVP-NS325_725P_-_Servic
e_Manual.html
Pontuao 1 2 3 4 5 (5=Excelente) Respond to this message
ALAIN/df
(Login alainsomeimagem)
200.140.81.224 boletins plasma samsung
Sem pontuao para esta mensagem October 9 2007, 6:51 PM
http://www.4shared.com/file/21625050/53983ab6/BOLETIMTVPLASMASANSUNG.html
Pontuao 1 2 3 4 5 (5=Excelente) Respond to this message
ALAIN/df
(Login alainsomeimagem)
200.140.81.224 LG RP29CC25 manual completo
Sem pontuao para esta mensagem October 9 2007, 7:49 PM
http://www.4shared.com/file/26050638/99949801/3828VD0160D.html?dirPwdVerified=1c
d70b91
Pontuao 1 2 3 4 5 (5=Excelente) Respond to this message

ALAIN/DF
(Login alainsomeimagem)
200.181.91.251 sanyo ctp3766
Sem pontuao para esta mensagem October 10 2007, 1:33 AM
http://www.4shared.com/file/13036673/1cb606b5/SanyoCTP3766u.html?s=1
Pontuao 1 2 3 4 5 (5=Excelente) Respond to this message
Carlos
(Login jcfalchi)
189.33.112.152 Re: sanyo ctp3766
Sem pontuao para esta mensagem October 10 2007, 1:39 AM
MANUAL DE SERVIO - OSCILOSCPIO TEKTRONIX 100MHZ MODELO 465M
http://www.4shared.com/file/26065825/84de7215/TEKTRONIX_465M.html?dirPwdVerified
=53e51d84

Pontuao 1 2 3 4 5 (5=Excelente) Respond to this message


ALAIN/DF
(Login alainsomeimagem)
200.181.91.251 LG CP 20J50
Sem pontuao para esta mensagem October 10 2007, 1:53 AM
http://www.2shared.com/file/2361389/be5c4290/LG_CP-20J50.html
Pontuao 1 2 3 4 5 (5=Excelente) Respond to this message
ALAIN/DF
(Login alainsomeimagem)
200.181.91.251 20PT529
Sem pontuao para esta mensagem October 10 2007, 1:55 AM
http://www.4shared.com/file/26055971/b8a652ae/PHILIPS_-_20PT529.html?dirPwdVerif
ied=53e51d84
Pontuao 1 2 3 4 5 (5=Excelente) Respond to this message
Carlos
(Login jcfalchi)
189.33.112.152 Re: 20PT529
Sem pontuao para esta mensagem October 10 2007, 2:13 AM

MANUAL DE SERVIO IMPRESSORA EPSON LQ-870 // LQ-1170


October 9 2007 at 9:27 PM
Sem pontuao para esta mensagem
Carlos (Login jcfalchi)
do endereo IP 189.33.112.152
-------------------------------------------------------------------------------http://www.4shared.com/file/26064253/97d7a354/Epson_LQ-870_LQ-1170_Service_Manua
l.html?dirPwdVerified=53e51d84

Pontuao 1 2 3 4 5 (5=Excelente) Respond to this message


Carlos
(Login jcfalchi)
189.33.112.152 Re: 20PT529
Sem pontuao para esta mensagem October 10 2007, 2:14 AM
MANUAL DE SERVIO IMPRESSORA EPSON FX-870 // FZ-1170
October 9 2007 at 9:24 PM
Sem pontuao para esta mensagem
Carlos (Login jcfalchi)
do endereo IP 189.33.112.152
-------------------------------------------------------------------------------http://www.4shared.com/file/26064097/3f8bfc2f/Epson_FX-870_FZ-1170_Service_Manua
l.html?dirPwdVerified=53e51d84

Pontuao 1 2 3 4 5 (5=Excelente) Respond to this message


Carlos
(Login jcfalchi)
189.33.112.152 Re: 20PT529
Sem pontuao para esta mensagem October 10 2007, 2:16 AM
TESTADOR GERADOR VGA PAA MONITORES
http://www.4shared.com/file/26056766/27f274a8/TESTADOR-GERADOR-VGA-PARA-MONITORE
S.html?dirPwdVerified=53e51d84

Pontuao 1 2 3 4 5 (5=Excelente) Respond to this message


Carlos
(Login jcfalchi)
189.33.112.152 Re: 20PT529
Sem pontuao para esta mensagem October 10 2007, 2:17 AM
RECEPTOR DE CONTROLE REMOTO PARA PC
http://www.4shared.com/file/26056495/3b258784/RECEPTOR_DE_CONTROLE_REMOTO_PARA_P
C.html?dirPwdVerified=53e51d84

Pontuao 1 2 3 4 5 (5=Excelente) Respond to this message


Carlos
(Login jcfalchi)
189.33.112.152 Re: 20PT529
Sem pontuao para esta mensagem October 10 2007, 2:18 AM
GERADOR DE ALTA TENSO
http://www.4shared.com/file/26056296/a6a1aa8c/GERADOR_DE_ALTA_TENSAO.html?dirPwd
Verified=53e51d84

Pontuao 1 2 3 4 5 (5=Excelente) Respond to this message


Carlos
(Login jcfalchi)
189.33.112.152 Re: 20PT529
Sem pontuao para esta mensagem October 10 2007, 2:19 AM
FONTE AJUSTVEL 0-30v - 10A
http://www.4shared.com/file/26056204/996d70e9/Fonte_regulavel_de_0_A_30v_por_10A
.html?dirPwdVerified=53e51d84

Pontuao 1 2 3 4 5 (5=Excelente) Respond to this message


Carlos
(Login jcfalchi)
189.33.112.152 Re: 20PT529
Sem pontuao para esta mensagem October 10 2007, 2:20 AM
DETECTOR DE POXIMIDADE INFRA -VERMELHO
http://www.4shared.com/file/26056058/ee281ce9/DETECTOR_DE_PROXIMIDADE_INFRAVERME
LHO.html?dirPwdVerified=53e51d84

Pontuao 1 2 3 4 5 (5=Excelente) Respond to this message


Carlos
(Login jcfalchi)
189.33.112.152 Re: 20PT529
Sem pontuao para esta mensagem October 10 2007, 2:21 AM
MANUAL DE SERVIO IMPRESSORA EPSON FX-870
http://www.4shared.com/file/26055491/2efdec73/EPSON_FX-870.html?dirPwdVerified=5
3e51d84

Pontuao 1 2 3 4 5 (5=Excelente) Respond to this message


Carlos
(Login jcfalchi)
189.33.112.152 Re: 20PT529
Sem pontuao para esta mensagem October 10 2007, 2:22 AM
FILTRO ADSL SPLINTER
http://www.4shared.com/file/26055309/f4abc98d/Filtro_Adsl_splinter.html?dirPwdVe
rified=53e51d84

Pontuao 1 2 3 4 5 (5=Excelente) Respond to this message

Carlos
(Login jcfalchi)
189.33.112.152 Re: 20PT529
Sem pontuao para esta mensagem October 10 2007, 2:22 AM
CONTROLE DE VELOCIDADE VENTILADOR DE DISSIPADOR
http://www.4shared.com/file/26055160/d8a902c1/CONTROLE_DE_VELOCIDADE_VENTILADOR_
DE_DISSIPADOR.html?dirPwdVerified=53e51d84

Pontuao 1 2 3 4 5 (5=Excelente) Respond to this message


Carlos
(Login jcfalchi)
189.33.112.152 Re: 20PT529
Sem pontuao para esta mensagem October 10 2007, 2:23 AM
MANUAL DE SERVIO IMPRESSORA EPSON LX-300
http://www.4shared.com/file/26055043/72545bce/EPSON_LX-300.html?dirPwdVerified=5
3e51d84

Pontuao 1 2 3 4 5 (5=Excelente) Respond to this message


Carlos
(Login jcfalchi)
189.33.112.152 Re: 20PT529
Sem pontuao para esta mensagem October 10 2007, 2:24 AM
APOSTILA DE ROTEADORES
http://www.4shared.com/file/26051925/4ddef5a5/Apostila-_Roteadores.html?dirPwdVe
rified=53e51d84

Pontuao 1 2 3 4 5 (5=Excelente) Respond to this message


Carlos

(Login jcfalchi)
189.33.112.152 Re: 20PT529
Sem pontuao para esta mensagem October 10 2007, 2:25 AM
ESQUEMA ELTRICO AMP. AIKO PA3000
http://www.4shared.com/file/26051965/29b230a1/aiko_pa3000.html?dirPwdVerified=53
e51d84

Pontuao 1 2 3 4 5 (5=Excelente) Respond to this message


Carlos
(Login jcfalchi)
189.33.112.152 Re: 20PT529
Sem pontuao para esta mensagem October 10 2007, 2:26 AM
MONITOR LCD AOC LM700
http://www.4shared.com/file/26051867/c67e3bba/AOC_LCD_Lm700.html?dirPwdVerified=
53e51d84

Pontuao 1 2 3 4 5 (5=Excelente) Respond to this message


Carlos
(Login jcfalchi)
189.33.112.152 Re: 20PT529
Sem pontuao para esta mensagem October 10 2007, 2:27 AM
Manual Prtico de Cerca Eltrica
http://www.4shared.com/file/26053120/99ae9819/Cerca_Eletrica.html?dirPwdVerified
=53e51d84

Pontuao 1 2 3 4 5 (5=Excelente) Respond to this message


Carlos
(Login jcfalchi)
189.33.112.152 Re: 20PT529
Sem pontuao para esta mensagem October 10 2007, 2:29 AM

PHILIPS 20PT529
http://www.4shared.com/file/26055971/b8a652ae/PHILIPS_-_20PT529.html?dirPwdVerif
ied=53e51d84

Pontuao 1 2 3 4 5 (5=Excelente) Respond to this message


ALAIN/df
(Login alainsomeimagem)
200.163.14.186 tekronix 465
Sem pontuao para esta mensagem October 10 2007, 11:06 AM
http://www.4shared.com/file/26065825/84de7215/TEKTRONIX_465M.html?dirPwdVerified
=53e51d84
Pontuao 1 2 3 4 5 (5=Excelente) Respond to this message
ALAIN/df
(Login alainsomeimagem)
200.163.14.186 philips VR 457 557 e 757
Sem pontuao para esta mensagem October 10 2007, 11:22 AM
http://www.4shared.com/file/26076175/d9ad3b81/VR_457_E_557_E_757.html?dirPwdVeri
fied=1cd70b91
Pontuao 1 2 3 4 5 (5=Excelente) Respond to this message
Carlos
(Login jcfalchi)
189.33.112.152 Re: philips VR 457 557 e 757
Sem pontuao para esta mensagem October 10 2007, 2:37 PM
NO-BREAKS SMS
http://www.4shared.com/file/19654505/efb20a66/varios_Nobreaks_SMS.html?dirPwdVer
ified=53e51d84

Pontuao 1 2 3 4 5 (5=Excelente) Respond to this message


Carlos
(Login jcfalchi)
189.33.112.152 Re: philips VR 457 557 e 757

Sem pontuao para esta mensagem October 10 2007, 2:41 PM


SONY WEGA 29 - 34 E 38 MODELOS 2002
http://www.4shared.com/file/19657234/a462d058/WEGA_29-34-38_MODELO2002.html?dirP
wdVerified=53e51d84

Pontuao 1 2 3 4 5 (5=Excelente) Respond to this message


Carlos
(Login jcfalchi)
189.33.112.152 Re: philips VR 457 557 e 757
Sem pontuao para esta mensagem October 10 2007, 2:44 PM
CARREGADOR DE BATERIA
http://www.4shared.com/file/26052014/c900291/Carregador_de_bateria.html?dirPwdVe
rified=53e51d84

Pontuao 1 2 3 4 5 (5=Excelente) Respond to this message


Carlos
(Login jcfalchi)
189.33.112.152 Re: philips VR 457 557 e 757
Sem pontuao para esta mensagem October 10 2007, 2:46 PM
CIRCULARES DE SOM PANASONIC
http://www.4shared.com/file/19653222/db78d37b/circulares_de_som_panasonic.html?d
irPwdVerified=53e51d84

Pontuao 1 2 3 4 5 (5=Excelente) Respond to this message


Carlos
(Login jcfalchi)
189.33.112.152 Re: philips VR 457 557 e 757
Sem pontuao para esta mensagem October 10 2007, 2:48 PM
DICAS DE MONITORES

http://www.4shared.com/file/22499834/4d9a3dae/Dicas_de_Monitores.html?dirPwdVeri
fied=53e51d84

Pontuao 1 2 3 4 5 (5=Excelente) Respond to this message


Carlos
(Login jcfalchi)
189.33.112.152 Re: philips VR 457 557 e 757
Sem pontuao para esta mensagem October 10 2007, 2:51 PM
DVD LG - DV5921N
http://www.4shared.com/file/19655127/8c3fc671/dvd-LG-DV5921N.html?dirPwdVerified
=53e51d84
Pontuao 1 2 3 4 5 (5=Excelente) Respond to this message
Carlos
(Login jcfalchi)
189.33.112.152 Re: philips VR 457 557 e 757
Sem pontuao para esta mensagem October 10 2007, 2:53 PM
MANUTENO DE PLACA-ME PT-BR
http://www.4shared.com/file/22571859/d4a9a3be/Manutencaodeplaca-maePT_BR.html?di
rPwdVerified=53e51d84

Pontuao 1 2 3 4 5 (5=Excelente) Respond to this message


Carlos
(Login jcfalchi)
189.33.112.152 Re: philips VR 457 557 e 757
Sem pontuao para esta mensagem October 10 2007, 3:07 PM
MULTIMETROS
HIOKI-AF105
SANWA 320-X
http://www.4shared.com/file/26105358/fd67518b/MULTIMETRO_HIOKI_AF105.html?dirPwd
Verified=53e51d84

http://www.4shared.com/file/26105226/545c807c/MULTIMETRO_SANWA_320-X.html?dirPwd
Verified=53e51d84

Pontuao 1 2 3 4 5 (5=Excelente) Respond to this message


Robson PB
(Login Robson-PB)
200.172.94.87 + 1 Treinamento em Plasma
Sem pontuao para esta mensagem October 10 2007, 3:41 PM

+ 1 Treinamento em Plasma
http://www.4shared.com/file/26106735/c0308d82/plasma.html
Robson
Pontuao 1 2 3 4 5 (5=Excelente) Respond to this message
ALAIN/df
(Login alainsomeimagem)
200.163.14.186 FW 768
Sem pontuao para esta mensagem October 10 2007, 4:59 PM
http://www.4shared.com/file/26113653/74753c84/FW768.html?dirPwdVerified=f0e10d02
Pontuao 1 2 3 4 5 (5=Excelente) Respond to this message
Carlos
(Login jcfalchi)
189.33.112.152 Re: FW 768
Sem pontuao para esta mensagem October 10 2007, 5:01 PM
SHARP 2006A
http://www.4shared.com/file/26113945/8f51efcd/Sharp-2006A.html?dirPwdVerified=53
e51d84

Pontuao 1 2 3 4 5 (5=Excelente) Respond to this message

Carlos
(Login jcfalchi)
189.33.112.152 Re: FW 768
Sem pontuao para esta mensagem October 10 2007, 5:17 PM
SERVIO DE MECANISMO DE CD - AIWA - SHARP - SONY E PIONEER
http://www.4shared.com/file/26115237/720a81b/PUESTA_A_PUNTO_DE_MECANISMOS_DE_CD_
AIWASHARPSONY_Y_PIONEER.html?dirPwdVerified=53e51d84

Pontuao 1 2 3 4 5 (5=Excelente) Respond to this message


Carlos
(Login jcfalchi)
189.33.112.152 Re: FW 768
Sem pontuao para esta mensagem October 10 2007, 6:27 PM
MANUAL DE SERVIO OSCILOSCOPIO HITACHI MODELOS V-211-212-222-422
http://www.4shared.com/file/26120771/fc9a8023/OSCILOSCOPIO_HITACHI_V-211-212-222
-422-Service_Manual.html?dirPwdVerified=53e51d84

Pontuao 1 2 3 4 5 (5=Excelente) Respond to this message


Carlos
(Login jcfalchi)
189.33.112.152 Sem pontuao para esta mensagem October 10 2007, 6:31 PM
SOM AIWA 4GZ-1 3 CD's MANUAL DE SERVIO
http://www.4shared.com/file/26121156/ecf96cd5/Aiwa_3Cd-Player_4ZG-1_Service_Manu
al.html?dirPwdVerified=53e51d84

Pontuao 1 2 3 4 5 (5=Excelente) Respond to this message


Carlos
(Login jcfalchi)

189.33.112.152 Re: Sem pontuao para esta mensagem October 10 2007, 6:40 PM
TV LCD LG 32LP1D-UA....37LP1D-UA.....42LP1D-UA
http://www.4shared.com/file/26121716/8c18d563/32LP1D_Service_Manual.html?dirPwdV
erified=53e51d84

Pontuao 1 2 3 4 5 (5=Excelente) Respond to this message


Carlos
(Login jcfalchi)
189.33.112.152 Re: Sem pontuao para esta mensagem October 10 2007, 8:49 PM
CELULAR MOTOROLA V6 MANUAL DE SERVIO
http://www.4shared.com/file/26131580/8a5d36c1/MOTOROLA_maxx_V6_Service_Manual_Le
v12.html?dirPwdVerified=53e51d84

Pontuao 1 2 3 4 5 (5=Excelente) Respond to this message


Carlos
(Login jcfalchi)
189.33.112.152 Re: Sem pontuao para esta mensagem October 10 2007, 8:56 PM
MONITOR LG 99T ESQUEMA ELTRICO
http://www.4shared.com/file/26132072/f7b52627/LG_99T.html?dirPwdVerified=53e51d8
4

Pontuao 1 2 3 4 5 (5=Excelente) Respond to this message


Carlos
(Login jcfalchi)

189.33.112.152 Re: Sem pontuao para esta mensagem October 10 2007, 9:03 PM
TV PHILIPS CHASSI ANUBIS
http://www.4shared.com/file/26132689/e3729fd2/Service_Manual_-_Philips_Tv_-_Chas
sis_Anubisa.html?dirPwdVerified=53e51d84

Pontuao 1 2 3 4 5 (5=Excelente) Respond to this message


Carlos
(Login jcfalchi)
189.33.112.152 Re: Sem pontuao para esta mensagem October 10 2007, 10:50 PM
IMPRESSORA HP DESKJET 1220C MANUAL DE SERVIO COMPLETO
http://www.4shared.com/file/26138235/6184428a/HP_DeskJet_1220C_Series_service_ma
nual.html?dirPwdVerified=53e51d84

Pontuao 1 2 3 4 5 (5=Excelente) Respond to this message


Carlos
(Login jcfalchi)
189.33.112.152 Re: Sem pontuao para esta mensagem October 10 2007, 10:58 PM
TELEFONE CELULAR NOKIA N73 MANUAL DE SERVIO COMPLETO
http://www.4shared.com/file/26138537/8ac53523/Nokia_N73_Service_Manual__Level_12
_.html?dirPwdVerified=53e51d84

Pontuao 1 2 3 4 5 (5=Excelente) Respond to this message


Paulo-ctba
(Login Paulophf)
200.101.163.189 Sony_MHC-RG90
Sem pontuao para esta mensagem October 10 2007, 11:14 PM

http://www.4shared.com/file/26124441/5a93faee/MHC-RG90_manual_de_servio_BR.html
Pontuao 1 2 3 4 5 (5=Excelente) Respond to this message
Paulo-ctba
(Login Paulophf)
200.101.163.189 Manual de servio_lavadoras de roupa
Sem pontuao para esta mensagem October 10 2007, 11:17 PM

http://www.4shared.com/file/26122668/3796ab7a/lavadoras_roupa.html
Pontuao 1 2 3 4 5 (5=Excelente) Respond to this message
Carlos
(Login jcfalchi)
189.33.112.152 Re: Manual de servio_lavadoras de roupa
Sem pontuao para esta mensagem October 10 2007, 11:43 PM
TELEFONE CELULAR NOKIA 6225i MANUAL DE SERVIO
http://www.4shared.com/file/20034551/d7a66eb7/6225_schematics.html?dirPwdVerifie
d=a0a05a

Pontuao 1 2 3 4 5 (5=Excelente) Respond to this message


Carlos
(Login jcfalchi)
189.33.112.152 Re: Manual de servio_lavadoras de roupa
Sem pontuao para esta mensagem October 11 2007, 12:09 AM
DVD RECORDER GRADIENTE DR-660 ESQUEMA ELTRICO
http://www.4shared.com/file/26142939/b9fadd34/Esquema_Eltrico_DVD_Recorder_Gradi
ente_DR-660_Schematics.html?dirPwdVerified=53e51d84

Pontuao 1 2 3 4 5 (5=Excelente) Respond to this message


Paulo-ctba

(Login Paulophf)
200.140.245.236 manual de operao scph-75001
Sem pontuao para esta mensagem October 11 2007, 2:51 AM

http://www.4shared.com/file/26123725/94351f91/manual_de_operao_scph75001.html
Pontuao 1 2 3 4 5 (5=Excelente) Respond to this message
Paulo-ctba
(Login Paulophf)
200.140.245.236 testar_la_
Sem pontuao para esta mensagem October 11 2007, 2:54 AM

http://www.4shared.com/file/26122053/8fe45d83/como_saber_Se_LA_Esta_Queimado.htm
l
Pontuao 1 2 3 4 5 (5=Excelente) Respond to this message
Paulo-ctba
(Login Paulophf)
200.140.245.236 converter imagem "iso" de jogos playstation
Sem pontuao para esta mensagem October 11 2007, 2:56 AM

http://www.4shared.com/file/26122174/2274c095/converter_jogos_de_pal-ntsc_ntsc-p
al_playstation.html
Pontuao 1 2 3 4 5 (5=Excelente) Respond to this message
Paulo-ctba
(Login Paulophf)
200.140.245.236 lenschanger v1.2b
Sem pontuao para esta mensagem October 11 2007, 3:03 AM

http://www.4shared.com/file/26123637/62e225cb/lenschanger_V12B.html
vendem o cd pronto,j queimado com esta "iso" a por R$30,00!
Se trata de uma ferramenta para fazer a troca do cdigo da uo que est gravado
na bios do play2.
Pontuao 1 2 3 4 5 (5=Excelente) Respond to this message
Paulo-ctba
(Login Paulophf)
200.140.245.236 manual de servio play1
Sem pontuao para esta mensagem October 11 2007, 3:08 AM

http://www.4shared.com/file/26124136/8d7d3b61/manual_servio_ps1.html

inclui diagrama esquemtico psone,manual de servio do psx tijolo e diagrama da fonte


psx tijolo!
Pontuao 1 2 3 4 5 (5=Excelente) Respond to this message
ALAIN/df
(Login alainsomeimagem)
200.140.80.149 NEC plasma service
Sem pontuao para esta mensagem October 11 2007, 11:44 AM
http://www.4shared.com/file/26164884/7ad61ec9/NEC_Repair_Manaual_v1.html
Pontuao 1 2 3 4 5 (5=Excelente) Respond to this message
ALAIN/df
(Login alainsomeimagem)
200.140.80.149 plasma panasonic TH42PW6
Sem pontuao para esta mensagem October 11 2007, 12:17 PM
http://www.4shared.com/file/26179096/4cdaee71/TH-42PW6EXEUOTSVC.html?dirPwdVerif
ied=e6a81127
Pontuao 1 2 3 4 5 (5=Excelente) Respond to this message
ALAIN/df
(Login alainsomeimagem)
200.140.80.149 KV29T75 sony
Sem pontuao para esta mensagem October 11 2007, 2:13 PM
http://www.4shared.com/file/17012932/56c543e/KV_29T75.html
Pontuao 1 2 3 4 5 (5=Excelente) Respond to this message
ALAIN/df
(Login alainsomeimagem)
200.140.80.149 aiwa nsx222 229 333
Sem pontuao para esta mensagem October 11 2007, 6:39 PM
http://www.2shared.com/file/2372353/c4f2539d/Aiwa_NSX-S222_S229_S333.html
Pontuao 1 2 3 4 5 (5=Excelente) Respond to this message
ALAIN/df
(Login alainsomeimagem)
200.140.80.149 esquemas do rasia
Sem pontuao para esta mensagem October 11 2007, 6:51 PM

http://www.4shared.com/file/21685553/86eab146/14LR3_Panasonic_Esquema_e_menu.htm
l?dirPwdVerified=8ce31ad5
http://www.4shared.com/file/19013725/600ec1ee/Ajustes_RP-29FA30A.html?dirPwdVeri
fied=8ce31ad5
http://www.4shared.com/file/22765706/cdf712bb/Alterando_menu_e_informaes_dvd_Phi
lips.html?dirPwdVerified=8ce31ad5
http://www.4shared.com/file/22638048/baba6835/Analize_de_circuitos_de_DVD.html?d
irPwdVerified=8ce31ad5
http://www.4shared.com/file/20788354/8342589b/Apostila_para_fazer_Antena_de_TV.h
tml?dirPwdVerified=8ce31ad5
http://www.4shared.com/file/21335254/3adc92c2/AZ2055_Sistem_Philips_Manual_de_Se
rvio.html?dirPwdVerified=8ce31ad5
http://www.4shared.com/file/18924048/16a51445/Boletins_tecnicos_Philips.html?dir
PwdVerified=8ce31ad5
http://www.4shared.com/file/21224539/59f8c20c/CCE_dicas_de_defeitos_TV_e_informa
oes.html?dirPwdVerified=8ce31ad5
http://www.4shared.com/file/20733435/7816f1e/curso_de_osciloscopio.html?dirPwdVe
rified=8ce31ad5
http://www.4shared.com/file/20733914/4a68ae59/Defeito_F61em_Panasonic.html?dirPw
dVerified=8ce31ad5
http://www.4shared.com/file/22639206/8256333d/defeitos_de_proteo_tvcs_geral_CCE.
html?dirPwdVerified=8ce31ad5
http://www.4shared.com/file/21064069/9a0cf369/Dicas_de_Som_CCE.html?dirPwdVerifi
ed=8ce31ad5
http://www.4shared.com/file/22638933/6df81cf5/dicas_tv_LCD_Toshiba.html?dirPwdVe
rified=8ce31ad5
http://www.4shared.com/file/21268339/e223a7c6/Diferenas_entreTDA83606162.html?di
rPwdVerified=8ce31ad5
http://www.4shared.com/file/23752377/8eb855eb/DVDs_Dicas_de_Reparo_Gradiente_Phi
lco.html?dirPwdVerified=8ce31ad5
http://www.4shared.com/file/21698937/11cddad0/DVP3020K-3020-3040K-3040_Manual_de
_Servio_Philips.html?dirPwdVerified=8ce31ad5
http://www.4shared.com/file/21349950/c912da92/Eletronica_Basica_Lenoxx.html?dirP
wdVerified=8ce31ad5
http://www.4shared.com/file/22604433/68564ace/Equivalencia-modelo_X_chassi_Toshi
ba.html?dirPwdVerified=8ce31ad5
http://www.4shared.com/file/23277862/f64f4d25/Esq_Super_Color_com_MC68HC908JL3-l
a_1140.html?dirPwdVerified=8ce31ad5

http://www.4shared.com/file/22637039/da9fde32/Esqfonte_ATX_para_PC.html?dirPwdVe
rified=8ce31ad5
http://www.4shared.com/file/19012961/b12d8a9c/Esquema_eletrico_LG_Chassi_MC-022A
.html?dirPwdVerified=8ce31ad5
http://www.4shared.com/file/19013379/13c6d15c/Esquema_Eletrico_LG_RP_29FA30A.htm
l?dirPwdVerified=8ce31ad5
http://www.4shared.com/file/22604257/3dec55e3/Esquema_fonte_chaveada_Super_Color
.html?dirPwdVerified=8ce31ad5
http://www.4shared.com/file/19259079/c67588aa/Esquema_SA-AK15.html?dirPwdVerifie
d=8ce31ad5
http://www.4shared.com/file/20693887/828de599/Esquema_USR1900__Century_4_Digitos
.html?dirPwdVerified=8ce31ad5
http://www.4shared.com/file/21338153/549461e5/Esquemas_Warn_Music_udio.html?dirP
wdVerified=8ce31ad5
http://www.4shared.com/file/22603558/35cb664e/Fonte_LG_com__STR-F6654.html?dirPw
dVerified=8ce31ad5
http://www.4shared.com/file/18805598/ace04f43/Fonte_tipo_BUCSO_Philips_Chassi_An
ubis.html?dirPwdVerified=8ce31ad5
http://www.4shared.com/file/21677692/77472fdf/FWM_57__Manual_de_Servio_Philips.h
tml?dirPwdVerified=8ce31ad5
http://www.4shared.com/file/22679721/dd4fa037/Informaes_AS680C_que_manual_usar.h
tml?dirPwdVerified=8ce31ad5
http://www.4shared.com/file/22287976/cddc4e2f/KP_Sony_Treinamento_TV_de_Progeo.h
tml?dirPwdVerified=8ce31ad5
http://www.4shared.com/file/20502186/c963993a/L101L_AC2K3_21PT5431Manual_e_Esque
ma.html?dirPwdVerified=8ce31ad5
http://www.4shared.com/file/22638491/71c10600/L61_Philips_L611AA_Manual_de_Servi
o.html?dirPwdVerified=8ce31ad5
http://www.4shared.com/file/19112582/74e1dc69/L91L_Manual_de_servio_-.html?dirPw
dVerified=8ce31ad5
http://www.4shared.com/file/23277655/4998a64f/Manua_Usuario__Super_Color_Century
.html?dirPwdVerified=8ce31ad5
http://www.4shared.com/file/21601570/92c75ee8/Manuais_DVP_530.html?dirPwdVerifie
d=8ce31ad5
http://www.4shared.com/file/18902053/c7c7f030/Manual_de_Servio__DVD625_Philips.h
tml?dirPwdVerified=8ce31ad5
http://www.4shared.com/file/21605155/58f0f76e/Manual_de_Servio_Gradiente_TV1423TF2140-TP1410-2010-TPF2130.html?dirPwdVerified=8ce31ad5
http://www.4shared.com/file/18942508/de29b9d6/Manual_de_servio_Lafinion_82W_RP-3
2FZ40P_LG.html?dirPwdVerified=8ce31ad5

http://www.4shared.com/file/21713954/f2b33389/Manual_de_Servio_TV_NEXT_29L_Gradi
ente.html?dirPwdVerified=8ce31ad5
http://www.4shared.com/file/22604177/d9c8938/Manual_Receptor_PR2010_udio_Varivel
.html?dirPwdVerified=8ce31ad5
http://www.4shared.com/file/23600848/90ca6006/Manual_de_Treinamento_Philips_Chas
sis_A8.html?dirPwdVerified=8ce31ad5
http://www.4shared.com/file/22752681/40ff254e/MCM530-590_Som_Philips_Manual_de_s
ervio.html?dirPwdVerified=8ce31ad5
http://www.4shared.com/file/20566377/3a5a03fa/MCS_230_Sistem_Magnavox_Manual__de
_Servio.html?dirPwdVerified=8ce31ad5
http://www.4shared.com/file/22841301/506e5926/Modelos_Versus_Chassi_e_micros.htm
l?dirPwdVerified=8ce31ad5
http://www.4shared.com/file/21073429/59de8fb8/Modificaes_quando_no_liga__220V_U1
7_ultima_circular.html?dirPwdVerified=8ce31ad5
http://www.4shared.com/file/22985928/97ddaf25/modos_de_Servio_vrias_Marcas.html?
dirPwdVerified=8ce31ad5
http://www.4shared.com/file/21269697/4103c7c5/Montagem_do_Jig_estensor_da_placa_
_-_Placa_MT.html?dirPwdVerified=8ce31ad5
http://www.4shared.com/file/22637214/959c1463/Mudana_de_cdigo_de_area_Dvd.html?d
irPwdVerified=8ce31ad5
http://www.4shared.com/file/22659481/5f26a584/Mundo_em_miniatura.html?dirPwdVeri
fied=8ce31ad5
http://www.4shared.com/file/22659544/823b7430/Osfamosos.html?dirPwdVerified=8ce3
1ad5
http://www.4shared.com/file/21699286/31d7bb09/Painel_Eletrico_Principal_-MPEG-Fa
se_1_2__3_DVP_Philips_3020K_DVP.html?dirPwdVerified=8ce31ad5
http://www.4shared.com/file/19176191/f3d876b9/panasonic-SC-AK200Manual_de_Servio
.html?dirPwdVerified=8ce31ad5
http://www.4shared.com/file/19386456/85a5827/SA-PM11_Manual_de_Servio_Panasonic_
Som.html?dirPwdVerified=8ce31ad5
http://www.4shared.com/file/19316511/fe8000c6/SC-AK300_Panasonic_Manual_de_Servi
o_Completo.html?dirPwdVerified=8ce31ad5
http://www.4shared.com/file/19200629/a67c0a7/SC-AK500_Manual_de_Servio_Som_Panas
oniuc.html?dirPwdVerified=8ce31ad5
http://www.4shared.com/file/21679538/8fe4e721/Tabela_de_Options_Bytes_Chass_L011
L_e_L012L_Philips.html?dirPwdVerified=8ce31ad5
http://www.4shared.com/file/23006166/b9a7a8cd/Treinamento__no-break_completo.htm
l?dirPwdVerified=8ce31ad5
http://www.4shared.com/file/23598095/1bf60b7e/Treinamento_de_uso_da_fonte_ajustv
el__digital.html?dirPwdVerified=8ce31ad5

http://www.4shared.com/file/22313851/2962f5ba/treinamento_DSC__P72_sony_Camera_D
igital_-.html?dirPwdVerified=8ce31ad5
http://www.4shared.com/file/21269769/20e19c3a/Treinamento_na_prtica_Yv_Sony_Chas
sis_BA-6.html?dirPwdVerified=8ce31ad5
http://www.4shared.com/file/21534200/2e2326e6/Treinamento_Narrado.html?dirPwdVer
ified=8ce31ad5
http://www.4shared.com/file/21192591/79e3bed7/Treinamento_TV__Sony__Chassi__BA-6
_.html?dirPwdVerified=8ce31ad5
http://www.4shared.com/file/23327259/449b1e6d/Treinamento_TV_CCE_HPS_2004.html?d
irPwdVerified=8ce31ad5
http://www.4shared.com/file/22778055/e3cc50ac/treinamento_bga_retrabalho_em_BGA.
html?dirPwdVerified=8ce31ad5
http://www.4shared.com/file/23006559/53c4e43/Tutorial_FONTES_DE_TV_MODERNOS.html
?dirPwdVerified=8ce31ad5
http://www.4shared.com/file/22680779/51bb041b/TV_29_queima_da_fonte_alteraao.htm
l?dirPwdVerified=8ce31ad5
http://www.4shared.com/file/22681142/51759587/TV_29_soldas_frias_queima_do_STR_d
a_fonte.html?dirPwdVerified=8ce31ad5
http://www.4shared.com/file/22767449/916bbcfc/tv_philco_pcs_2976_tps20631_S_eaqu
ema.html?dirPwdVerified=8ce31ad5
http://www.4shared.com/file/23328419/7c19b78d/USR1950-_Century_MC68HRC908JK3CP_T
BA120U.html?dirPwdVerified=8ce31ad5
http://www.4shared.com/file/22778453/da65d45/Videosteste_de__Msfet.html?dirPwdVe
rified=8ce31ad5
http://www.4shared.com/file/21223579/a0433fb1/udio_Philips_FWM_777.html?dirPwdVe
rified=8ce31ad5
http://www.4shared.com/file/19612986/6793d1ac/AS_300.html?dirPwdVerified=f3dc361
3
http://www.4shared.com/file/18794337/86c7712b/Audio_todas_as_familias_Unidade_Le
itora_de_CD_Philips.html?dirPwdVerified=f3dc3613
http://www.4shared.com/file/21625050/53983ab6/BOLETIMTVPLASMASANSUNG.html?dirPwd
Verified=f3dc3613
http://www.4shared.com/file/19041550/3e483033/Carta_de_2070.html?dirPwdVerified=
f3dc3613
http://www.4shared.com/file/18865236/3bb869eb/Circular_Philco.html?dirPwdVerifie
d=f3dc3613
http://www.4shared.com/file/22629682/778bfc40/Curso_dicas_tv_LCD_Toshiba.html?di
rPwdVerified=f3dc3613
http://www.4shared.com/file/21629985/d35b3443/DVD__LG_5822N_Esquema_Eltrico.html
?dirPwdVerified=f3dc3613

http://www.4shared.com/file/18823609/57c87679/Dvd_Digital_Cinema_Sistem_JVC_Mod_
TH_A9.html?dirPwdVerified=f3dc3613
http://www.4shared.com/file/21627713/1bb7006/Dvd_Game__Britania_Esquema_e_Vista_
Esplodida.html?dirPwdVerified=f3dc3613
http://www.4shared.com/file/21633456/a5f94133/Dvd_SD1700-1750_Toshiba_Manual_Tcn
ico.html?dirPwdVerified=f3dc3613
http://www.4shared.com/file/22324272/55bd013d/Esquema_Eltrico_DVD_Blueskay_BlM.h
tml?dirPwdVerified=f3dc3613
http://www.4shared.com/file/22024993/36f8816a/F_1330_Philips_udio.html?dirPwdVer
ified=f3dc3613
http://www.4shared.com/file/22258464/92e259f6/GUIA_DE_CONSERTO_CHASSI_CPH_05_Phi
lco.html?dirPwdVerified=f3dc3613
http://www.4shared.com/file/22025265/eceab014/GUIA_de_Treinamento_Panasonic_Chas
si_MX8_Mod_TC29PL22.html?dirPwdVerified=f3dc3613
http://www.4shared.com/file/22115473/94e3f1a7/Manual_de_Servio_AS440_Philips_udi
o.html?dirPwdVerified=f3dc3613
http://www.4shared.com/file/22549938/76220ca6/Manual_de_Servio_GBA_Nintendo_Game
.html?dirPwdVerified=f3dc3613
http://www.4shared.com/file/21841816/eaac08b8/Manual_de_Servio_SA_AK_88_Panasoni
c.html?dirPwdVerified=f3dc3613
http://www.4shared.com/file/22746817/c0c2a8df/TP50F61__MS___64___I_Toshiba.html?
dirPwdVerified=f3dc3613
http://www.4shared.com/file/21946158/30223028/Treinamento_Dvd_Theater_Panasonic_
_Dvd-RV_30BR_e_RV60BR.html?dirPwdVerified=f3dc3613
http://www.4shared.com/file/22629138/71e5da10/Treinamento_Monitores_LCD.html?dir
PwdVerified=f3dc3613
http://www.4shared.com/file/21952343/f6db268/Treinamento_Tcnico_Dvd__Panasonic_T
heater.html?dirPwdVerified=f3dc3613
http://www.4shared.com/file/22629389/e692e723/TVDIGITAL-Apresentao_oficial.html?
dirPwdVerified=f3dc3613
http://www.4shared.com/file/20160598/8e11529d/UOCs_Dos_Chassis_L011L_e_2L_Inform
ao_Tec.html?dirPwdVerified=f3dc3613
http://www.4shared.com/file/24546872/c8ea6fe7/TUTORIAL_de_DICAS_TV_PHILIPS__-__2
5PT5541-28PW6441-28PW6542-29PT4641-29PT4643.html?dirPwdVerified=8ce31ad5
http://www.4shared.com/file/24327195/26799d9d/Manuteno_de_notebooks_-_Toshiba_A7
0.html?dirPwdVerified=f3dc3613
http://www.4shared.com/file/24127981/7bd49876/Apostila_de_Treinamento_de_Televis
ores__LG.html?dirPwdVerified=8ce31ad5
http://www.4shared.com/file/24127981/7bd49876/Apostila_de_Treinamento_de_Televis
ores__LG.html?dirPwdVerified=8ce31ad5

http://www.4shared.com/file/24331972/30860264/Funcionamento_MICROPROCESSADORES_D
E_TV.html?dirPwdVerified=8ce31ad5
http://www.4shared.com/file/24048943/25108005/HPS2005.html?dirPwdVerified=8ce31a
d5
http://www.4shared.com/file/24674064/5dbc6ade/Esquema_LG_Chassi_MC_022A_TV_Mod_R
P-14CB20A.html?dirPwdVerified=8ce31ad5
http://www.4shared.com/file/24674929/48b0e8e8/Manual_de_Servio_LG_Chassi_RP-14CB
25A.html?dirPwdVerified=8ce31ad5
http://www.4shared.com/file/24619701/3e9022f/Manual_Servio_Tcnico_TPF32S55_Philc
o.html?dirPwdVerified=8ce31ad5
http://www.4shared.com/file/25094095/623d104f/GDE.html?dirPwdVerified=f3dc3613
http://www.4shared.com/file/25172471/addd631c/Manual_de_Servio_LG_CP29Q54.html?d
irPwdVerified=8ce31ad5
http://www.4shared.com/file/25175805/713cf01f/Identificar_defeito_e_Soluo_em_Mon
itores.html?dirPwdVerified=8ce31ad5
http://www.4shared.com/file/25176533/a91f3a54/Tabela_de_equivalencias_de_Integra
dos.html?dirPwdVerified=8ce31ad5
http://www.4shared.com/file/25196242/2b2634e1/Equivalencias_e_Referencias_Diodos
.html?dirPwdVerified=f3dc3613

This message has been edited by Rasia on Sep 27, 2007 8:39 PM

Pontuao 1 2 3 4 5 (5=Excelente) Editar Mensagem Apagar Mensagem Lock Thread Respon


d to this message
Author Reply
Amilton
(Login Amiltoneves)
Membro ELITE Re: Alguns Links do meu disco 4Shared "para todos".
Sem pontuao para esta mensagem September 19 2007, 4:20 PM
Valeu Rasia, obrigado amigo
Pontuao 1 2 3 4 5 (5=Excelente) Editar Mensagem Apagar Mensagem

Tecnal
(Login Tecnal)
Membro ELITE Re: Alguns Links do meu disco 4Shared "para todos".
Sem pontuao para esta mensagem September 20 2007, 10:06 AM
Muita paz e saude Rasia. Obrigado....
Pontuao 1 2 3 4 5 (5=Excelente) Editar Mensagem Apagar Mensagem
Rasia
(Login Rasia)
Conselheiro Re: Alguns Links dos meus discos 4Shared "para todos".Sempre com Atu
alizaes.
Sem pontuao para esta mensagem October 1 2007, 2:53 PM

http://www.4shared.com/file/25255345/e551fb34/CCE_dicas_de_defeitos_TV_e_informa
oes.html?dirPwdVerified=e4645ca3>;
http://www.4shared.com/file/25255913/7cd22f92/CCE_TVD2911FSB_EE.html?dirPwdVerif
ied=e4645ca3>;
http://www.4shared.com/file/25271467/c9842a28/CCE_TVP105.html?dirPwdVerified=e46
45ca3>;
http://www.4shared.com/file/25256033/5380d971/CCE_HPS-2092B_S_Esquema.html?dirPw
dVerified=e4645ca3>;
http://www.4shared.com/file/25256877/3e9289d4/CCE_HPS_2091S_Esquema.html?dirPwdV
erified=e4645ca3>;
http://www.4shared.com/file/25271625/40625a6e/Circular_e_dica_som_CCE.html?dirPw
dVerified=e4645ca3>;
http://www.4shared.com/file/25256944/8d74e19a/defeitos_de_proteo_tvcs_geral.html
?dirPwdVerified=e4645ca3>;
http://www.4shared.com/file/25306147/19d2bd4d/Dicas_de_Som_CCE.html?dirPwdVerifi
ed=e4645ca3>;
http://www.4shared.com/file/25257101/2fdde6cc/EsqCCE_HPS2076_Esquema.html?dirPwd
Verified=e4645ca3>;
http://www.4shared.com/file/25257300/5b5e0234/Esquema_CCE_HPS-2085D.html?dirPwdV
erified=e4645ca3>;
http://www.4shared.com/file/25257432/9b32265e/Esquema_CCE_HPS-2085F.html?dirPwdV
erified=e4645ca3>;
http://www.4shared.com/file/25258334/2f7d85b8/Esquema_cce-hps20vr.html?dirPwdVer
ified=e4645ca3>;
http://www.4shared.com/file/25258955/3b7977e/Esquema_TVD2911FS_EE.html?dirPwdVer
ified=e4645ca3>;

http://www.4shared.com/file/25275265/ac65a0e1/Esquemas_de_Som_CCE_Vrios.html?dir
PwdVerified=e4645ca3>;
http://www.4shared.com/file/25258974/4686c56a/funcionamento_menu_e_fonte_HPS1402
_2.html?dirPwdVerified=e4645ca3>;
http://www.4shared.com/file/25267654/602f8a53/HPS-1492BS_Esquema.html?dirPwdVeri
fied=e4645ca3>;
http://www.4shared.com/file/25267844/73aa9618/HPS-1492CS_Esquema.html?dirPwdVeri
fied=e4645ca3>;
http://www.4shared.com/file/25260046/e609e35/HPS1401H_S_Esquema.html?dirPwdVerif
ied=e4645ca3>;
http://www.4shared.com/file/25273631/f41d67bd/HPS1402_todas.html?dirPwdVerified=
e4645ca3>;
http://www.4shared.com/file/25260400/846656d8/HPS1403AB_EE_S_Esquema.html?dirPwd
Verified=e4645ca3>;
http://www.4shared.com/file/25260565/a3946fe6/HPS1405_EES_Esquema.html?dirPwdVer
ified=e4645ca3>;
http://www.4shared.com/file/25260726/5d752f36/HPS1407_EE_Esquema.html?dirPwdVeri
fied=e4645ca3>;
http://www.4shared.com/file/25259142/32670541/HPS141S_Esquema.html?dirPwdVerifie
d=e4645ca3>;
http://www.4shared.com/file/25260877/5c59acd8/HPS1423_EE.html?dirPwdVerified=e46
45ca3>;
http://www.4shared.com/file/25261215/512688c1/hps1470-20_duplo_driver1_Esquema.h
tml?dirPwdVerified=e4645ca3>;
http://www.4shared.com/file/25261649/22ee9873/HPS1471ABC_EE_Esquema.html?dirPwdV
erified=e4645ca3>;
http://www.4shared.com/file/25259338/9e77aef6/HPS148_EE_S_Esquema.html?dirPwdVer
ified=e4645ca3>;
http://www.4shared.com/file/25261960/62580568/HPS2002D_EE_S_Esquema.html?dirPwdV
erified=e4645ca3>;
http://www.4shared.com/file/25262398/f439bbad/HPS2003B_EE_S_Esquema.html?dirPwdV
erified=e4645ca3>;
http://www.4shared.com/file/25262591/89687fbb/HPS2004D_EE_S_Esquema.html?dirPwdV
erified=e4645ca3>;
http://www.4shared.com/file/25262771/146f865b/HPS2006_EE_S_Esquema.html?dirPwdVe
rified=e4645ca3>;
http://www.4shared.com/file/25262933/94930f79/HPS2006A_EE_S_Esquema.html?dirPwdV
erified=e4645ca3>;
http://www.4shared.com/file/25263104/9775ffc4/HPS2007_EE_Esquema_Fonte_103V.html
?dirPwdVerified=e4645ca3>;

http://www.4shared.com/file/25263554/ed0ba35d/HPS2007E_EE_Esquema_Fonte_128V.htm
l?dirPwdVerified=e4645ca3>;
http://www.4shared.com/file/25263754/ee8f7733/HPS2008_EE_S_Esquema.html?dirPwdVe
rified=e4645ca3>;
http://www.4shared.com/file/25263915/f77aafab/HPS2023_EE_S_Esquema.html?dirPwdVe
rified=e4645ca3>;
http://www.4shared.com/file/25264086/2db7466e/HPS2044_EE_S_Esquema.html?dirPwdVe
rified=e4645ca3>;
http://www.4shared.com/file/25264356/9a5f867a/HPS2046_EE_s_Esquema.html?dirPwdVe
rified=e4645ca3>;
http://www.4shared.com/file/25264631/54aa76b4/HPS2071_EE_Esquema.html?dirPwdVeri
fied=e4645ca3>;
http://www.4shared.com/file/25265285/f86a4df/HPS2073_EE_S_Esquema.html?dirPwdVer
ified=e4645ca3>;
http://www.4shared.com/file/25265608/bee7fab6/HPS2074_EE_S_Esquema.html?dirPwdVe
rified=e4645ca3>;
http://www.4shared.com/file/25265786/9044378e/HPS2076_EE_S_Esquema.html?dirPwdVe
rified=e4645ca3>;
http://www.4shared.com/file/25266691/44c56b5/hps2081S_Esquema.html?dirPwdVerifie
d=e4645ca3>;
http://www.4shared.com/file/25266848/c2a0bd56/HPS2088STEsquema_eletrico.html?dir
PwdVerified=e4645ca3>;
http://www.4shared.com/file/25267051/14c8026e/HPS2118_EE_Esquema.html?dirPwdVeri
fied=e4645ca3>;
http://www.4shared.com/file/25267222/c104117d/HPS2185FS_EE_S_Esquema.html?dirPwd
Verified=e4645ca3>;
http://www.4shared.com/file/25267443/e4d4fadf/HPS2706C_S_Esquema.html?dirPwdVeri
fied=e4645ca3>;
http://www.4shared.com/file/25274148/5a1867e2/HPS2781.html?dirPwdVerified=e4645c
a3>;
http://www.4shared.com/file/25259039/eb362039/HPS29blk_EE_S_Esquema_CCE.html?dir
PwdVerified=e4645ca3>;
http://www.4shared.com/file/25269128/c3483109/HPS_2070_2090F.html?dirPwdVerified
=e4645ca3>;
http://www.4shared.com/file/25272009/6ddaa79b/Informativos_de_Televisores_e_Micr
oondas.html?dirPwdVerified=e4645ca3>;
http://www.4shared.com/file/25269510/e1b74224/S_Esquema_HPS_1471_Plus.html?dirPw
dVerified=e4645ca3>;
http://www.4shared.com/file/25306008/ecc30fef/Tudo_sobre_HPS2007-1407.html?dirPw
dVerified=e4645ca3>;

http://www.4shared.com/file/25275427/228a787b/Tudo_sobre_HPS2092B.html?dirPwdVer
ified=e4645ca3>;
http://www.4shared.com/file/25274441/250f1dad/Tudo_sobre_HPS2981.html?dirPwdVeri
fied=e4645ca3>;
http://www.4shared.com/file/25270509/c118adfb/Tutorial_cce_com_TDA_8374-HPS2001.
html?dirPwdVerified=e4645ca3>;
http://www.4shared.com/file/25388293/79f885b2/tudo_do_Hps_2001_A_B_C.html?dirPwd
Verified=e4645ca3>;
http://www.4shared.com/file/25388849/21149737/HPS3301.html?dirPwdVerified=e4645c
a3>;
http://www.4shared.com/file/25389001/fd0cecdc/HPS3301C.html?dirPwdVerified=e4645
ca3>;
http://www.4shared.com/file/25389347/724532b4/HPS2991FS.html?dirPwdVerified=e464
5ca3>;
http://www.4shared.com/file/25389666/31bfa24b/HPS2983.html?dirPwdVerified=e4645c
a3>;
http://www.4shared.com/file/25389783/de94117d/HPS2982FS.html?dirPwdVerified=e464
5ca3>;
http://www.4shared.com/file/25389924/b081415e/HPS2976.html?dirPwdVerified=e4645c
a3>;
http://www.4shared.com/file/25390091/6ca631af/HPS2971.html?dirPwdVerified=e4645c
a3>;
http://www.4shared.com/file/25390200/c9e76e1e/HPS2912.html?dirPwdVerified=e4645c
a3>;
http://www.4shared.com/file/25390461/ec3785bc/HPS2910.html?dirPwdVerified=e4645c
a3>;
http://www.4shared.com/file/25390951/cfc2452c/HPS2909.html?dirPwdVerified=e4645c
a3>;
http://www.4shared.com/file/25391059/767491f4/HPS2908.html?dirPwdVerified=e4645c
a3>;
http://www.4shared.com/file/25391223/da643a43/HPS2907.html?dirPwdVerified=e4645c
a3>;
http://www.4shared.com/file/25391399/d88760a1/HPS2906.html?dirPwdVerified=e4645c
a3>;
http://www.4shared.com/file/25391575/4b3f7db6/HPS2904.html?dirPwdVerified=e4645c
a3>;
http://www.4shared.com/file/25391746/fa9faba1/HPS2902.html?dirPwdVerified=e4645c
a3>;
http://www.4shared.com/file/25392118/7668a1bf/HPS2901B_argentina.html?dirPwdVeri
fied=e4645ca3>;

http://www.4shared.com/file/25392491/c1a651f8/HPS2171FS.html?dirPwdVerified=e464
5ca3>;
http://www.4shared.com/file/25393022/4ee1630/HPS1474.html?dirPwdVerified=e4645ca
3>;
http://www.4shared.com/file/25393251/d1220523/HPS1473.html?dirPwdVerified=e4645c
a3>;
http://www.4shared.com/file/25393596/e6bcc909/HPS144.html?dirPwdVerified=e4645ca
3>;
http://www.4shared.com/file/25393706/34faa62e/HPS141.html?dirPwdVerified=e4645ca
3>;
http://www.4shared.com/file/25394283/175522fb/HPS33R.html?dirPwdVerified=e4645ca
3>;
http://www.4shared.com/file/25394742/ca2c9f8a/HPS29EB.html?dirPwdVerified=e4645c
a3>;
http://www.4shared.com/file/25395134/d03fb7af/HPS21E.html?dirPwdVerified=e4645ca
3>;
http://www.4shared.com/file/25395347/5f3a4bc/HPS14BSWB.html?dirPwdVerified=e4645
ca3>;
http://www.4shared.com/file/25395515/92074d67/HPS14BS.html?dirPwdVerified=e4645c
a3>;
http://www.4shared.com/file/25395674/b11c642e/HPS14bps.html?dirPwdVerified=e4645
ca3>;
http://www.4shared.com/file/25398538/2cea8b85/Informaes_Menus_e_dicas_Tcnicas.ht
ml?dirPwdVerified=e4645ca3>;
http://www.4shared.com/file/25398802/efcaa20b/Menus_e_Dicas_tcnicas.html?dirPwdV
erified=e4645ca3>;
http://www.4shared.com/file/25438356/ce3055af/TVD_2101fs_CCE.html?dirPwdVerified
=e4645ca3>;
http://www.4shared.com/file/25438620/6ed9a4b6/TVD_2911fs_CCE.html?dirPwdVerified
=e4645ca3>;
http://www.4shared.com/file/25438906/bed0243c/TV_AR145_CCE.html?dirPwdVerified=e
4645ca3>;
http://www.4shared.com/file/25441655/9eda5564/CCE_HPS2990.html?dirPwdVerified=e4
645ca3>;
http://www.4shared.com/file/25443495/9be2068d/CCE_HPS2988B.html?dirPwdVerified=e
4645ca3>;
http://www.4shared.com/file/25443724/d575189/CCE_HPS2070-2090F.html?dirPwdVerifi
ed=e4645ca3>;
http://www.4shared.com/file/25327944/4cb4894a/MANUALTcnico_Philco_TP14U56_20V56_
TP29C21.html?dirPwdVerified=e4645ca3>;

http://www.4shared.com/file/25384900/77b03f18/Manual_Tcnico_Philco_TPF3211.html?
dirPwdVerified=e4645ca3>;
http://www.4shared.com/file/25239923/92693649/Defeitos_varios_tvs-modo_de_servio
.html?dirPwdVerified=8ce31a