Vous êtes sur la page 1sur 2

Leandro & Leonardo - Por Voc Que Canto

Tom: F
Intro: Dm
E|--------------------------|----------|
B|---6-5-6---6-5-6---6-5-6--|----------|
G|-7-------7-------7--------|-0-vezes--|
D|--------------------------|----------|
A|--------------------------|----------|
E|--------------------------|----------|
E|------------------|----------|
B|---8-7-8---8---8--|----------|
G|-9-------9---7----|-0-vezes--|
D|------------------|----------|
A|------------------|----------|
E|------------------|----------|
E|------------------------------|
B|---6-5-6---10-8-10-6-8-6-5----|
G|-7-------7-----------------7--|
D|------------------------------|
A|------------------------------|
E|------------------------------|
Dm
C
Quanto mais o tempo passa
Dm
Mais eu gosto de voc
Bb
F
Este seu jeito de me abraar
Bb
F
Este seu jeito de olhar pra mim
Bb
Foi quem fez com que eu gostasse
F
C/E Dm F
Logo de voc tanto assim
C C#m
Dm
por voc
que canto
Parte 2:
C
Quanto mais voc me abraa
Dm
Mais eu quero ter voc
Bb
F
Cada beijo que voc me d
Bb
F
Faz meu corpo todo estremecer
Bb
Sem voc eu sei que no teria
F
C/E Dm F
Nenhuma razo, pra viver
C C#m
Dm
por voc
que canto
C

Pode tudo transformar


Dm
Pode tudo se perder
Bb
F
Pode o mundo virar contra mim
Bb
F
Acontea seja l o que for
Bb
Cada dia que passar
F
C/E Dm F
Eu quero ainda muito mais, seu amor
C C#m
Dm
por voc
que canto
Solo: C Dm C Dm
(Parte 2)
C C#m
Dm
por voc
que canto
----------------- Acordes ----------------Dm = X X 0 2 3 1
C = X 3 2 0 1 0
Bb = X 1 3 3 3 1
F = 1 3 3 2 1 1
C/E = 0 3 2 0 1 0
C#m = X 4 6 6 5 4