Vous êtes sur la page 1sur 3

Armando Manzanero

Para vivir (TAB)

Colaboracin de Jorge Vargas


Johnston
jorvarjohn_61@hotmail.com

Pablo Milanes
Querido Pablo (2001)
aman0201
calidad

texto

Duo con Pablo Milans


INTRO
G
D/F# Em
Em/D
C
C/B
Am
D/F#
G
E ---------------------0----------0-------0----2-3-----2-3-----0-3-32-3--|
B -0-----0-0------0--1---3-0----0-------0----3-----3-------1-3--3-----0--|
G -0---0--------0----2-----0--0-------0------0-----0-------2----2-----0--|
D ---0--------0------------2--------0--------2------------0-----------0--|
A -------------------------2-----------------3----2-------------------2--|
E -3---------3-------2-----0------------------------------------2-----3--|
G
G/F#
Em
Muchas veces te dije
Em/D
C
Am
D
que antes de hacerlo haba que pensarlo muy bin,
G
G/F#
Em
que a esta unin de nosotros
Em/D
C
Am
D
le haca falta carne y deseo tambin,
G
G/F# Em
Em/D
que no bastaba
C
A7
D
que me entendieras y que murieras por mi,
G
G/F# Em
Em/D
que no bastaba
C
A7
D
que en mis fracasos yo me refugiara en ti.
G
Bm/F#
Bm/F
E7 A7-9 A7
Y ahora ves lo que pas al fin naci
D7
al pasar de los aos,
G7
C7
F#7
B7
el tremendo cansancio que provoc ya en ti
Em
A7
D7
D/F# E/G

F#/A

y aunque es penoso lo tienes que decir.


PUENTE
G
D/F# Em
Em/D
C
C/B
Am
D/F#
G
E ---------------------0----------0-------0----2-3-----2-3-----0-3-32-3--|
B -0-----0-0------0--1---3-0----0-------0----3-----3-------1-3--3-----0--|
G -0---0--------0----2-----0--0-------0------0-----0-------2----2-----0--|
D ---0--------0------------2--------0--------2------------0-----------0--|
A -------------------------2-----------------3----2-------------------2--|
E -3---------3-------2-----0------------------------------------2-----3--|
G
G/F#
Em
Por mi parte esperaba
Em/D
C
Am
D
que un da el tiempo se hiciera cargo del fin,
G
G/F#
Em
si as no hubiera sido
Em/D
C
Am
D
yo habra seguido jugando a hacerte feliz,
G
G/F#
Em
Em/D
y aunque el llanto es amargo
C
A7
D
piensa en los aos que tienes para vivir,
G
G/F#
Em
Em/D
que mi dolor no es menos
C
A7
D
y lo peor es que ya no puedo sentir.
G
Bm/F#
Bm/F
E7 A7-9 A7
Y ahora tratar de conquistar con vano afn
D7
este tiempo perdido
G7
C7
F#7
B7
que nos deja vencidos sin poder conocer,
Em
A7
D7
G
eso que llaman amor para vivir . . . para vivir.
FINAL
G
D/F# Em
Em/D
C
C/B
Am
D/F#
G
E ---------------------0----------0-------0----2-3-----2-3-----0-3-32-3--|
B -0-----0-0------0--1---3-0----0-------0----3-----3-------1-3--3-----0--|

G -0---0--------0----2-----0--0-------0------0-----0-------2----2-----0--|
D ---0--------0------------2--------0--------2------------0-----------0--|
A -------------------------2-----------------3----2-------------------2--|
E -3---------3-------2-----0------------------------------------2-----3--|
Este fichero es trabajo propio de su transcriptor y representa su interpretacin personal de la cancin. El usuario se
compromete a utilizar este material nicamente para su aprendizaje y estudio personal. Para poder incluir este
fichero en otro sitio Web, es necesario mencionar la procedencia del mismo (www.atame.org) as como el nombre y
correo del transcriptor.