Vous êtes sur la page 1sur 1

Deus da minha Vida - Thalles Roberto

Introduo: (4x) 1 parte


-----------------------------
-----------------------------
----5---7----5--5--5--57----
----5---7----5--5--5--57----
-----------------------------
-----------------------------


2 parte (4X)
--------------------------
-------------------------
----------5--------------
-------7-----5---10--8--7-
----5----------------------
--------------------------

Deus meu,
Pai meu,
Amor meu,
Tudo, razo de tudo!
--------------------------
-------------------------
--5--7--5--7-----5--7--3-------
--5--7--5--7-----5--7--3---
--------------------------
--------------------------

Deus meu,
Ar meu,
Farol, o farol que eu
Preciso, como eu preciso
--------------------------
-------------------------
----------5--------------
-------7-----5---10--8--7-
----5----------------------
--------------------------

Dm G
Eu preciso Te sentir todo dia
Dm G
E olhar pra Tua luz pra no me perder
Dm G
Meu Senhor, Tu s a minha alegria
Bb
Eu preciso...
Bb
Deus da minha vida
C Dm7
Fica comigo
Bb
Sou a sua casa
C Dm7
Mora em mim
Bb C Dm7
Deixa eu Te dizer o que eu preciso, Pai
Bb
Eu preciso do Senhor...
Bb C Dm7
Lalalalala