Vous êtes sur la page 1sur 4

Beatles

Something
Album "Abbey Road" 1969
Tuning: normal
Intro:
======
F Eb G/D
Verse:
======
C
Cmaj7
Something in the way she moves
C7
F
Attracts me like no other lover
D
D7
G
Am7 G/B
Something in the way she woos me
Am
Am(maj7)
I don't wanna leave her now
Am7
D7(9)
F Eb G/D
You know I believe, and how
Verse 2:
========
C
Cmaj7
Somewhere in her smile she knows
C7
F
That I don't need no other lover
D
D7
G
Am7 G/B
Something in her style that shows me
Am
Am(maj7)
I don't wanna leave her now,
Am7
D7(9)
F Eb G/D
You know I believe and how
Chorus:
=======
A
Amaj7
F#m
You're asking me will my love grow
D
G
A
I don't know, I don't know
A
Amaj7
F#m
You stick around now, it may show
D
G
A
I don't know, I don't know

F#m/E

F#m/E

Solo: (the verse's chords play at the backround)


=====
e|-----------------------------------------------------------------------------|
B|-----------------------------------------------------------------------13-13-|
G|-------------12-------------12b(14)-(14)r12-------------12p14-12-s15-------|
D|-------12p14----14~~--12p14-------------------14~~--12p14--------------------|
A|--(3)------------------------------------------------------------------------|
E|-----------------------------------------------------------------------------|
e|-----------------------------------------------------------------------------|
B|-(15)r13-(17)r15-13----------13-13--------------------------------10b(12)-|
G|----------------------14~--s14-----------12-12----------------11-11----------|
D|-------------------------------------s14-----------9p7-(9)s12----------------|
A|-----------------------------------------------12~---------------------------|
E|-----------------------------------------------------------------------------|
e|-----------------------------9-8s6-(8)s12-11-10~~----------------------------|
B|-10b(12)r(10)b(12)r(10)-8--8-------------------------------------------------|
G|-------------------------------------------------7b(9)r(7)b(9)r(7)b(9)r(7)-5|
D|-----------------------------------------------------------------------------|
A|-----------------------------------------------------------------------------|
E|-----------------------------------------------------------------------------|
e|--------------------------------------------------------(10)s12--10--8-10--8-|
B|------------------------------------------------------8----------------------|
G|-7b(9)r(7)b(9)r(7)b(9)r(7)-5-7b(9)r(7)b(9)r(7)-5--9------------------------|
D|-----------------------------------------------------------------------------|
A|-----------------------------------------------------------------------------|
E|-----------------------------------------------------------------------------|
e|------------------------------|
B|-10--(14)r12-10--11--12--13--|
G|------------------------------|
D|------------------------------|
A|------------------------------|
E|------------------------------|

Verse 3:
========
C
Cmaj7
Something in the way she knows
C7
F
And all I have to do is think of her
D
D7
G
Am7 G/B
Something in the things she shows me
Am
Am(maj7)
I don't wanna leave her now
Am7
D7(9)
F Eb G/D C
You know I believe and how

End

#PlaceForTab

Ofir G

Eb

G/D

Strumming Pattern:
==================
Intro:
======

F
Eb
G/D
|--1-----4----3------|
|--1-----3----0------|
|--2-----4----0------|
|--3-----1----0------|
|--3-----------------|
|--1-----------------|
Verse:
======


C
Cmaj7
C7
F
D
D7
G
|--0-----------0-----------0-----------1----------3----1-------3-----|
|--1-----------0-----------1-----------1----------2----2-------0-----|
|--0-----------0-----------3-----------2----------3----1-------0-----|
|--2-----------2-----------2-----------3----3-2---0----0-------0-----|
|--3-----------3-----------3-----------3-----------------------2-----|
|--x-----------x-----------x-----------1-----------------------3-----|

Am7
G/B
Am
Am(maj7) Am7
D7
F
Eb
G/D
|--3-----3-----5-------5---------5------x-------1-----4----3-----|
|--1-----3-----5-------5---------5------5-------1-----3----0-----|
|--0-----0-----5-------5---------5------5-------2-----4----0-----|
|--2-----2-----7-------6---------5------4-------3-----1----0-----|
|--0------------------------------------5-------3----------------|
|-----------------------------------------------1----------------|
Continue for the last verse only:
=================================

C 2.3.4 F
Eb
G/D C
|--0--------1-----4----3----0--|
|--1--------1-----3----0----1--|
|--0--------2-----4----0----0--|
|--2--------3-----1----0----2--|
|--3--------3---------------3--|
|--x--------1---------------x--|

Chores:
=======



A
Amaj7
F#m F#m/E
D
G
A
|--0----0--------2----2--------3----3---------------------|
|--2----2--------2----2--------2----3---------------------|
|--2----1--------2----2--------3----0---------------------|
|--2----2--------4----4--------0----0---------------------|
|--0----0--------4----4-------------2--------0------------|
|----------------2----0-------------3-----------4--3--2-1-|



A
Amaj7
F#m F#m/E
D
G
A
|--0----0--------2----2--------3----3---------------------|
|--2----2--------2----2--------2----3---------------------|
|--2----1--------2----2--------3----0-----------------0-2-|
|--2----2--------4----4--------0----0---------3-2-0-------|
|--0----0--------4----4-------------2---------------3-----|
|----------------2----0-------------3---------------------|

#PlaceForTab

Ofir G