Vous êtes sur la page 1sur 2

"Above and Below"

posted by Daan Griffioen


---- composition from ALLAN HOLDSWORTH's "16 men of tain" album.
"For comments,critiques, questions, suggestions or requests please email me;
daangriffioen@hotmail.com.
I'm very interested in trading Allan Holdsworth/Fusion materials
(cd, video's, bootlegs, photo's, magazines, tabs etc.) just email!"

|----------------------------2-------------------------|
|2---2---2-0-0-----2---2---2---------------------------|
|2-2---2---2-2-----2-2---2-----3-----2-3---2-----2---5-|
|0---------0-0---0-0-------------4/5---0-0-0-0-2---7---|
|--------------4-----------------------3---2---5---8---|
|3---------3-3-----3-------------------4---3---2---6---|
------7---------------3---5---------------------------|
------------7-------------------5-------7---5---7---5-|
9---7---------7-8---5---7---------7-----9-9-8-8-9-9-5-|
11119-----------5-5-3---5-----------5---9---6---9---5-|
12--10----10----8---6---9-----9-------9-10--9---------|
10--8---8-------9---3---5---5-------------------8---4-|
|------------------------------------------------|
|3-------0---------------------------5-3---3-5---|
|3-----3-3-3-2-----2---7-0-1211--9---6-6-6---7-7-|
|7---7---3---0-0-2---7---4-129-9-9-7-8-4-----7---|
|8-8-----4---2---5---10--7---9---7---9-7---------|
|------------3---2---7---7---10--8-----------6---|
--------------------0---2---3---------3---1---5---------5-|
3/6-2---2-3-------3---3-----------------------------------|
3/6-2-2---------2---------6---------6---3---8---------8---|
3/6-2---------0-----------3-------3-----1---5-------5-----|
--------------------------5-----5-------2---7-----7-------|
2---0-------3-------------5---5---------2---7---7---------|
|--3---6---------6---4-------3---------------------------|
|------------------------------3-----1-------------------|
|5---7---------7---6---6---5-----5---3-3-2-----2---5-9---|
|3---6-------6-----4-----4-3-------3-3---0-0-2---7---1111|
|4---8-----8-------5-------5-------------2---5---8---12--|
|4---8---8---------5-------5---------4---3---2---6---10--|
--7---------------3---5---------------------------|
--------7-------------------5-------7---5---7---5-|
7---------7-8---5---7---------7-----9-9-8-8-9-9-5-|
9-----------5-5-3---5-----------5---9---6---9---5-|
10----10----8---6---9-----9-------9-10--9---------|
8---8-------9---3---5---5-------------------8---4-|
|------------------------------------------------------|
|3-------0---------------8-8h10----------5-3---3-5---3-|
|3-----3-3-3-2-----2---7-7-----11-12-9---6-6-6---7-7-3-|
|7---7---3---0-0-2---7---7-----9-----9-7-8-4-----7---3-|
|8-8-----4---2---5---10--------9-----7---9-7-----------|
|------------3---2---7---------10----8-----------6---2-|

----3---5---5-----7-------7-----------------0-----------0-|
----------------7---8-------8---------7---7---3-------3---|
3-5---7---8---9-----7---7-----7-------6-6-----2-----2-----|
--3---5---5---7-----7-7---------109-7-0-------0---0-------|
--6---9---8---9---------------------------------4---------|
--3---5---9---10----8-----------------7-------3-----------|
|--------------0----------------10-|
|3-2-0---7---7---3-108-7-5-3-14----|
|------2-6-6-----6-12119-7-6----11-|
|--------0-------5-12119-7-5-14----|
|----------------------------------|
|--------7-------0-----------------|