Vous êtes sur la page 1sur 1

Title: aage bhi jaane na tuuu

Artist: Asha Bhosle


Album: Vaqt
Instrument: Guitar
Tabbed by: Ankur Sharma (ANSH)anshnet@hotmail.com
Tuning: Standard (E A D G B E)

E|---------------------3---------------------------------------------||
B|-1-----3\5---3-----5-------5--------3b--------------------------||
G|--------------------------------5----------------------------------||
D|-------------------------------------------------------------------||
Intro a
E|---------------------------------0----------------------------------||
B|-----------------3------1----3-------1------1-----------------------||
G|-----0-----1-----------------------------2--------------------------||
D|--------------------------------------------------------------------||
Intro b 2 Times
E|---0-3-------5\8---------7-8-7--------3---------5--------------||
B|-------------------------------------------------------------------||
G|-------------------------------------------------------------------||
D|-------------------------------------------------------------------||
Aage
Bbi
jaane
naa
tu,
E|----0--3-5-----3-5-3-----------------------------------------------||
B|---------------------5--3-----5---4---3----------------------------||
G|----------------------------5--------------------------------------||
D|-------------------------------------------------------------------||
A|-------------------------------------------------------------------||
E|-------------------------------------------------------------------||
piche
Bhi
jaane naa
tu

E|---------3----0-3--0-----------------------------------------------||
B|--1---3---------------3----1-------3----1--------------------------||
G|-------------------------------2-----------------------------------||
D|-------------------------------------------------------------------||
jo Bhi hai
bas yehi ek pal hai
else later
Enjoy it