Vous êtes sur la page 1sur 10

Esta muy buena, la saque lo mas parecida a la original

con unos pequeos arreglos a los acordes


Intro en la guitarra Acustica
E
B
G
D
A
E

---0-|---0--|---0---|
---0--|---0--|---0---|
---9--|---8--|---6---|
---9--|---9--|---7---|
---7--|---9--|---7---|
---X--|---7--|---5---|
E
B
A

Guitarra de fondo
E--------------------------------------------------- |
B-----9/12--12-10-9--5----------------------------- |x2

E
Bsus4
Eres t la unica razn
C#
A
de mi adoracin, Oh Jess.
E
Bsus4
Eres t, la esperanza que
C#
A
Anhele tener, Oh Jess.
F#m
Confi en t
D
Tu salvacin
E
Hoy hay gozo
C#
Con mi canto

B
A
me has ayudado
B
me has regalado.
Bsus4
en mi corazn
B
te alabar.

Coro:
F#
C# D#m
B
//Te alabar, Te glorificar
F#
C#
B
C#
Te alabar mi Buen Jess

A
//

Intro
Estribillo
E
Asus
B
En todo tiempo de alabar

E
Asus4
B
En todo tiempo te adorar

Puente
E5-C5-D5-B5 x3
E5-C5-D5
Guitarra Elctrica Fondo
E--------------------------------------------------- |

B-----------------------------------------------G--------------------------------------------------D--------------------7-----------------------------A---7-7---10--10-7-9---9--7------------------------E---------------------------------------------------

|
| x4
|
|
|

Luego se le sube medio tono al Coro


G
D
Em
C
B
//Te alabar, Te glorificar
G
D
C
B
Te alabar mi Buen Jess
//

TABLATURA

ESTE ES EL INTRO DE LA CANCION SE REPITE TONCANDO LOS ACORDES


TOQUEN COMO SE MARCA ABAJO Y NO CON LA NOTAS NORMALES
E
B
G
D
A
E

---0-|---0--|---0---|
---0--|---0--|---0---|
---9--|---2--|---2---|
---9--|---9--|---7---|
---7--|---7--|---7---|
---X--|---X--|---5---|
E
B/E
A
E
B/E
PARA TOCAR ESTA CANCINO SE UTILISAN ESTOS ACOR
DES LOS ACORDES DE ARRIBA SE BUELBEN A UTILIZAR
E
B
G
D
A
E

--2--|--2--|--4--|--0--|--4--|
--2--|--2--|--4--|--0--|--5--|
--4--|--2--|--6--|--2--|--6--|
--4--|--4--|--6--|--2--|--6--|
--2--|--4--|--4--|--0--|--4--|
--2--|--2--|--4--|--X--|--4--|
B
F#m
C#m
A/E
D#m

Eres t la unica razn


C#m
A
de mi adoracin, Oh Jess.
E
B/E
Eres t, la esperanza que
CM
A
Anhele tener, Oh Jess.
F#m
B
Confi en t me has ayudado
D
B
Tu salvacin me has regalado.
E
B/E
Hoy hay gozo en mi corazn
A/E
B

Con mi canto te alabar.


Coro:
F#
C#
B
F#
Te alabar, Te glorificar
F#
C#
B
Te alabar mi Buen Jess
EL CORO SE REPITE
E
B C#m
A
B
En todo tiempo de alabar En todo tiempo te adorar
EN LA PARTE QUE SIGUE SE TOCA ESTOS ACORDES ESTAN BIEN FACILES
E
B
G
D
A
E

7--|--3--|--5--|--2--|
7--|--3--|--5--|--2--|
9--|--5--|--7--|--4--|TE ALABARE...
9--|--5--|--7--|--4--|
7--|--3--|--5--|--2--|
X--|--3--|--5--|--2--|

Se repite todo esto y se toca lo mismo en la parte


Final
ESTO ES LO QUE HACE LA GUTARRA ELECTRICA COMO FONDO MIENTRAS QUE SE
HACE LO DE ARRIVA
E------------------------------------------------10B----------858-10--7----------8--5--8--10--7----G----9--9----------------8---9-9-------------------D--------------------------------------------------A--------------------------------------------------E--------------------------------------------------ESTO FUE TODO NO SE OLVEDENPOR BOTAR ESTA CANCION SE
OLLE MUY ORIGINAL ALGUNAS PARTES SE REPITE

GRANDE Y FUERTE
Am
Em
//// GRANDE Y
Dm
VESTIDO
F
CORONADO
F
DIGNO DE

F
EM
Am
Em-F-Em
FUERTE ES NUESTRO DIOS ////
G
EN MAJESTAD
Am
CON PODER
G
Am
G-C#m
TODA LA ADORACION

Dm
G
VESTIDO EN MAJESTAD
F
Am
CORONADO CON PODER
F
G
Am
TODA GLORIA Y HONRA SEAN PARA TI

(Am-F-Em)(Am-F-Em)
Am
GRANDE/FUERTE, ES NUESTRO DIOS
Am
G
F
Am

TABLATURA
Am F- EAm
INTRO
E)--------------------------------------------B)--------------------------------------------G)--------9-9-97-9-10-10-10-9-9-9-----------D)7-7-7----------------------------10-10---7A)--------------------------------------------E)--------------------------------------------la parte donde dice vestido en majestad coronado con poder digno
de toda la adoraciooon
vestido en majestad coronado con poder toda gloria y honra sea para ti
E)-----------------------------------------------------------------B)13-13-12-12-13-13--------13-13-12-12-13-12-12-13-13-15-15-17-17G)--------------------14-14----------------------------------------D)-----------------------------------------------------------------A)-----------------------------------------------------------------E)-----------------------------------------------------------------Am
F
E
Am
Grande y fuerte es nuestro Dios (4x)
Dm
G
Vestido en Majestad
Dm
Am
Coronado con poder
F
G
A
Digno de toda la adoracin!
Dm
G
Vestido en Majestad
Dm
Am
Coronado con poder
F
G
Am
Toda gloria y honra sean para Ti.
Am
F
Grande! Fuerte!
E
Am
Es nuestro Dios! (2x)

MUSICA DEL CIELO

Intro:
E5-B/E

E5
B/E
Vamos a cantar
E5
B/E
Con la msica del cielo
C#m
Vamos a cantar
Alegres porque escuchas cuando
Bsus2
Asus2
Cantamos para exaltar
E5
Tu nombre
Como grita Guatemala //Asus2-E5//
E5
Amamos todo de ti
Tu creacin te adora
C#m
En los reinos se rinde
Bsus2
Hijo de Dios eres porque
Asus2
E5
Eres porque vivimos hoy
E5
B/E
Eres quien nos liberta
E5
B/E
Eres la luz que gua
C#m
Que como un fuego ardiente
Bsus2
Hijo de dios eres porque
Asus2
E5-Bsus2
Eres porque vivimos hohoy
E5
B/E
E5
B/E
Vamos a cantar con la msica del cielo
C#m
Vamos a cantar alegres porque escuchas
Bsus2
Asus2
E5-B/E
Cuando cantamos para exaltar tu nombre
E5

B/E
Amamos todo de ti
E5
B/E
Tu creacin te adora
C#m
En los reinos se rinde
Bsus2
Hijo de Dios eres porque
Asus2
E5-Bsus2
Eres porque vivimos hohoy
E5

B/E

E5

B/E

Vamos a cantar con la msica del cielo


C#m
Vamos a cantar alegres porque escuchas
Bsus2
Asus2
E5-----Asus2
Cuando cantamos para exaltar tu nombre
E5
Vamos a cantar con la msica del cielo
C#m
Vamos a cantar alegres porque escuchas
Bsus2
Asus2
Cuando cantamos para exaltar
E5
B/E
E5
B/E
Vamos a cantar con la msica del cielo
C#m
Vamos a cantar alegres porque escuchas
Bsus2
Asus2
E5------B/E
Cuando cantamos para exaltar tu nombre
Acorde Usados:
E5
B/E
E---------/ E---------/
B---------/ B---------/
G----9----/ G----8----/
D----9----/ D----9----/
A----7----/ A----7----/
E---------/ E---------/
Bsus2
E----2----/
B----2----/
G----4----/
D----4----/
A----2----/
E---------/

Asus2
E----0----/
B----0----/
G----2----/
D----2----/
A----0----/
E---------/

LEVANTATE
Am-G-F
C
G
Am
Levntate, levntate Seor
Am-G-F
C
E
Am
que tus enemigos huyan delante de ti
Am-G-F
C
G
Am
levntate, levntate Seor
Am-G-F
C
E
Am
que tus enemigos huyan delante de ti.
-CoroAm-G-F
C
Mas los justos se alegrarn
G
Am
cantarn con regocijo

Am-G-F
C
el Seor se ha levantado
E7
Am
a triunfado con poder
-Puente(Se mantiene en Am)
/Poderoso, (echo)/
/Vencedor, (echo)/
/El Len de Jud, (echo)/
/Hombre de Guerra, (echo)/
////////Cristo, (echo)///////

LENGUAJE DE AMOR

Intro.
E--13-13-13-12--------------------------------------------------|
B--------------15-13-12-12-12h13p12--------------------8s10-8v--|
G-----------------------------------14-12-10-10-10-9-7----------|
D---------------------------------------------------------------|
A---------------------------------------------------------------|
E---------------------------------------------------------------|
Verso.
00:40
E------------------------------------|
B------------------------------------|
G-x-2-x-2-x-2-x-2-x-5-x-5-x-4-x-4-x--|
Coro.(Cuando pasen la segunda vez al coro hay escuchan bien
porque cambia el orden un poco)
E---8------8------8------8----------------------7------7----|
B-8---8--8---8--8---8--8---8--8-10-8--8-10-8--8---8--8---8--|
G-----------------------------------------------------------|
E---8------8---7-x-7-x-7-x-7-x-------------------7------7----|
B-8---8--8---8-----------------8-10-8--8-10-8--8---8--8---8--|
G------------------------------------------------------------|
E---8------8----7-x-7-x----8---------------------7------7----|
B-8---8--8---8-----------8---8--8-10-8-8-10-8--8---8--8---8--|
G------------------------------------------------------------|
Intro 1 Vez
Verso.

Coro.
Puente con violin.
Guitarra Electrica.
03:05
E-----------------------------------------------------------|
B--13h15-15-------------------------------------------------|
G-----------12h14-12----------------------------------------|
D--------------------10h12-10v--10-12-12s14-10--------------|
A-----------------------------------------------12--5h7-5v--|
E-----------------------------------------------------------|
E--15b17-13-15Av---------------------------------------|
B----------------17-18-17s15---------------------------|
G----------------------------17s16--16h17-16s12-12h14--|
D------------------------------------------------------|
A------------------------------------------------------|
E------------------------------------------------------|
E----------------------------------------------------|
B----------------------------------------------------|
G--10h12-12s14v--10h12-10-12s14-10s14v--------10-10--|
D---------------------------------------10h12--------|
A----------------------------------------------------|
E----------------------------------------------------|
E----------------------------------------------------|
B----------------------------------------------------|
G----------------------------------------------------|
D--------10-12-12b14-10-----------10-12b14-12-10-----|
A--10h12----------------12--10h12----------------12--|
E----------------------------------------------------|
E-----------------------------------|
B-----------------------------------|
G-----------------------------------|
D-----------------------------------|
A--11h12-10--7s5-3-3h5-5-3-5s7-3v---|
E-----------------------------------|
E----------------------------------------------------------|
B--16b17-16b17-16b17s15-13-13-15--16b17-16b17s15-13-13-15--|
G----------------------------------------------------------|
D----------------------------------------------------------|
A----------------------------------------------------------|
E----------------------------------------------------------|
E--------15-17---------------------------------|
B--15h17--------15v--15h17-13------------------|

G-----------------------------12h14-12---------|
D--------------------------------------13s14---|
A----------------------------------------------|
E----------------------------------------------|
A:Armonico

Dm7 C
G
Dm7 C
G
DEJA QUE TE EXPLIQUE LO QUE ESTOY VIVIENDO, ES LA REALIDAD,
Dm7 C
G
Dm7 C
G
DEJA QUE LA LUZ SE MEZCLE CON EL VIENTO, NO TE ARREPENTIRS,
F
G#
G
ES TAN SIMPLE Y REAL, T MI AMOR LO VERS
CORO:
C
F
Dm
G
C
SU AMOR, EL TIBIO AMANECER DEL SOL, POEMA QUE ME ENAMORO,
Em
Dm
G
C
EL PTALO DE AQUELLA FLOR, LA LETRA DE ESTA MI CANCIN;
Am
F
G
Dm7
SU AMOR, ME ENCONTR, VEO QUE SE TRATA DE DIOS.
INTRO DOS VECES
Dm7 C
G
Dm7
C
G
DEJA QUE LA RISA DEBILITE EL MIEDO, VUELVE A CANTAR,
Dm7 C
G
Dm7 C
G
DESNUDA EL ALMA, NO TE ESTS MINTIENDO, SE T LA VERDAD,
F
G#
G
ES TAN SIMPLE Y REAL, T MI AMOR LO VERAS,
F
G#
G
GRANDE ES COMO EL MAR, T LO VAS A NOTAR
C
F
Dm
G
C
SU AMOR, EL TIBIO AMANECER DEL SOL, POEMA QUE ME ENAMORO,
Em
Dm
G
C
EL PTALO DE AQUELLA FLOR, LA LETRA DE ESTA MI CANCIN;
Am
F
G
C
SU AMOR, ME ENCONTR, SIENTO SU LENGUAJE DE AMOR,
Am
F
G
G#
LA PASIN, EL PERDN, ENCUENTRO QUE SE TRATA DE DIOS.
PUENTE

G#

D# C# C#

C
F
Am
Dm
G
C
OH SI MAANA NO SALIERA EL SOL, NO IMPORTA SU AMOR ME ABRIGO,
Em
D#m7 Dm
G
SI EL CIELO PIERDE SU ESPLEN..DOR, T SIGUES SIENDO
C
EL BRILLO DE AMOR,
Am
F
G
C
SU AMOR, ME ENCONTR, SIENTO SU LENGUAJE DE AMOR,
Am
F
G
C
LA PASIN, EL PERDN, ENCUENTRO QUE SE TRATA DE DIOS,

Am
F
G
C
.........VEO QUE SE TRATA DE DIOS,
Am
F
G
C
.........SIENTO SU LENGUAJE DE AMOR.