Vous êtes sur la page 1sur 9

This new BVB-song is in Drop C# tuning.

I've put a cover of it on youtube,which you can use to play with:


http://www.youtube.com/watch?v=XzpV26GNn_4
After I made the cover I noticed that an instrumental version was
on youtube. When I
listened to this I understood that I had played some parts a
little bit wrong. The tab is
corrected by this instrumental video. Here is the link:
http://www.youtube.com/watch?v=3TtMN0dDnV4
Listen closely to the rythm of the verse from 0:38 to 0:41 and
from 0:46 to 0:48 on the
instrumental video, since this was played wrong on the cover.

Intro:
|--------/9-12------10-9-10h12h14-------------|
|-/10-12--------/10---------------------------|
|---------------------------------------------|
|---------------------------------------------|
|---------------------------------------------|
|---------------------------------------------|
|----------------------------7-9-7-9-10-97--------------------------|
|------------------9-10-9-10----------------10-9---------9-109----9-|
|----------11-9-11-------------------------------11-9-11-------11---|
|-4--4-2------------------------------------------------------------|
|-4--4-2------------------------------------------------------------|
|-4--4-2------------------------------------------------------------|
. . .
|----------------------------7-9-7-9-10-9-7-------------------79-10-/14-|
|------------------9-10-9-10----------------10-9---------910------------|
|----------11-9-11-------------------------------11-911-----------------|
|-4--4--

2---------------------------------------------------------------|
|-4--4-2---------------------------------------------------------------|
|-4--4-2---------------------------------------------------------------|
. . .

1st verse:
|----------------------------------------------------------------|
|----------------------------------------------------------------|
|----------------------------------------------------------------|
|----------------------------------------------------------------|
|----------------------------------------------------------------|
|-4-4-4-4-4-4-4-4-7-7-7-7-7-7-7-7-6-6-6-6-6-6-6-6-5-5-5-5-5-5-55-|
. . . . . . . . . . . . . . . . . . . . . . . . . . . . . . . .
|---------------------------------------------------------------|
|---------------------------------------------------------------|
|---------------------------------------------------------------|
|---------------------------------------------------------------|
|---------------------------------------------------------------|
|-4-4-4-4-4-4-4-4-7-7-7-7-7-7-7-7-6-6-6-6-6-6-6-6-5-5-5-5-5-5-5-|
. . . . . . . . . . . . . . . . . . . . . . . . . . . . .
|----------------------------------------------------------------|
|----------------------------------------------------------------|
|----------------------------------------------------------------|
|--------------------------------------------------------4-------|
|-----4-----5---4-----4-----5---4-----4-----5---4-----5-7---75---|
|-4-4---4-4---4---7-7---7-7---7---6-6---6-6---6---55-------------|
. .
. .
.
. .
. .
.
. .
. .
.
. .

|--------------------------------------------------------------|
|--------------------------------------------------------------|
|--------------------------------------------------------------|
|--------------------------------------------------------------|
|-----4-----5---4-----4-----5---4-----4-----5---4-7--5-4-------|
|-4-4---4-4---4---7-7---7-7---7---6-6---6-6---6----------7-6~--|

Chorus:
|-----------------------------------------------------------------|
|-----------------------------------------------------------------|
|-----------------------------------------------------------------|
|-4-4-4-4-4-4-4-4-7-7-7-7-7-7-7-7-7-7-7-7-7-7-7-7-6-6-6-6-6-6-66--|
|-4-4-4-4-4-4-4-4-5-5-5-5-5-5-5-5-7-7-7-7-7-7-7-7-7-7-7-7-7-7-77--|
|-4-4-4-4-4-4-4-4-----------------7-7-7-7-7-7-7-7-6-6-6-6-6-6-66--| x2
|----------------------------------------------------------|
|----------------------------------------------------------|
|----------------------------------------------------------|
|-6-6-6-6-6-6-6-6-7-7-7-7-7-7-7-7-7-7-7-7-7-7-7-7-6-6-6-6--|
|-4-4-4-4-4-4-4-4-5-5-5-5-5-5-5-5-7-7-7-7-7-7-7-7-7-7-7-7--|
|---------------------------------7-7-7-7-7-7-7-7-6-6-6-6--|
|----------------------------------------------------------|
|----------------------------------------------------------|
|----------------------------------------------------------|
|-4-4-4-4-4-4-4-4-7-7-7-7-7-7-7-7-7-7-7-7-7-7-7-7-6-6-6-6--|
|-4-4-4-4-4-4-4-4-5-5-5-5-5-5-5-5-7-7-7-7-7-7-7-7-7-7-7-7--|
|-4-4-4-4-4-4-4-4-----------------7-7-7-7-7-7-7-7-6-6-6-6--|

Interlude:
|------------------------------------------|
|------------------------------------------|
|------------------------------------------|
|-4-4-2-4----2~---4-4-2-4---7~--2~---------|
|-4-4-2-4----2~---4-4-2-4---5~--2~---------|
|-4-4-2-4----2~---4-4-2-4-------2~---------|

. . . .

. . . .

2nd verse:
|--------------------------------------------------------------------|
|--------------------------------------------------------------------|
|--------------------------------------------------------------------|
|--------------------------------------------------------------------|
|--------------------------------------------------------------------|
|-4-4-4-4-4-4-4-44-7-7-7-7-7-7-7-77-6-6-6-6-6-6-6-66-5-5-5-5-5-55-55-|
. . . . . . . .. . . . . . . . .. . . . . . . . .. . . . . . .
. ..
|-----------------------------------------------------------------|
|-----------------------------------------------------------------|
|-----------------------------------------------------------------|
|-----------------------------------------------------------------|
|-----------------------------------------------------------------|
|-4-4-4-4-4-4-4-44-7-7-7-7-7-7-7-77-6-6-6-6-6-6-6-66-5-5-5-5-5-55-|
. . . . . . . .. . . . . . . . .. . . . . . . . .. . . . . .
|--------------------------------------------------------------|
|--------------------------------------------------------------|
|--------------------------------------------------------------|
|--------------------------------------------------------------|
|-----4-----5---4-----4-----5---4-----4-----5---4-7--5-4-------|
|-4-4---4-4---4---7-7---7-7---7---6-6---6-6---6----------7-6~--|
x2

Chorus:
|-----------------------------------------------------------------|
|---------------------------------------------------------------

---|
|-----------------------------------------------------------------|
|-4-4-4-4-4-4-4-4-7-7-7-7-7-7-7-7-7-7-7-7-7-7-7-7-6-6-6-6-6-6-66--|
|-4-4-4-4-4-4-4-4-5-5-5-5-5-5-5-5-7-7-7-7-7-7-7-7-7-7-7-7-7-7-77--|
|-4-4-4-4-4-4-4-4-----------------7-7-7-7-7-7-7-7-6-6-6-6-6-6-66--| x2
|----------------------------------------------------------|
|----------------------------------------------------------|
|----------------------------------------------------------|
|-6-6-6-6-6-6-6-6-7-7-7-7-7-7-7-7-7-7-7-7-7-7-7-7-6-6-6-6--|
|-4-4-4-4-4-4-4-4-5-5-5-5-5-5-5-5-7-7-7-7-7-7-7-7-7-7-7-7--|
|---------------------------------7-7-7-7-7-7-7-7-6-6-6-6--|
[ Tab from: http://www.guitaretab.com/b/black-veilbrides/335521.html ]
|-----------------------------------------------------------------|
|-----------------------------------------------------------------|
|-----------------------------------------------------------------|
|-4-4-4-4-4-4-4-4-7-7-7-7-7-7-7-7-7-7-7-7-7-7-7-7-6-6-6-6-6-6-66--|
|-4-4-4-4-4-4-4-4-5-5-5-5-5-5-5-5-7-7-7-7-7-7-7-7-7-7-7-7-7-7-77--|
|-4-4-4-4-4-4-4-4-----------------7-7-7-7-7-7-7-7-6-6-6-6-6-6-66--|

Solo:
|----------16b17-16------------------------------------|
|-14-15-14----------17~--14-15-17-17~------------------|
|---------------------------------------16-14-13-------|
|------------------------------------------------14~---|
|------------------------------------------------------|
|------------------------------------------------------|
|----------------------------------------14~-14p12----15b17-15--|
|-------------------------------14-15-17-----------14-----------|
|----13-14-16-14-13-14-16-14-13---------------------------------|
|-14------------------------------------------------------------|
|---------------------------------------------------------------|
|---------------------------------------------------------------|

|-17p12----12-17p12-19p12-17p12----12-17p12----------|
|-------14----------------------14----------14-------|
|----------------------------------------------14----|
|----------------------------------------------------|
|----------------------------------------------------|
|----------------------------------------------------|
|-19p16----16-19p16-21p16-19p16----------------------16h17~--|
|-------17----------------------17----------------17---------|
|----------------------------------16----------16------------|
|-------------------------------------18----18---------------|
|----------------------------------------19------------------|
|------------------------------------------------------------|
I find it easier to play the solo without the sweep, like this:
|-19p16----16-19p16-21p16-19p16----16-19p16----16-17~--|
|-------17----------------------17----------17---------|
|------------------------------------------------------|
|------------------------------------------------------|
|------------------------------------------------------|
|------------------------------------------------------|

Chorus:
|-----------------------------------------------------------------|
|-----------------------------------------------------------------|
|-----------------------------------------------------------------|
|-4-4-4-4-4-4-4-4-7-7-7-7-7-7-7-7-7-7-7-7-7-7-7-7-6-6-6-6-6-6-66--|
|-4-4-4-4-4-4-4-4-5-5-5-5-5-5-5-5-7-7-7-7-7-7-7-7-7-7-7-7-7-7-77--|
|-4-4-4-4-4-4-4-4-----------------7-7-7-7-7-7-7-7-6-6-6-6-6-6-66--|
|------------------------------------------------------------------|
|------------------------------------------------------------------|
|------------------------------------------------------------------|
|-6-6-6-6-6-6-6-6-7-7-7-7-7-7-7-7-7-7-7-7-7-7-7-7-6-6-6-6-x-x-xx---|
|-4-4-4-4-4-4-4-4-5-5-5-5-5-5-5-5-7-7-7-7-7-7-7-7-7-7-7-7-x-x-x-

x---|
|---------------------------------7-7-7-7-7-7-7-7-6-6-6-6-x-x-xx---|
|----------------------------------------------------------|
|----------------------------------------------------------|
|----------------------------------------------------------|
|-4-4-4-4-4-4-4-4-7-7-7-7-7-7-7-7-7-7-7-7-7-7-7-7-6-6-6-6--|
|-4-4-4-4-4-4-4-4-5-5-5-5-5-5-5-5-7-7-7-7-7-7-7-7-7-7-7-7--|
|-4-4-4-4-4-4-4-4-----------------7-7-7-7-7-7-7-7-6-6-6-6--|

Interlude:
|-t17p12p9--t17p12p9--t17p12p9--t17p12p9--t17p12-t17p12----|
|----------------------------------------------------------|
|----------------------------------------------------------|
|----------------------------------------------------------|
|----------------------------------------------------------|
|----------------------------------------------------------|
|-t17p14p10--t17p14p10--t17p14p10--t17p14p10-t17p14-t17p14--|
|-----------------------------------------------------------|
|-----------------------------------------------------------|
|-----------------------------------------------------------|
|-----------------------------------------------------------|
|-----------------------------------------------------------|
|-t17p12p9--t17p12p9--t17p12p9--t17p12p9--t17p12-t17p12----|
|----------------------------------------------------------|
|----------------------------------------------------------|
|----------------------------------------------------------|
|----------------------------------------------------------|
|----------------------------------------------------------|
|-19-17-16----------------------------------------------------|
|----------19-17-15-19-17-15----------------------------------|
|----------------------------18-16-14-18-16-14----------------|
|----------------------------------------------18-16-14-16*---|
|-------------------------------------------------------------|
|-------------------------------------------------------------|
|---------9-10-/17-16-14-/16-12-/16-1412------------------------------|
|------10---------------------------------15~--12p10----1012p10----10-|
|-/11------------------------------------------------11---------11----|

|---------------------------------------------------------------------|
|---------------------------------------------------------------------|
|---------------------------------------------------------------------|
|-------10h12-/16~--------------|
|-10h12-------------------------|
|-------------------------------|
|-------------------------------|
|-------------------------------|
|-------------------------------|

Chorus:
|------------------------------------------------------------------|
|------------------------------------------------------------------|
|------------------------------------------------------------------|
|-6-6-6-6-6-6-6-6-7-7-7-7-7-7-7-7-7-7-7-7-7-7-7-7-6-6-6-6-6-6-66---|
|-4-4-4-4-4-4-4-4-5-5-5-5-5-5-5-5-7-7-7-7-7-7-7-7-7-7-7-7-7-7-77---|
|---------------------------------7-7-7-7-7-7-7-7-6-6-6-6-6-6-66---|
|----------------------------------------------------------|
|----------------------------------------------------------|
|----------------------------------------------------------|
|-4-4-4-4-4-4-4-4-7-7-7-7-7-7-7-7-7-7-7-7-7-7-7-7-6-6-6-6--|
|-4-4-4-4-4-4-4-4-5-5-5-5-5-5-5-5-7-7-7-7-7-7-7-7-7-7-7-7--|
|-4-4-4-4-4-4-4-4-----------------7-7-7-7-7-7-7-7-6-6-6-6--|

Outro:
|----------------------------7-9-7-9-10-97--------------------------|
|------------------9-10-9-10----------------10-9---------9-109----9-|
|----------11-9-11-------------------------------11-9-11-------11---|
|-4--4-2------------------------------------------------------------|

|-4--4-2------------------------------------------------------------|
|-4--4-2------------------------------------------------------------|
. . .
|------------------------------------|
|------------------------------------|
|------------------------------------|
|-4-4-2-4---7~--2~-------------------|
|-4-4-2-4---5~--2~-------------------|
|-4-4-2-4-------2~-------------------|
. . . .
|----------------------------7-9-7-9-10-97--------------------------|
|------------------9-10-9-10----------------10-9---------9-109----9-|
|----------11-9-11-------------------------------11-9-11-------11---|
|-4--4-2------------------------------------------------------------|
|-4--4-2------------------------------------------------------------|
|-4--4-2------------------------------------------------------------| x2
. . .
|---------------------|
|---------------------|
|---------------------|
|-4-4-2-4/------------|
|-4-4-2-4/------------|
|-4-4-2-4/------------|
. . .