Vous êtes sur la page 1sur 29

musica de ninar

|---------------------------3--2--0-------------------------------2-0---2-3--|
|-0-0-3--0---0-0-3--0--0-3------------5--3----0-1-----0-1------1------3------|
|-------------------------------------------2-----2-2-----2--2---------------|
|----------------------------------------------------------------------------|
|----------------------------------------------------------------------------|
|----------------------------------------------------------------------------|

musica de natal da globo


e|--8-8--5----------------------------------------------|
B|-----------8--6-8-8--6--3--1--3-3---1-----------------|
G|----------------------------------------2--0--2-------|
D|------------------------------------------------------|
A|------------------------------------------------------|
E|------------------------------------------------------|
"Hoje um novo dia de um novo tempo que comeou"
e|----0--3-4--8-8-----------8-8---------8-8---------8-----|
B|-1----------------9-8-6---------6--9-------9-8-6--------|
G|--------------------------------------------------------|
D|--------------------------------------------------------|
A|--------------------------------------------------------|
E|--------------------------------------------------------|
"Todos nossos sonhos sero verdade, o fututro j comeou"
e|--------8-9-8------------8-9-8-----------6--8-8----4-6-6-----|
B|--6--9---------9---6--9---------9--6--9---------(6)----------|
G|-------------------------------------------------------------|
D|-------------------------------------------------------------|
A|-------------------------------------------------------------|
E|-------------------------------------------------------------|
"Hoje a festa sua hoje a festa nossa de quem vier de quem quiser"
e|--8-9-8----------8-9-8----------6--8-8----4-6-6------------------|
B|---------9--6--9-------9--6--9----------6------------------------|
G|-----------------------------------------------------------------|
D|-----------------------------------------------------------------|
A|-----------------------------------------------------------------|
E|-----------------------------------------------------------------|
"A festa sua hoje a festa nossa de quem vier de quem quiser..."

musica de natal
e|----------------3--------------------------------3B|-5-5-5--5-5-5--5-1-3-5--6-6-6--5-5-5--3-5-3-5-3---G|--------------------------------------------------D|--------------------------------------------------A|--------------------------------------------------E|--------------------------------------------------e|---------------------4-4-2-2-0--------------------B|-0-0-5-5-5-0-0-2-2-0------------------------------G|--------------------------------------------------D|---------------------------------------------------

A|--------------------------------------------------E|--------------------------------------------------olimpiadas
1.a. parte
e |----------------------------------------------------------B |--6---8-10-8--5----6--8-10-8-----6---8-10-8--5---5-6-5-1-1G |-5----------------5-------------5-------------------------D |----------------------------------------------------------A |----------------------------------------------------------E |----------------------------------------------------------2.a. parte
e
B
G
D
A
E

|----8-7-5-3-7-3-5-1-3---8-7-5-3-7-3-5-1-3-----------------|---------------------------------------------5-6-5-1-1----|----------------------------------------------------------|----------------------------------------------------------|----------------------------------------------------------|-----------------------------------------------------------

Marlboro Theme Song


e-----------------13-------------------------B-10-13--15-13--------10-13--15-13-11--------G--------------15---------------------12-----D--------------------------------------------A--------------------------------------------E--------------------------------------------e----------------10-----------13-13-10----10-------B-------10-13-13----13-10--------------13----------G-10-12-------------------10-----------------10--12D--------------------------------------------------A--------------------------------------------------E--------------------------------------------------e--------------------------------------------B-------17--15--------17--15-----------------G-17--17--17----17--17--17--17---------------D--------------------------------------------A--------------------------------------------E--------------------------------------------Tema do Macgyver
e:3-3-3-3-3-3-3---2----0-----3-3-2-3-2--0-----7--0------------------|
b:-------------------3---3-----------------3------------------------|
g:------------------------------------------------------------------|
d:------------------------------------------------------------------|
a:------------------------------------------------------------------|
E:------------------------------------------------------------------|
e:3-3--2----0----3-3-2-3-2--0-----0---3-2-0-3-2-0-3-2-0-3-2-0--3-2-3--5----7|
b:--------3---3----------------3----------------------------------------3---|
g:--------------------------------------------------------------------------|
d:--------------------------------------------------------------------------|
a:--------------------------------------------------------------------------|
E:--------------------------------------------------------------------------|
lojas marabras

e|-------3-5-5/7--3-3-5-5/7--7-7----3----|
B|---5-7----------------------------0----|
G|----------------------------------0----|
D|---------------------------------------|
A|---------------------------------------|
E|---------------------------------------|
jornal nacional
2X
e|--------------------------------------------------B|--------------------------------------------------G|--------------------------------------------------D|----7--4------7--4------5--2------5--2------------A|----------5---------5---------3---------3---------E|---------------------------------------------------

e|------------------------------------------------------------------B|------------------------------------------------------------------G|------------------------------------------------------------------D|--0-0-0-2---2-2--0-0-0----------------------0--0h1p0h1p0----------A|------------------------3--3-3--0h3p0h3p0h3--------------3p0------E|------------------------------------------------------------------e|--------------------------------------------------B|-----0-2-4-2-0------------------------------------G|--------------------------------------------------D|----------------2---------------------------------A|--------------------------------------------------E|--------------------------------------------------jogos da selecao globo


e|--------------2--4--5---7--5---9----5-------------------|
B|---2--3---5-----------------------------7---5---------5-|
G|------------------------------------------------6--7----|
D|--------------------------------------------------------|
A|--------------------------------------------------------|
E|--------------------------------------------------------|
"Na torcida so milhes de treinadores cada um..."
e|---2---4--5---7-5---4--3--2-|
B|----------------------------|
G|----------------------------|
D|----------------------------|
A|----------------------------|
E|----------------------------|
"...ja escalou a seleo"
e|--10-10-------------10----10--9----7--6-----9----7-----5-----4--12-|
B|-----------7--7-------------------------------------------7--------|
G|-------------------------------------------------------------------|
D|-------------------------------------------------------------------|
A|-------------------------------------------------------------------|
E|-------------------------------------------------------------------|
"...o verde e o amarelo so as cores que a gente..."
e|---------14----14--12------12---|
B|--13-------------------14-------|

G|--------------------------------|
D|--------------------------------|
A|--------------------------------|
E|--------------------------------|
"...pinta no corao,"
e|----------2--4-5--7--5--9---5-----------|
B|-2-3--5-------------------------7--5----|
G|----------------------------------------|
D|----------------------------------------|
A|----------------------------------------|
E|----------------------------------------|
"..a torcida fica alegre e se agita"
e|--------5---7--9--7-----12---10--9-|
B|-10-9-8----------------------------|
G|-----------------------------------|
D|-----------------------------------|
A|-----------------------------------|
E|-----------------------------------|
"...e grita Brasil campeao..."
e|-17--17-------17---16---14--|--12------12--10-9---|
B|---------16-----------------|------7--------------|
G|----------------------------|---------------------|
D|----------------------------|---------------------|
A|----------------------------|---------------------|
E|----------------------------|---------------------|
" o toque de bola nossa escola"
e|--9--7---6--7---14-----12------|------12------9----12-----9-|
B|---------------------------10--|----------------------------|
G|-------------------------------|----------------------------|
D|-------------------------------|----------------------------|
A|-------------------------------|----------------------------|
E|-------------------------------|----------------------------|
"...nossa maior tradia, eu sei que vou..."
e|--5--7--9--7---5---9-|---12-----9---12--------|
B|---------------------|--------------------14--|
G|---------------------|------------------------|
D|---------------------|------------------------|
A|---------------------|------------------------|
E|---------------------|------------------------|
"...vou do jeito que eu sei, de gol em gol..."
e|--5--7----9--7--5--10--|---14--------14-------|
B|-----------------------|--------15--------15--|
G|-----------------------|----------------------|
D|-----------------------|----------------------|
A|-----------------------|----------------------|
E|-----------------------|----------------------|
"...com direito a replay, eu sei que vou..."
e|---7----9---10---12--14---16-----14-------14--|
B|-------------------------------------14-------|
G|----------------------------------------------|

D|----------------------------------------------|
A|----------------------------------------------|
E|----------------------------------------------|
"...com o corao batendo a mil..."
e|---14----12--10--9----7---12-----|---12--------12--------|
B|------------------------------10-|--------14---------14--|
G|---------------------------------|-----------------------|
D|---------------------------------|-----------------------|
A|---------------------------------|-----------------------|
E|---------------------------------|-----------------------|
"..tenta que penta Brasil...eu sei que vou..."
e|---5--7---9---7--5---9---|----12-----9-----12-----9-|
B|-------------------------|--------------------------|
G|-------------------------|--------------------------|
D|-------------------------|--------------------------|
A|-------------------------|--------------------------|
E|-------------------------|--------------------------|
"...vou do jeito que eu sei, de gol em gol..."
e|-------7--9---7--5--10--|---14-------14------|
B|---10-------------------|--------15------15--|
G|------------------------|--------------------|
D|------------------------|--------------------|
A|------------------------|--------------------|
E|------------------------|--------------------|
"...com direito a replay, eu sei que vou..."
e|---7--9---10---12----14----16---14-----------14---|
B|----------------------------------------14--------|
G|--------------------------------------------------|
D|--------------------------------------------------|
A|--------------------------------------------------|
E|--------------------------------------------------|
"...eu sei que vou co o corao batendo a mil..."
e|---14--12---10---9----7--12--------|
B|-------------------------------10--|
G|-----------------------------------|
D|-----------------------------------|
A|-----------------------------------|
E|-----------------------------------|
"...tenta que penta Brasil."
jingle do guitar pro
e--2/3--------------------------------------------------3--|
B-------3--------------------------------------------3-----|
G----------3--------------------------------------3--------|
D--------------1----3h5/7--8---7---5--3h5----1-------------|
A----------------------------------------------------------|
E----------------------------------------------------------|
h-hammer

/-slide

Temas de Natal
"Jingle Bells"

-main verse1 1 1 1 1 1 1 1 1 1 1 1 1 1 1 1
e-----------------------------------------------------b-----------------3-3--------5-3----------------------g--5-5-5-5-5-4-4-4-----4-2-0------2-------------------d-----------------------------------------------------a-----------------------------------------------------e------------------------------------------------------verse1 1 2 1 1 2 1 11 1 @-----1 1 1 1 1 1 1 1 1 1 1 1 1 1 1 1
e------------------------------------------------------------b------------------3---------------------------------------3-5
g--4-4-4--4-4-4--4--0-2-4-----5-5-5-5-5-4-4-"-"-"--2-4-2-4---d------------------------------------------------------------a------------------------------------------------------------e------------------------------------------------------------1 1 1 1 1 1 1 1 1 1 1 1 1 1 1 1
e-----------------------------------------------------b-----------------3-3--------5-3----------------------g--5-5-5-5-5-4-4-4-----4-2-0------2-------------------d-----------------------------------------------------a-----------------------------------------------------e------------------------------------------------------bridge1 1 1 1 1 1 1 1 2 2 2 2 @
1 1 2 1 1 1 1 1 11
e-----------------------------------------------------b------------------3--3---------------5-3--3---------3g--5-5-5-5-5-4-4-4-------5--2--0---0---------5-4-2-0--0
d-----------------------------------------------------a-----------------------------------------------------e-----------------------------------------------------Jennie um Gnio
Temas de TV
Riff 1
e ---------------------------------------------B ---3-3---5-3-----3-3---5-3-----3-3---5-3-----G -------5-----5-------5-----5-------5-----5---D -5-------------5-------------5-------------3-A ---------------------------------------------E ---------------------------------------------e
B
G
D
A
E

2x

---------------------------------------------------------------------------6---6-6-6-4---4---4-4-4-----------------------------------------------------6---------6---5-------6-5-6-3-6-6-6-5-3-5-5-5---------------------------------------------------------------------------------------------------------------------------------------------------------------------------------------------------------------------------------------------------------

Repete-> Riff1
Aquele reclame da IBM que tem uma histrinha e sempre no final do
comercial da esse riff.
e|----------------------------------------------|
B|----------------------------------------------|
G|----------------------------------------------|
D|----------------------------------------------|
A|--------------4--6-------------4---6~---------|
E|----4---7---4-------4---4---7-----------------|

Depois que c pegar o jeito toque rapido que a sim vai sair certo
Globo Rural
-12---0---11---0---9---0---7---0---5---0---3---0---2---0-------------0------------------------------------------------------------2----0--------------------------------------------------------------------------------------------------------------------------------------------------------------------------------------------------------------------------------------------------------------------------------------------eu sou brasileiro, com muito orgulho, com muito amooorrr
e|----44-444---54---72---232---50---0---2--0--42----|
B|---------------------------------------------------|
G|---------------------------------------------------|
D|---------------------------------------------------|
A|---------------------------------------------------|
E|---------------------------------------------------|
essa uma forma simples de toca essa musica mas se quiser
enfeitar ela pode tb fica legal
esporte espetacular
E|---------15---13---11----15---13---11--10--|
B|-------------------------------------------|
G|-------------------------------------------|
D|-----13------------------------------------|
A|-------------------------------------------|
E|-------------------------------------------|
e|---10---10---8---7--7---5---5--|
B|-------------------------------|
G|-------------------------------|
D|-------------------------------|
A|-------------------------------|
E|-------------------------------|
e|---7---7---5---3--10---8---8------5----7--|
B|------------------------------8-----------|
G|------------------------------------------|
D|------------------------------------------|
A|------------------------------------------|
E|------------------------------------------|
e|---7---5---3---12---7---7---5---3---12--|
B|----------------------------------------|
G|----------------------------------------|
D|----------------------------------------|
A|----------------------------------------|
E|----------------------------------------|
e|---10---10----10---10---8---7-----7----5---5----|
B|------------------------------------------------|
G|------------------------------------------------|
D|------------------------------------------------|
A|------------------------------------------------|
E|------------------------------------------------|
e|---7---7---5---3---10----8---8--------5------7--|
B|----------------------------------8-------------|
G|------------------------------------------------|
D|------------------------------------------------|
A|------------------------------------------------|

E|------------------------------------------------|
e|---7---5---3---12----7---7---5---3----12--|
B|------------------------------------------|
G|------------------------------------------|
D|------------------------------------------|
A|------------------------------------------|
E|------------------------------------------|
e|---10---10--------------------6------5--|
B|--------------------------8-------------|
G|----------------------8-----------------|
D|--------------13------------------------|
A|----------------------------------------|
E|----------------------------------------|
e|------6---8---5---13--------------|
B|----------------------------------|
G|--------------------------------5-|
D|--3---------------------0---------|
A|----------------------------------|
E|----------------------------------|
e|----------------------------3---7---10----9--|
B|---3---3---1---------------------------------|
G|---------------3---0---0---------------------|
D|---------------------------------------------|
A|---------------------------------------------|
E|---------------------------------------------|
e|---10---12--9---17----15---14-------|
B|--------------------------------15--|
G|------------------------------------|
D|------------------------------------|
A|------------------------------------|
E|------------------------------------|
e|------------3----|
B|-------3---------|
G|--2--------------|
D|-----------------|
A|-----------------|
E|-----------------|
e|--------15---13---11----15---13---11--10----8|
B|---------------------------------------------|
G|---------------------------------------------|
D|---13----------------------------------------|
A|---------------------------------------------|
E|---------------------------------------------|
novela esplendor
Solo
e|----------|-6-6-6-5-h6-6-6-5-h6-6-|-6---------------|-------------------|
B|------6-8-|-6-6-6-5-h6-6-6-5-h6-6-|-6-9-8-6---------|-------------------|
G|-6-h7-----|-----------------------|---------6-7-----|-7-7--7-7-7-7--7-7-|
D|----------|-----------------------|-------------8-8-|-8-8--8-8-8-8--8-8-|
A|----------|-----------------------|-----------------|-------------------|
E|----------|-----------------------|-----------------|-------------------|
e|-------------------|----------------------|-6------------------|
B|---6--8-6----------|-------6------6-------|-6------6-------6---|
G|-7-7--7-7-7-5--3---|-8-10----8-10----8-10-|---8-10---8-10------|
D|-----------------5-|----------------------|--------------------|

A|-------------------|----------------------|--------------------|
E|-------------------|----------------------|--------------------|
e|----------------------|-6------------------|-------6-----------8--6-|
B|-------6------6-------|-6------6-------6---|----------9--8--6-------|
G|-8-10----8-10----8-10-|---8-10---8-10------|-8-10-------------------|
D|----------------------|--------------------|------------------------|
A|----------------------|--------------------|------------------------|
E|----------------------|--------------------|------------------------|
e|----------------6---|---------6----6--------|-----------------|
B|-9-8--6---------6-9-|-8-6-----6----6--8-6---|-----------------|
G|--------8-6-h7--7---|------8^---8^----8-6-h7|-----------------|
D|--------------------|-----------------------|-8---------------|
A|--------------------|-----------------------|-----------------|
E|--------------------|-----------------------|-----------------|
Riff During the Solo:
e|-------------------|-------------------|----------------------|-------------------|
B|-------------------|-------------------|----------------------|-------------------|
G|-------------------|-------------------|----------------------|-------------------|
D|-------------------|-------------------|-8--8-10-8--8-8-10--8-|-8-8-10-8-8--810-8-|
A|-8-8-10-8-8-8-10-8-|-8-8-10-8-8-8-10-8-|-6--6--6-6--6-6--6--6-|-6-6--6-6-6--6-6-6-|
E|-6-6--6-6-6-6--6-6-|-6-6--6-6-6-6--6-6-|----------------------|-------------------|
e|--------------------|
B|--------------------|
G|--------------------|
D|-8-8-10-8-8--8-10-8-|
A|-6-6--6-6-6--6--6-6-|
E|--------------------|
e|----------------------|--------------------|-------------------------|
B|----------------------|--------------------|-------------------------|
G|----------------------|--------------------|-------------------------|
D|----------------------|--------------------|-10-10-12-10-10-10-12-10-|
A|-8--8-10-8--8-8-10--8-|-8-8-10-8-8--8-10-8-|--8--8--8--8--8--8--8--8-|
E|-6--6--6-6--6-6--6--6-|-6-6--6-6-6--6--6-6-|-------------------------|
e|--------------------|-----------------------|
B|--------------------|-----------------------|
G|--------------------|-----------------------|
D|-8-8-10-8-8--8-10-8-|-----------------------|
A|-6-6--6-6-6--6--6-6-|-8-8-10--8-8--8-10-8-8-|
E|--------------------|-6-6--6--6-6--6--6-6-6-|
escravos de jo
e|--------------------------|
B|---1-0--------------------|
G|-0-----2-0----2-0-2-0-----|
D|----------------------3-2-|
A|--------------------------|
E|--------------------------|
escravos de j... Jogavam "cachang"...
e|-------------0------|

B|-----------1----3-1-|
G|-0--0--0-0----------|
D|--2--2--2-----------|
A|--------------------|
E|--------------------|
tira, bota, deixa o "zanguel" ... ficar ...
e|-----------------------------|
B|-------------------------0-1-|
G|-0-2-0---0-2-0---0-2-0-2-----|
D|-------2-------2-------------|
A|-----------------------------|
E|-----------------------------|
guerreiros com guerreiros fazem
zigue-zigue-z!

X2

dona aranha
|--5-5-7-9-9-9-7-5-7-9-7-5------------|
|-------------------------------------|
|-------------------------------------|
|-------------------------------------|
|-------------------------------------|
|-------------------------------------|
|--5-5-7-9-9-9-7-5-7-5----------------|
|-------------------------------------|
|-------------------------------------|
|-------------------------------------|
|-------------------------------------|
A msica mais ou menos assim: Dona aranha subiu pela parede,
veio a chuva e a derubou.
digimon
|e|-----------------------------|B|-----------------------------|G|-----------------------------|D|-----------------------------|A|-----------------------------|E|0-3-2-0-3-2-0-6-6------------|e|-----------------------------|B|-----------------------------|G|-----------------------------|D|-----------------------------|A|-----------------------------|E|0-3-2-3-0-3-2-3-0-3-2-3-6-6--|e|2-2-4-5-4-2-4-1-1-3-1-3-1-3-4-4-6-7-6-4-6-1-1-1-2-2-2-3-|B|-------------------------------------------------------|G|----------------------------------------------------|D|----------------------------------------------------|A|----------------------------------------------|E|---------------------------------------------------------------------------------------------Verso 1
--------Musica do Danoninho
e--9-7--5-3---------------------------------------

b------------5-3-3-3-5-3-----------3-1-0--0-0-1-3g------------------------5-5-5-5-5---------------e---------------------------------------b-5-5-5-5-6-5-3-3-3-5-5-7-7-7-7-5-7-8-8-g---------------------------------------Verso 2
e--9-7--5-4-----------------------------------------b------------7-5-5-5-7-5-3-3-3-5-3-2--2-2-3--5-7-7-7e-4-------------------4-4-4-----4--5-b----7-5------5-5-7-5--------7-------E|-0-0-0--0-0-0--0-5-7-9--0-0-0-0-0--5-9-7-4-0------B|--------------------------------------------------G|--------------------------------------------------D|--------------------------------------------------A|--------------------------------------------------E|--------------------------------------------------2x
E|-0-0-0--0-0-0--0-5-7-9---0--12-9--------9---------B|----------------------------------12-10---10------G|--------------------------------------------------D|--------------------------------------------------A|--------------------------------------------------E|---------------------------------------------------

E|-9-9-9--9-9-9--9-9-9---14-9--14-9--9-9-----9----9-B|----------------------------------------12---12---G|--------------------------------------------------D|--------------------------------------------------A|--------------------------------------------------E|--------------------------------------------------E|-9-9-9--9-9-9--9-9-9---14-9--14-9--9-9-----9------B|----------------------------------------12--------G|--------------------------------------------------D|--------------------------------------------------A|--------------------------------------------------E|--------------------------------------------------Final:
E|-0-0-0--0-0-0--0-5-7-9--0-12--9-------9-----------B|--------------------------------12-10---10--------G|--------------------------------------------------D|--------------------------------------------------A|--------------------------------------------------E|--------------------------------------------------E-------------------------------------------------------------------------------|
B----0---3---3---3---0---5---2---3---0---3---5---7---5---3---0---0---5---2---3--|
G-------------------------------------------------------------------------------|
D-------------------------------------------------------------------------------

-|
A-------------------------------------------------------------------------------|
E-------------------------------------------------------------------------------|
esta musica akela cantada aps o parabns pra vc..
quem ser? com quem ser q o fulano vai casar
Chaves
Musica solada
e ---------------------------------------B ---------------------------------------G -----------2-4-4-----------4-5-5-2-4-5-5
D -5-2-5-2-5-------5-2-5-2-5-------------e
B
G
D

----------------------------------------------------------------3-3-3----------4-2-2-------------2-----------4-2-4----------5-5-2-5-2-5---5-2-------------5--

Musica Cifrada
G
Bm
Que bonita sua roupa
G
C
Que roupinha muito louca
Am
C
Nela tudo remendado
Em
C
Nao vale nenhum centavo
D
G
Mas agrada quem olhar

Verso 1
--------"Msica de Chamada Cobrar"
e-------3---2--5-2-3--B-3-5-----5-----------G---------------------D---------------------A---------------------E----------------------

2 vezes

Verso 2
--------|
E|---------0-------------2-------0-----------|
B|-0---2------2----4--------4----------------|
G|-------------------------------------------|
D|-------------------------------2-----------|
A|-----0-----------2-------------------------|
E|-------------------------------------------|
Verso 3
--------

com quem ser? com

e
b
g
d
a
e

|--------------------------------------------------------------------------|--------5---4-7-4-5------------------------------------------------------(2x)
|--4--6----6--------------------------------------------------------------|--------------------------------------------------------------------------|--------------------------------------------------------------------------|---------------------------------------------------------------------------

Cai cai balao


e|--3--3--1-0---3-3-1-0--3-5-3-1-0---------0-1-----0-1-----0-1--3-5-1-0------B|----------------------------------3----3-------3-------3--------------3--2-G|---------------------------------------------------------------------------D|---------------------------------------------------------------------------A|---------------------------------------------------------------------------E|----------------------------------------------------------------------------

boi da cara preta


e|-------------3--2--0--0-------------0-0----------0------------------B|----3--3--3--------------2--2--2-3-------2--3-2----3-2-3-3----------G|--------------------------------------------------------------------D|--------------------------------------------------------------------A|--------------------------------------------------------------------E|---------------------------------------------------------------------

"Beavis and Butt-head theme song"


by
Mike Judge
1let ring.............
|-------------------------------------------------------------------------|
|------10-------8-----------8--------10---10--10----8-----8---7-----------|
|---------9-----------7--7--9---------9----9---9----9-----7---7---2-----/-|
|---7---------7-----7-----------7--7--------------7--------------------/--|
|---------------------------------------------------------------------3---|
|-------------------------------------------------------------------------|
|----------------------------------------------------------------------|
|----------------------------------------------------------------------|
|------2--2-------------2--2---------/----2--2--------2--2-----------/-|
|------2--2-------------2--2--------/-----2--2--------2--2----------/--|
|---0-----------------0--------0---3----0-----------0----------0---3---|
|----------------------------------------------------------------------|
|---------------------------------------/-------------/---|
|--------------------5---------------7/-/---7------5/-/---|
|--------------------5---------------7/-----7------5/-----|
|--------------------5---------------------------------7--|
|---------------------------------------------------------|
|---------------------------------------------------------|
Atirei o Pau no Gato
e|--3-1-0-0-1-3--3-3----5-3-1--1-1---3-1-0--0-0-B|-------3--------------------------------------G|----------------------------------------------D|-----------------------------------------------

A|----------------------------------------------E|----------------------------------------------e|--0-5--5-5--7-5-3--33---0-1-3--0-1-3--0-1-3--1-0--B|-3---------------------------------------3-1------G|--------------------------------------------------D|--------------------------------------------------A|--------------------------------------------------E|--------------------------------------------------arquivo x
BACKGROUND RIFF:
(synthesizer arranged for guitar)
(A5) let ring------------->
e|---------------------------------------------|
B|---------------------------------------------|
G|---------9-----9-----9-----9-----------------|
D|-------7-----7-----7-----7-------------------|
A|-----7-----7-----7-----7---------------------|
E|---5-----------------------------------------|

THE WHISTLING MELODY:


(0:03)
e|-----------------------------------|
B|------5-----5--8--5----------------|
G|---7-----7-------------------------|
D|-----------------------------------|
A|-----------------------------------|
E|-----------------------------------|
(0:09)
e|---------------5-------------------|
B|------5-----5-----5----------------|
G|---7-----7-------------------------|
D|-----------------------------------|
A|-----------------------------------|
E|-----------------------------------|
(0:15)
e|---8--7--5-----5-------------------|
B|------------8-----5----------------|
G|-----------------------------------|
D|-----------------------------------|
A|-----------------------------------|
E|-----------------------------------|
(0:21)
e|---8--7--5-----7-------------------|
B|------------8-----5----------------|
G|-----------------------------------|
D|-----------------------------------|
A|-----------------------------------|
E|-----------------------------------|
(0:27)
e|-----------------------------------|
B|------5-----5--8--5----------------|
G|---7-----7-------------------------|
D|-----------------------------------|
A|-----------------------------------|

E|-----------------------------------|
(0:33)
...(0:39)
e|---------------5------------5------|
B|------5-----5-----5------------5---|
G|---7-----7-------------------------|
D|-----------------------------------|
A|-----------------------------------|
E|-----------------------------------|
Adeus Ano Velho, Feliz Ano Novo
e|------2-2--0-------------2-2-0----------0--2--2--5-5-5-7-7--5-3-2-0-B|--------------3-----------------3---3-3-----------------------------G|---2-------------2----2-----------2---------------------------------D|--------------------------------------------------------------------A|--------------------------------------------------------------------E|--------------------------------------------------------------------e|---5--7-7-5--3-2-0-0-0--2-3-2-0-5-2------2-0----0-------------------B|------------------------------------3-3-------3---3-2-3-------------G|--------------------------------------------------------------------D|--------------------------------------------------------------------A|--------------------------------------------------------------------E|--------------------------------------------------------------------A Canoa Virou
e|-----------------------5-5--4--------7-7-7---5-4-4-4----------------B|---5-5-5-5---------5-5----------7-7-------------------7-5-5-5-------G|-------------7--6----------------------------------------------7-6--D|--------------------------------------------------------------------A|--------------------------------------------------------------------E|--------------------------------------------------------------------e|-----------------------5-5--4--------7-7-7---5-4-4-4----------------B|---5-5-5-----------5-5----------7-7-------------------7-5-5-5-------G|-------------7--6----------------------------------------------7-6--D|--------------------------------------------------------------------A|--------------------------------------------------------------------E|-------------------------------------------------------------------

nokia
Mais um tema: esse um tipo de toque que tem no celular Nokia 6120, chamado Ode
To Joy:
e
B
G
D
A
E

|-5-5-6-8-8-6-5-3-1-1-3-5-5-3-3-------------------------|
|-------------------------------------------------------|
|-------------------------------------------------------|
|-------------------------------------------------------|
|-------------------------------------------------------|
|-------------------------------------------------------|

Tom & Jerry


Essa a famosa musiquinha de quando o Tom t perseguindo o Jerry.
Quando voce toca, todo mundo fala :
"Caramba, eu conheo essa msica, mas no lembro de onde !"

E
B
G
D
A
E

|-----------------------------------------------------------------------|-----------------------------------------------------------------------|-----------------------------------------------------------------------|-----------------------------------------------------------------------|-5~~---5--3--1--0--5--3--1--0--5~~---5--3--1--0--5--3--1--0------------|--------------------------------------------------------------3--5--6--5

E
B
G
D
A
E

|-----------------------------------|||
|------------------------------------||
|------------------------------------||
|------------------------------------||
|------------------------------------||
|---3--5--6--5------3--5--6--5--6----||

Repete infinitas vezes

Tema da Voz do Brasil


e
B
G
D
A
E

-------------------------------------------------------------------7-5-3-2~~-7-5-3-2~~-/7-7-10-10-9-7-7-5-7-/10-5------------6~~-----------------------------------------------------------------------------------------------------------------------------------------------------------------------------------------------------------------------------------------------------

- Em Braslia, dezenove horas.


pantera cor de rosa
---5-6-7-8----8-7-6-5----5-6-7-8-----8-7-6-5-------------------------------------------------------------------------------------------------------------------------------------------------------------------------------------------------------------------------------------------------------------------------------------------------------------------------------------------------------5-6-7-8------7-8-----------6------------8-6-8----------------------------5-6-----5-6--10-9---6-9-8--8-6-----------------------------------------------------------------------------------------------------------------------------------------------------------------------------------------------------------------------------------------------------------------------------------------------7-8-----------6-------------------------------------------5-6-------5-6--10-9---6-9-8-8-8-8-8-8-8-6-8-10-----------------------------------------------------------------------------------------------------------------------------------------------------------------------------------------------------------------------------------------------------------------------------------------------8-------------------8-6-8--8-8-8-8-8-8-8--8-7-6-5--------10-8-6---8-8-8-6-8-10--8-6-------------------------------^10-8-----------------------------------------------------------------------------------------------------------------------------------------------------------------------------------------------------------------------------------------------------.... e por a vai.... tente improvisar com base nessa tab.....
d para tirar umas derivaes interesantes....
TEMA DA FEITICEIRA
A msica feita por esse Riff base:

E|----------------------------------|
B|--2-1-2-3--2-------2-1-2-3--2-----|
G|-------------2----------------1---|
D|----------------------------------|
A|----------------------------------|
E|----------------------------------|

E|---------0-----------------------------|
B|--2--1-2-----2-1-2-2/4-2--------1------|
G|--------------------------2--2----2-1--|
D|---------------------------------------|
A|---------------------------------------|
E|---------------------------------------|
South Park Theme
Guitar part
|x-x-x-x--9---x-x----------------------|--------------------------/15-------|
|x-x-x-x-13---x-x-13-13-14-------------|10-10-10---9-9-9---7------/14-------|
|----------------------------11---14---|-8--8--8---7-7-7---5----------------|
|--------------------------------------|------------------------------------|
|--------------------------------------|------------------------------------|
|--------------------------------------|------------------------------------|
Bass part
|--------------------------------------|------------------------------------|
|--------------------------------------|------------------------------------|
|--------------------------------------|------------------------------------|
|--------------------------------------|------------------------------------|
============================================================================
| ------------------------------------|-------------------------------------|
| ------------------------------------|-------------------------------------|
|*-x--11---x---11---x---11---x---11---|-x---11---x---11---x---11---x---11---|
|*-x--10---x---10---x---10---x---10---|-x---10---x---10---x---10---x---10---|
| ------------------------------------|-------------------------------------|
| ------------------------------------|-------------------------------------|
| ------------------------------------|-------------------------------------|
|*------------------------------------|-------------------------------------|
|*/9---------------/9-----------------|/9----------------/9-----------------|
| --------/8----------------/8--------|---------/8----------------/8--------|
LES: I'm going down to South Park gonna have myself a time.
Going down to South Park gonna leave my woes behind.
============================================================================
~~~~~~
~~~~~~
~~~~~~
~~~~~~~
|------------------------------------|------------------------------------ ||
|10---10---10------13---13---13------|10---10---10------13---13---13------ ||
|-8----8----8------11---11---11------|-8----8----8------11---11---11------*||
|------------------------------------|------------------------------------*||
|------------------------------------|------------------------------------ ||
|------------------------------------|------------------------------------ ||
|------------------------------------|------------------------------------ ||
|-7----7----7------10---10---10------|-7----7----7------10---10---10------*||
|------------------------------------|------------------------------------*||
|------------------------------------|------------------------------------ ||
STAN & KYLE: Friendly faces everywhere humble folks without temptation.
CARTMAN :
Ample parking day or night people shouting "Howdy neighbor!"

============================================================================
|x-x-x-x--9---x-x-----------------------|x-x-x-x--9---9-9-12-12-13-13-12-12-|
|x-x-x-x-13---x-x-13-13-14--------------|x-x-x-x-13-------------------------|
|-----------------------------11---14---|-----------------------------------|
|---------------------------------------|-----------------------------------|
|---------------------------------------|-----------------------------------|
|---------------------------------------|-----------------------------------|
|---------------------------------------|-----------------------------------|
|---------------------------------------|-----------------------------------|
|9----------------/9-------------------/|9-----------/9---------------------|
|---------/8-------------------/8-------|-------/8--------------/8----------|
LES: Heading on up to South Park gonna see if I can't unwind.
============================================================================
|11---11---11------14---14---14------|11---11---11------14---14---14------|
|10---10---10------13---13---13------|10---10---10------13---13---13------|
|------------------------------------|------------------------------------|
|------------------------------------|------------------------------------|
|------------------------------------|------------------------------------|
|------------------------------------|------------------------------------|
|------------------------------------|------------------------------------|
|-7----7----7------10---10---10------|-7----7----7------10---10---10------|
|------------------------------------|------------------------------------|
|------------------------------------|------------------------------------|
KENNY: I like girls with big fat T!@#$&s. I like girls with big V@%#!*s.
(These lyrics unconfirmed)
===========================================================================
|-x-x-x-x--9---x-x-----------------------|-x-x--9----x-x--9----9-------x----|
|-x-x-x-x-13---x-x-13-13-14--------------|-x-x-13----x-x-13---13-------x----|
|------------------------------11---14---|----------------------------------|
|----------------------------------------|----------------------------------|
|----------------------------------------|----------------------------------|
|----------------------------------------|----------------------------------|
|----------------------------------------|----------------------------------|
|----------------------------------------|----------------------------------|
|/9----------------/9--------------------|9-----------------------9---9-----|
|---------/8-------------------/8--------|----------8-----------------------|
LES: So come on down to South Park and meet some friends of mine.
Smurfs
essa aquela dos lalalaralala que eles cantavam toda hora.
E
B
G
D
A
E

|------8-----------------------------------------------------------------|
|----8------8--10--------------------------------------------------------|
|-------------------10---------12------------9---------------------------|
|------------------------12----------10-10------12~~---------------------|
|------------------------------------------------------------------------|
|------------------------------------------------------------------------|

E
B
G
D
A

|------8--------------------------------------------------------------|
|----8------8-10------------------------------------------------------|
|-------------------10---------12----9-10-----------------------------|
|-----------------------12-------------------12--10~~-----------------|
|---------------------------------------------------------------------|

E |---------------------------------------------------------------------|
OS SIMPSONS
Verso 1
---------|---0-2-5-3-0-------------|
|-1-----------1-----------|
|---------------2-------0-|
|-----------------4-4-4---|
|-------------------------|
|-------------------------|

Verso 2
--------

e|-------------------------------------------------------b|---5--7--9--7--5---------------------------------------g|-5----------------5------------------------------------d|---------------------5----------------------5-5-5------a|-----------------------5-5-5-7----5-5-5-7--------------E|-------------------------------------------------------Verso 3
--------e|-----------5------------------------------------------------------------|
B|-----5--7-----8--5------------------------------------------------------|
G|--5------------------5-------------------------------------3---5-5-5-5--|
D|------------------------7---4-4-4-5---4-4-4-4-5---4-4-4-5---------------|
A|------------------------------------------------------------------------|
E|------------------------------------------------------------------------|

ratinho livre
E|------------------------------------------------|
B|-----------9--10-10-10-10--10--9--10--12-12-12--|
G|---9--11----------------------------------------|
e|----------------------------------9--9--9--9-9B|-9-9--10--12-12-12-12-12--10--12--------------e|---------------------9--12--10--|
B|-12-11--11-11-11-12-------------|
e|--9-9--10--12--10--9-------------------------|---------------------|
B|---------------------12--10--9--10-10-10-10--|---------9--10-------|
G|---------------------------------------------|--9--11--------------|
Pokmon - Tema de Abertura
E-----------------------------------------------------------------------

B----------3---3---3------3---1--------------3------3---3---1-------3--G------0--------------------------3---0-------------------------3------D----------------------------------------------------------------------A----------------------------------------------------------------------E----------------------------------------------------------------------E- sse meu jei


to de vi ver
quem
nun ca foi i gua

E|--------------------------------------------------------------------B|---1------4---4---4---4---6---3---1--------------3---1-------3---1--G|--------------------------------------3------3-----------3----------D|--------------------------------------------------------------------A|--------------------------------------------------------------------E|--------------------------------------------------------------------al
a
minha
vida
fa zer
o bem ven
cer

E|-------------------------------------------------------------------B|-------3---1-------3---3---3------3---1--------------3------3---3--G|---3-----------0--------------------------3---0--------------------D|-------------------------------------------------------------------A|-------------------------------------------------------------------E|-------------------------------------------------------------------o
ma al Pe- lo mun do
vi a
ja rei
ten
tan do

E|--------------------------------------------------------------------B|---1-------3---1------4---4---4---4---6---3---1--------------3---1--G|-------3------------------------------------------3------3----------D|--------------------------------------------------------------------A|--------------------------------------------------------------------E|--------------------------------------------------------------------en con tra- -ar


um Po k mon e/com seu po der
tu do trans

E|---------------------------|-------1---3-----------1---3---3---1--B|-------3---1-------3---1---|---3-----------3---3------------------G|---3-----------3-----------|--------------------------------------D|---------------------------|--------------------------------------A|---------------------------|--------------------------------------E|---------------------------|--------------------------------------for ma-aaaarr
Po k mon ! te mos que pe gar vo

E---3------3---3---5---6---6---5---3---5------3---1-------3---1------B---------------------------------------------------------3-----------3--G--------------------------------------------------------------------D--------------------------------------------------------------------A--------------------------------------------------------------------E--------------------------------------------------------------------c
pe g los eu ten ta re on !
jun tos te re mos que-

E|------------------------------------------1---3-----------1---3---3--B|---1-------3---3---1-------3---1------3-----------3---3--------------G|-------3---------------3---------------------------------------------D|---------------------------------------------------------------------A|---------------------------------------------------------------------E|----------------------------------------------------------------------e o mun do de fen de- -eer


Po k mon ! te mos que pe gar

E|---1---3------3---3---5---6---6---5---3---5----------------6------6--B|-------------------------------------------------(3)---4-------------G|---------------------------------------------------------------------D|---------------------------------------------------------------------A|---------------------------------------------------------------------E|---------------------------------------------------------------------vo c
pe g los eu ten ta re on !
vai ser
gran

E|---6-------6---6------6---6---6---5---||---B|-------6------------------------------||*--G|--------------------------------------||---D|--------------------------------------||---A|--------------------------------------||*--E|--------------------------------------||---de a e- -mo o
Po k mo- oon !
Planto da Globo!
E----------------------------------------------------------------------B----------------------------------------------------------------------G-6-6--5--6--5--6--5--6--5---3-----6--6--5--6--5--6--5--6--5--8--5--10-D----------------------------------------------------------------------A----------------------------------------------------------------------E-----------------------------------------------------------------------

Pica-pau
Verso 1
e|-----------5-------|-----------5-------|--5--------5---------------B|--------7-----7----|--------7-----7----|-----7--8-----8--7--5h7p5--G|-----7-------------|-----7-------------|---------------------------7
D|--7----------------|--7----------------|---------------------------Verso 2
E|-----3-0-----3-0--3-0-1-3-1-0---3------|
B|-1-1-----1-1-----------------------3---|
E|-----3-0-----3-0-3-0--3-0-1-3-1-0-----|
B|-1-1-----1-1----------------------3-1-|

E|-3-3-5-3-5-1--1-1-3-1-3-0-|-----3-0-3-0-1-3-1-0-----8~
B|--------------------------|-1-1-----------------3-1--pernalonga e cia
E||--12--10--8--10---12--11--12--------10--10--10--10--|
B||------------------------------13--------------------|
G||----------------------------------------------------|
D||----------------------------------------------------|
A||----------------------------------------------------|
E||----------------------------------------------------|
e|--10--8--7----8---10--9--10---7---8--8--8--8--|
B|----------------------------------------------|
G|----------------------------------------------|
D|----------------------------------------------|
A|----------------------------------------------|
E|----------------------------------------------|
e|--------------------------------|
B|-----------------------3--3--3--|
G|--0-1-2-1-0--1-2-1-0------------|
D|--------------------------------|
A|--------------------------------|
E|--------------------------------|
e|--------------------------------|
B|-----------------------5--5--5--|
G|--0-1-2-1-0--1-2-1-0------------|
D|--------------------------------|
A|--------------------------------|
E|--------------------------------|
e|--12--10--8--10--12--11--12--8---10--10--10--10--|
B|-------------------------------------------------|
G|-------------------------------------------------|
D|-------------------------------------------------|
A|-------------------------------------------------|
E|-------------------------------------------------|
e|--4--5--4--5---10--12--15||
B|-------------------------||
G|-------------------------||
D|-------------------------||
A|-------------------------||
E|-------------------------||

parabens pra voce


----------------------------------------------------------------------------------------------------------------3-4-6-3-----------4-4-3----------------------------3-2-------------5-3-3-------------3-2-0-----------3-5-3-3------------3-3-5-3---------3-3-5-3---------------------------------------------------------------------------------------------------------------------------------------------------------------------------------------------------------------os flinstones
-3------8-5-3-------3-1-0-1-3-------------------------------------------------

---1----------1---------------1-3-1-5-5----------------------------------------------------------------------------------------------------------------------------------------------------------------------------------------------------------------------------------------------------------------------------------------------------------------------------------------------------------olimpikus
e------------------------------------------------B-7-7---7-9-7-10-5--5-7-5-8-3--3-5-3-7-5Oh Susana
"Mateus A."
e-0-1-2-5-5-7-5-2---------------b-----------------2-2-4-6-6-4-2-4
g-------------------------------d-------------------------------a-------------------------------e-------------------------------e-0-1-2-5-5-7-5-2---------------b-----------------2-2-4-6-6-4-4-2
g-------------------------------d-------------------------------a-------------------------------e-------------------------------agora vem o susana, nao chores por mim,que eu vou pro alabama
tocando meu bandolin, nao sei se a letra tah certa..
e----2-2-2-0-0-----0-1-2-5-5-7-5-2------------b-3-3----------2-0----------------2-4-6-6-4-4-2
g---------------2-----------------------------d---------------------------------------------a---------------------------------------------e---------------------------------------------"Noite Feliz"
e
B
G
D
A
E

-------------------------------------------------------------------------------3-3--0--1-1------------------0--2--0-----0--2--0-----------------0-------------------------2-----------2----------------------------------------------------------------------------------------------------------------------------------------

e
B
G
D
A
E

-----------------------------------------------------------1--0-----------------------1--0-----------------2--2-------2--0--2--0------2--2-------2--0--2--0----------------------------2--------------------------2------------------------------------------------------------------------------------------------------------

e
B
G
D
A
E

----------1-----------0-------------------------------3--3--3-----3--0--1-----1--------------------------------------------------------0-----0-------------------------------------------------2------3---0--------------------------------------------------------3-----------------------------------------------------------

Noite Feliz!
Noite feliz!
De amor e alegria
Uma estrela no ceu anuncia
Que nasceu o menino Jesus
Nesta Noite Feliz!
Cheia de Paz e de Luz
musica italiana
Eu num lembro o nome dessa msica... aquela q fala:
Curi, Curi, Curi, Curi
Curi Curi Curi Cur
-------------------------------------------------------------------4-2-4-2---5-4-2-5-4---4-2-4-2---5-4-2-5-0--------------------------------------------------------------------------------------------------------------------------------------------------------------------------------------------------------------------------------------------------------------------------------------------------------------------------------------------------------------0-0-0-0-0-0-0-2---0-0-0-0-0-0-0-5---7-5-4-5-0-0-------------------------------------------------------------------1-2-4-2-1------------------------------------------------------------------4-2----------------------------------------------------------------------------------------------------------------------------------musica dos dedinhos
riff1
e|-0-2-4-0-0-2-4-0-4-5-7--4-4-5-7--7-9-7-5------7-9-7-5-----2---0--2---0-|
B|-----------------------------------------9-5----------9-5---2------2---|
G|-----------------------------------------------------------------------|
D|-----------------------------------------------------------------------|
A|-----------------------------------------------------------------------|
E|-----------------------------------------------------------------------|
(riff1)
Polegares, polegares, onde esto? Aqui esto.
Eles se sadam, eles se sadam e se vo. E se vo.
Indicadores, indicadores, onde esto? Aqui esto.
Eles se sadam, eles se sadam e se vo. E se vo.
Anulares, anulares, onde esto? Aqui esto.
Eles se sadam, eles se sadam e se vo. E se vo.
Dedos mdios, dedos mdios, onde esto? Aqui esto.
Eles se sadam, eles se sadam e se vo. E se vo.
Dedos mnimos, dedos mnimos, onde esto? Aqui esto.
Eles se sadam, eles se sadam e se vo. E se vo.
Todos os dedos, todos os dedos, onde esto? Aqui esto.
Eles se sadam, eles se sadam e se vo. E se vo.

* pelo que eu vi no dicionrio, o nome do dedo anular


* mas se no me falhe a memria, a Eliana fala "anelares"
Msica do "SENNA"
C
G
F
C
G
F
e|--3-3--3--3-3--1--3-3--3--3-3--1--|
B|--5-5--3--3-3--1--5-5--3--3-3--1--|
G|--5-5--4--4-4--2--5-5--4--4-4--2--|
D|--5-5--5--5-5--3--5-5--5--5-5--3--|
A|----------------------------------|
E|----------------------------------|
e|--4--4-5-7-5-4-2--2--2-4-5-4-2-0--4--4-5-7-5-4-2--5-2-2--2-4-5-4-2-0--|
B|----------------------------------------------------------------------|
G|----------------------------------------------------------------------|
D|----------------------------------------------------------------------|
A|----------------------------------------------------------------------|
E|----------------------------------------------------------------------|
C
G
F
C
G
F
e|--3-3--3--3-3--1--3-3--3--3-3--1--|
B|--5-5--3--3-3--1--5-5--3--3-3--1--|
G|--5-5--4--4-4--2--5-5--4--4-4--2--|
D|--5-5--5--5-5--3--5-5--5--5-5--3--|
A|----------------------------------|
G|----------------------------------|
e|--4--4-5-7-5-4-2--2--2-4-5-4-2-0--4--4-5-7-5-4-2--5-2-2--2-4-5-4-2-0--|
B|----------------------------------------------------------------------|
G|----------------------------------------------------------------------|
D|----------------------------------------------------------------------|
A|----------------------------------------------------------------------|
E|----------------------------------------------------------------------|
Verso 2
-------Ayrton Senna - Tema da vitria
By: GuS
E
D
C
A
E|-3---------------------------------------------------------|
A|-------------------------------------3--3-----3------------|
D|---2--2-3-3-2-0--3-----3-0--0-2-3-2-0----0-2-0-------------|
G|---------0--------0-2-0--------------------------2-------2-|
B|-----------------------------------------------0---0-1-0---|
e|-----------------------------------------------------------|
B
A
E
A
E
E|-----------------------------------------------------------|
A|------------------------------------3----------------------|
D|-----------------3-------3-2-0--3-2------------------------|
G|-----0-2---2-0-2---0-2-0--------------2-2------------------|
B|--0------0--------------------------------0-1-3-1-3--------|
e|----------------------------------------------------0------|
D A C B
( C ) G
(Bb) F
E|------------------------0-0---3----1-1--1------------------|
A|------------------------3-3---2----1-1--3------------------|
D|------------------------2-2---0----3-3--3------------------|
G|--------------2-5-4-----0-0---0----3-3--2------------------|
B|-----------3------------1-1---3----3-3--1------------------|
e|-0-1-3-1-0--------------0-0---3----1-1--1------------------|
musica do caminhao de gas

e-----8--9-------8--9------------------6B-6-9--------6-9--------6-7-9-11--9--4--G---------------------------------------D---------------------------------------A---------------------------------------E---------------------------------------msica do banquinho (Raul Gil)


A4
Dm
O Raul perguntou
G7
C
Voc no acertou
Am
Dm
Pegue o seu banquinho
G7
C
(G7 C)
E saia de mansinho
(repete 1x)
Verso 2
-------------------------------------------------------------------10-------12-----8-8-7---10--------------------11-12----12-11------9-------9-------------------------------------------------------------------------------------------------------------------------------------------------------------------------------------------10--------10-9----------14-12--10------------10---10----12------------12-14--------------------------11---------12---------------------------------------------------------------------------------------------------------------------------------------------------------------------------------------------------

www.tablaturas.com.br
----------------------------------------------------------------------Seu site de cifras e tablaturas na Internet
Hino do Grmio (Lupicnio Rodrigues)
Solo:
e -3-0-------0------3-0-------0----0-1-3-2-3-5-3-5-7-5-0-1-3-5-3-------B -----3-1-3---3--------3-1-3---3--------------------------------3-6-5-1
G ---------------0-----------------------------------------------------D ---------------------------------------------------------------------A ---------------------------------------------------------------------E ----------------------------------------------------------------------

C
At a p nos iremos
C
Para o que der e vier

G
G

C
C7
Mas o certo que ns estaremos
C
G
Com o Grmio, onde o Grmio estiver

F
C

(G)
Cinqenta anos de glria
Tens imortal triciolor
Os feitos da tua histria
Canta o Rio Grande com amor
Refro
(G)
Ns como bons torcedores
Sem exitarmos sequer
Aplaudiremos o Grmio
Aonde o Grmio estiver
Refro

HINO NACIONAL BRASILEIRO


Letra: Osrio Duque Estrada
Msica: Francisco Manuel da Silva
Abaixo de cada parte da tablatura est a parte referente ao hino
cantado, pra que se entenda melhor o tempo, que no tem como ser
mostrado em tablaturas.
e-----------4---4-5-6-7-------------4---5^4----b---5-4-5-7---7---------5---5-4-7-5---7-----6-7g-4-----------------------4--------------------f----------------------------------------------a----------------------------------------------E----------------------------------------------"Ouviram do Ipiranga as margens plcidas
De um povo herico o brado retumbante,"
e-------------------7-8-9------------------7-------b---7-6-7-9-10-9-10-------7---7-6-9-7-10-9---10-8-9g-6-------------------------6----------------------f--------------------------------------------------a--------------------------------------------------E--------------------------------------------------"E o Sol da liberdade, em raios flgidos,
Brilhou no cu da ptria nesse instante."
e-------------------9-8----------------------------b-9-9-10-9-9-10-9-9-----11-11-10-10-8-8------------g---------------------------------------10-10-9-9-7d--------------------------------------------------a--------------------------------------------------E--------------------------------------------------"Se o penhor dessa igualdade
Conseguimos conquistar com brao forte,"
e-------------------8-7----------------------------b-8-8-10-8-8-10-8-8-----10-10-8-8------------------g---------------------------------10-10-9-9-7-7----d-----------------------------------------------10-a---------------------------------------------------

E--------------------------------------------------"Em teu seio, liberdade,


Desafia o nosso peito a prpria morte!"
e-------5-------5-------5-5b---4-7---7-4-----7-4------g-4-----------4-------4----d--------------------------a--------------------------E--------------------------" ptria amada,
Idolatrada,
Salve! Salve!"
e-----------4---4-5-6-7-------------4---5^4----b---5-4-5-7---7---------5---5-4-7-5---7-----6-7g-4-----------------------4--------------------f----------------------------------------------a----------------------------------------------E----------------------------------------------"Brasil, um sonho intenso, um raio vvido
De amor e de esperana terra desce,"
e-------------------7-8-9------------------7-------b---7-6-7-9-10-9-10-------7---7-6-9-7-10-9---10-8-9g-6-------------------------6----------------------f--------------------------------------------------a--------------------------------------------------E--------------------------------------------------"Se em teu formoso cu, risonho e lmpido,
A imagem do Cruzeiro resplandece."
e---------------------5-5---------------------7-7---------------------9b-5-7-5-4^5-4^5-7-5-5-----7-9-7-6^7-6^7-9-7-7-----9-10-8^9-8^9-10-9-9--g----------------------------------------------------------------------d----------------------------------------------------------------------a----------------------------------------------------------------------E----------------------------------------------------------------------"Gigante pela prpria natureza,
s belo, s forte, impvido colosso,
E o teu futuro espelha essa grandeza,"
e-7-----------------5^4---------5------b---10-7-7----4-5-7-----4-5-------7-7-5g----------9----------------6-6--------d--------------------------------------a--------------------------------------E--------------------------------------"Terra adorada,
Entre outras mil,
s tu, Brasil,
Ptria amada"
e-4-5-6-6-7-4-----4-5---------------b-------------5-------5-------4-5~~~g---------------6-------6-4-6-------d-----------------------------------a-----------------------------------E-----------------------------------"Dos filhos deste solo s me gentil,
Ptria amada,
Brasil!"

Centres d'intérêt liés