Vous êtes sur la page 1sur 41

1- Circulo de Do:

2- Circulo de Re:

3- Circulo de Sol

LAS NOTAS MUSICALES


Las notas musicales son siete las cuales se repiten infinitamente:
DO - RE - MI - FA - SOL - LA - SI - DO - RE - MI - ETC.
En el sistema americano de notacin estas siete notas toman el nombre de las siete primeras letras del alfabeto, pero
empezando por la nota "LA" que es la que sirve de base para la afinacion de todos los instrumentos.
"A = LA"
"B = SI"

"C = DO"
"D = RE"
"E = MI"
"F = FA"
"G = SOL"

La misma letra siempre representara el mismo acorde, en cualquier tono en que este armonizada la cancin, por lo que
sera facil memorizar los acordes.

INDICE

RITMOS
El ritmo para acompaar a las melodias o arreglo que se toque, consiste en marcar los acordes por medio de los bajos o
rasgueos.
Los bajos habran de ser ejecutados en la sexta, quinta y cuarta cuerda; existe un bajo fundamental y otro secundario.
El bajo fundamental sera el mismo que de la tonica (tono) y el secundario, una quinta arriba de este, (cinco notas).
(A) quinta cuerda bajo fundamental (E) sexta cuerda bajo secundario
Observese los grados musicales I V. Esto es la tonica de (LA).

An cuando se toque tonos menores la formula ser la misma. Regularmente la cuarta cuerda se toca ligada al tono de
(RE) ya sea mayor o menor.
En algunos acordes encontrar variantes, pero los bajos siempre sern en las cuerdas que mencionamos, an cuando el
acorde tenga alteraciones tales como "#" y "b".
En seguida te muestro algunos RITMOS:
BALADA:
Bajo, arpegio tocando sucesivamente tercera, segunda, primera, segunda, tercera.
VALS:
Un bajo dos acordes; un bajo dos acordes etc.
RANCHERA:
Un bajo y dos acordes (como vals). A veces se toca un bajo y despus un acorde, un bajo y un acorde etc.
GUAJIRA:
Golpee con la mano cerrada sobre las cuerdas; rasgueo hacia abajo con movimientos de la mueca; rasgueo
pulgar abajo; rasgueo hacia arriba con movimientos de la mueca.
CORRIDO:
Un bajo y un acorde, un bajo y un acorde, etc. (en ocasiones es con acompaamiento de vals)
BOLERO:
Bajo acorde, pausa acorde, bajo, acorde, abajo, acorde.
DANZA:
Un bajo, pausa, dos acordes.
ROCK:
Rasgueo hacia abajo con el pulgar. rasgueo hacia arriba con el pulgar; se apaga el sonido; rasgueo hacia arriba.
INDICE

MANERA DE AFINAR UNA GUITARRA


La quinta cuerda debe sonar "al aire" como la nota "A" (LA), puesto que es el sonido universal que se usa en la musica.
Esta nota la encontramos en un teclado o en un "afinador".
A continuacin se afinaran las siguientes cuerdas asi:
CUERDA
Sexta
(MI grave)

PISADA EN EL TRASTE

CUERDA
Quinta al aire
(LA)

Quinto

Quinta
(LA)

Quinto

Cuarta al aire
(RE)

Cuarta
(RE)

Quinto

Tercera al aire
(SOL)

Tercera
(SOL)

Cuarto

Segunda al aire
(SI)

Segunda
(SI)

Quinto

Prima primera al aire


(MI agudo)

INDICE

CIRCULOS ARMONICOS
Los circulos armonicos son un grupo de cuatro acordes que se tocan consecutivamente, despus del cuarto acorde se
repiten en el mismo orden.
A continuacin te muestro los circulos amonicos que existen:

Circulo armonica de DO:


C
CM

Am

Dm

G7

Em

A7

Circulo armonica de RE:


D
DM

Bm

Circulo armonica de MI:


E
EM

C#m

F#m

B7

Circulo armonica de FA:


F
FM

Dm

Gm

C7

Am

D7

Circulo armonica de SOL:


G
GM

Em

Circulo armonica de LA:


A
AM

F#m

Bm

E7

C#m

G7

Circulo armonica de SI:


B
BM

G#m

Molinos de viento
1
2
3
4
5
6

|-15--15--15--15--15--15--17p15--15--14h15-15-|-----15--15--15--15--15--17p15--15--14h15--15--|
|---------------------------------------------|-17--------------------------------------------|
|---------------------------------------------|-----------------------------------------------|
|---------------------------------------------|-----------------------------------------------|
|---------------------------------------------|-----------------------------------------------|
|---------------------------------------------|-----------------------------------------------|

|----14--14--14--14--14--17p14--14-12h14-14-|------------12-15----------14-17-| --> La 2 vez


-> |--15--|
|-15----------------------------------------|--13-13-13--------15-15-15-------|
termina
|------|
|-------------------------------------------|---------------------------------|
|------|
|-------------------------------------------|---------------------------------| --> The 2 time -> |------|
|-------------------------------------------|---------------------------------|
finish
|------|
|-------------------------------------------|---------------------------------|
|------|
|----------|---------|--------------|----------|---------|--------------|
|----------|---------|--------------|----------|---------|--------------|
|-7-9--9-7-|-------5-|-------7--7-9-|-7-9--9-7-|-------5-|-------7--7/9-|
|-7-9--9-7-|-------5-|-------7--7-9-|-7-9--9-7-|-------5-|-------7--7/9-|
|-5-7--7-5-|-3-3-3-3-|-5-5-5-5--5-7-|-5-7--7-5-|-3-3-3-3-|-5-5-5-5--5/7-|
|----------|---------|--------------|----------|---------|--------------|
1
2
3
4
5
6

|-------------------|-------------------|---------------|---------|-----------|
|-------------------|-------------------|---------------|---------|-----------|
|-9-----------9-7/9-|-9-----------9-97-|-------------7-|-------5-|-------7-7-|
|-9-----------9-7/9-|-9-----------9-97-|-------------7-|-------5-|-------7-7-|
|-7-7--7-7--7-7-5/7-|-7-7--7-7--7-7-75-|-5-5--5-5--5-5-|-3-3-3-3-|-5-5-5-55-|
|-------------------|-------------------|---------------|---------|-----------|

|-----------------------------------|---|->Repetimos
--|->Repetimos
|---|
|-8-5-8-5-8-5--7h8h10-7--5h7h8-5--8-|-5-| todo excepto
12-| todo excepto |---|
|----------------------7------------|---| lo Rojo
--| lo Rojo
|-7-|
|-----------------------------------|---|->Repeat the
--|
|---|

|----------------------7h8h10------------------|----|-12-8--12-8--12-8--12--------10----8h10h12--8-|-10|--------------------------------11------------|----|----------------------------------------------|-----

|-----------------------------------|---| whole part |----------------------------------------------|------|


|---|
|-----------------------------------|---|except the RED|----------------------------------------------|------|
|---|
E|--------------------------------------------|
-------------|
B|--------------------------------------------|
-------------|
G|-9-9--9x--9-9-9-9x---7-7-7--7x-----7----7---|
---------7---|
D|-9-9--9x--9-9-9-9x---7-7-7--7x-----7----7---|
5-5-5-5--7---|
A|-7-7--7x--7-7-7-7x---5-5-5--5x---5-5--5-5---|
5-5-5-5--5---|
E|--------------------------------------------|x2
3-3-3-3------|

|--------------------------------------------------------|--------------------------------------------------------|---------------------7x-7-7-7x--5-5-5-5-5---------------|-5-5--5x--5-5-5-5-5--7x-7-7-7x--5-5-5-5-5--5x-5-5--5x--5|-5-5--5x--5-5-5-5-5--5x-5-5-5x--3-3-3-3-3--5x-5-5--5x--5|-3-3--3x--3-3-3-3-3------------------------3x-3-3--3x--3-

|-----------------------------------------------------|
|-----------------------------------------------------|
|-------9-7-5---------------------------------------4-|
|-5-7-9-------9-7-5-------------5--4-4-4-4---4-4-4--4-|
|-------------------9-7-5-------5--4-4-4-4---4-4-4--2-|
|-------------------------9-7-5-2--2-2-2-2---2-2-2----|
|-------------------|
|-------------------|
|-------------------|
|-4--4-4-4-4--4-4-4-|
|-4--4-4-4-4--4-4-4-|
|-2--2-2-2-2--2-2-2-|

|---|
|---|
|-9-|
|-9-|
|-7-|
|---|x6

|-----|
|-----|
|-7-9-|
|-7-9-|
|-5-7-|
|-----|

|---|
|---|
|---|
|---|
|-7-|
|---|x6

|-----|
|-----|
|-7-5-|
|-7-5-|
|-5-3-|
|-----|

|---|
|---|
|-5-|
|-5-|
|-3-|
|---|x6

|----------------|----------------------------|----------------|
|----------------|----------------------------|----------------|
|----7-5--5--7-7-|-9-7-9--7-5--7-5-5--7-7-9-|-9--7--5-5--7-7-|
|-5--7-5--5--7-7-|-9-7-9--7-5--7-5-5--7-7-9-|-9--7--5-5--7-7-|
|-5--5-3--3--5-5-|-7-5-7--5-3--5-3-3--5-5--7-|-7--5--3-3--5-5-|
|-3--------------|----------------------------|----------------|

|--7-7-7-7--------------------|-7-7-7-7-5------------| --7-7-7-7--------------------|----------------------|
|----------10-8-7-8--10-8-7---|------------8-7-8-7-~~|----------10-8-7-8--10-8-7----|-----7-8h10p8p7---8---|
|---------------------------9-|--------------------9-|---------------------------9--|-7h9------------9---9-|
|-----------------------------|----------------------|------------------------------|----------------------|
|-----------------------------|----------------------|------------------------------|----------------------|
|-----------------------------|----------------------|------------------------------|----------------------|

CM
(Do Mayor)

DM
(Re Mayor)

EM
(Mi Mayor)

FM
(Fa Mayor)

GM
(Sol Mayor)

AM
(La Mayor)

BM
(Si Mayor)

Cm
(Do Menor)

Dm
(Re Menor)

Em
(Mi Menor)

Fm
(Fa Menor)

Gm
(Sol Menor)

Am
(La Menor)

Bm
(Si Menor)

Las tablaturas para guitarra son como una partitura que muestra la posicin de los dedos en la
guitarra, pero que no da datos de tonos ni duracin de las notas. Asi que para tocar una cancin a
traves de una tablatura, la debes haber escuchado antes para conocer el ritmo y sonido de la

guitarra.

En primer lugar, nos interesa saber el nombre de las partes que componen el mastil de la guitarra:
TRASTES: En el mstil se encuentran los trastes, que son las divisiones en que se divide.
CUERDAS: La guitarra tiene 6 cuerdas de distinto grosor, la ms fina que esta abajo, es la
denominada 1 cuerda, la siguiente es la 2, y as hasta la 6 que es la ms gruesa.
Mastil de la guitarra
......---\
Mi 1ra. ||---------|----------|----------|----------|---------|Si 2da. ||---------|----------|----------|----------|---------|Sol 3ra.||---------|----------|----------|----------|---------|Re 4ta. ||---------|----------|----------|----------|---------|La 5ta. ||---------|----------|----------|----------|---------|Mi 6ta. ||---------|----------|----------|----------|---------|......___/1 Traste . 2 Traste . 3 Traste . 4 Traste . 5 Traste

La tablatura se compone de seis lneas horizontales que representan las seis cuerdas de la guitarra,
la lnea de arriba es la 1 cuerda y la ltima lnea es la 6:
e------------------------------primera cuerda
B-----------------------------segunda cuerda
G-----------------------------tercera cuerda
D-----------------------------cuarta cuerda
A-----------------------------quinta cuerda
E-----------------------------sexta cuerda

En estas lneas estaran unos nmeros que muestran el traste que se tiene que pulsar:
e----1------------------------B-----------------------------G-------3---------------------D----------5------------------A-----------------------------E------------------------------

Esto quiere decir que debes comenzar el punteo de guitarra pulsando la cuerda primera(e) en el
traste 1, despus sigue la cuerda tercera(G) en el traste 3, despus sigues la cuerda cuarta(D)
en el traste 5.
Si encuentras un 0 en la tablatura te esta indicando que la cuerda hay que tocarla sin pulsarla.

Cuando en la tablatura hay unos nmeros sobre otros, los tienes que tocar al mismo tiempo y cada
uno en su traste. Esto se llamaria acorde y se define como: dos o ms notas sonando al mismo
tiempo.
e--2---------------------------primera cuerda
B--3---------------------------segunda cuerda
G------------------------------tercera cuerda
D------------------------------cuarta cuerda
A------------------------------quinta cuerda
E------------------------------sexta cuerda
En la tablatura de arriba hay dos notas una encima de otra, sin dejar espacio. Esto indica que hay
que tocarlas a la vez. La primera cuerda de la guitarra pisada en el traste 2 y la segunda cuerda
pisada en el traste 3, presionas las dos cuerdas a la vez en sus trastes correspondientes y las tocas

al mismo tiempo.

Acordes para guitarra puestos en tablatura


Ahora os mostramos algunos acordes basicos de guitarra puestos en tablatura:
|----------------------------------------------------------------------|
|--------------------------------------------------------------3-------|
|------9--------10--------------------2---3---4---5---6---7----2---8---|
|-2----9---3----10---4---5---6---7----2---3---4---5---6---7---0---8---|
|-2-or-7---3----8---4---5---6---7---0---1---2---3---4---5--------6---|
|-0--------1---------2---3---4---5-------------------------------------|

|-0---1---3---0---2---3---1-|
|-0---1---3---1---3---4---3-|
|-0---1---3---2---4---5---2-|
|-2---3---0---2---4---5---0-|

|-2---3-------0-------------|
|-0---1---------------------|

COMO APRENDER LEER TABLATURAS DE GUITARRA


Las tablaturas para guitarra son como una partitura que muestra la posicin de los dedos en la
guitarra, pero que no da datos de tonos ni duracin de las notas. Asi que para tocar una cancin a
traves de una tablatura, la debes haber escuchado antes para conocer el ritmo y sonido de la
guitarra.
Tambien te puede interesar:
Como afinar una guitarra
Tocar escalas de guitarra

En primer lugar, nos interesa saber el nombre de las partes que componen el mastil de la guitarra:
TRASTES: En el mstil se encuentran los trastes, que son las divisiones en que se divide.
CUERDAS: La guitarra tiene 6 cuerdas de distinto grosor, la ms fina que esta abajo, es la
denominada 1 cuerda, la siguiente es la 2, y as hasta la 6 que es la ms gruesa.
Mastil de la guitarra
......---\
Mi 1ra. ||---------|----------|----------|----------|---------|Si 2da. ||---------|----------|----------|----------|---------|Sol 3ra.||---------|----------|----------|----------|---------|Re 4ta. ||---------|----------|----------|----------|---------|La 5ta. ||---------|----------|----------|----------|---------|Mi 6ta. ||---------|----------|----------|----------|---------|......___/1 Traste . 2 Traste . 3 Traste . 4 Traste . 5 Traste

La tablatura se compone de seis lneas horizontales que representan las seis cuerdas de la guitarra,
la lnea de arriba es la 1 cuerda y la ltima lnea es la 6:
e------------------------------primera cuerda
B-----------------------------segunda cuerda
G-----------------------------tercera cuerda
D-----------------------------cuarta cuerda
A-----------------------------quinta cuerda
E-----------------------------sexta cuerda

En estas lneas estaran unos nmeros que muestran el traste que se tiene que pulsar:
e----1------------------------B-----------------------------G-------3---------------------D----------5------------------A-----------------------------E-----------------------------Esto quiere decir que debes comenzar el punteo de guitarra pulsando la cuerda primera(e) en el
traste 1, despus sigue la cuerda tercera(G) en el traste 3, despus sigues la cuerda cuarta(D) en el
traste 5.
Si encuentras un 0 en la tablatura te esta indicando que la cuerda hay que tocarla sin pulsarla.

Cuando en la tablatura hay unos nmeros sobre otros, los tienes que tocar al mismo tiempo y cada
uno en su traste. Esto se llamaria acorde y se define como: dos o ms notas sonando al mismo
tiempo.
e--2---------------------------primera cuerda
B--3---------------------------segunda cuerda
G------------------------------tercera cuerda
D------------------------------cuarta cuerda
A------------------------------quinta cuerda
E------------------------------sexta cuerda
En la tablatura de arriba hay dos notas una encima de otra, sin dejar espacio. Esto indica que hay
que tocarlas a la vez. La primera cuerda de la guitarra pisada en el traste 2 y la segunda cuerda
pisada en el traste 3, presionas las dos cuerdas a la vez en sus trastes correspondientes y las tocas
al mismo tiempo.

Acordes para guitarra puestos en tablatura


Ahora os mostramos algunos acordes basicos de guitarra puestos en tablatura:
Visita tambien: Acordes de guitarra
|----------------------------------------------------------------------|
|--------------------------------------------------------------3-------|
|------9--------10--------------------2---3---4---5---6---7----2---8---|

|-2----9---3----10---4---5---6---7----2---3---4---5---6---7---0---8---|
|-2-or-7---3----8---4---5---6---7---0---1---2---3---4---5--------6---|
|-0--------1---------2---3---4---5-------------------------------------|

|-0---1---3---0---2---3---1-|
|-0---1---3---1---3---4---3-|
|-0---1---3---2---4---5---2-|
|-2---3---0---2---4---5---0-|
|-2---3-------0-------------|
|-0---1---------------------|

Qu es una tablatura?
Una tablatura es una manera de escribir msica para guitarra. Tiene algunas desventajas respecto a las
partituras, entre ellas, que no se puede representar la duracin de las notas, aunque gracias a algunos
programas de ordenador es posible tener tambin la duracin de las notas e incluso escuchar como suena
la cancin que est en la tablatura. Tambin tiene ventajas respecto a la partitura, leer una tablatura es ms
intuitivo y ms fcil, sin necesidad de tener conocimientos de msica.
La estructura bsica de una tablatura es esta:

Tenemos 6 lneas, cada una empieza con una letra y sigue con una lnea de guiones. Esto representa las 6
cuerdas de la guitarra, estando la ms aguda (la de menor grosor) arriba del todo y la ms grave (la ms
gruesa) abajo del todo.

Las letras que ves a la izquierda de la tablatura indican como debe estar afinada la guitarra (usando cifrado
americano), en este caso, al ser EADGBE significa que la cancin se toca con la guitarra en afinacin
estndar.
Ahora necesitamos saber cmo se representan las notas en la tablatura. Vamos a ver un ejemplo:

Como ves, hay cuatro nmeros en el espacio que corresponde a la sexta cuerda (la ms grave). Cada
nmero representa un traste. Para tocar esto, habra que pulsar en el traste uno de la sexta cuerda,
despus en el segundo, despus en el tercero y despus en el cuarto.
Para representar una nota al aire (sin pulsar ningn traste) se pone el nmero 0.
Ahora vamos a ver como se representan los acordes:

En esta tablatura hay varios nmeros representados uno sobre otro. Esto quiere decir que tenemos que
pulsar esas notas a la vez. En el ejemplo, tenemos que dejar la quinta cuerda al aire, la cuarta cuerda
pulsada en el traste 2, la tercera cuerda pulsada en el traste 2, la segunda cuerda pulsada en el traste 2 y la
primera
cuerda
al
aire.
Ya sabes cmo leer una tablatura bsica. Vamos a ver ahora algunas de las indicaciones que puedes
encontrar en una tablatura.

Indicaciones
Bends y rebends:
Un bend consiste en estirar una cuerda de forma que una vez pisado un traste, consigamos una nota ms
aguda sin levantar el dedo. Se escribe el traste inicial y el nmero del traste de la nota que queremos
alcanzar. En el ejemplo, habra que pulsar en el traste 14 de la primera cuerda y estirar hasta que suene
igual que en el traste 16.

Tambin se representan as:

Tambin puede pasar que al lado de un bend nos encontremos un re-bend, que se representa as:

La forma de tocar esto sera hacer un bending de un tono en el traste 14 (es decir, hasta que suene como el
traste 16) y despus volver la nota a su sonido original.
Vibrato: (ver leccin)
El vibrato se podra considerar como una sucesin de bendings. Se representa con una v o un ~ encima
o al lado de la nota. Para ver como se ejecuta puedes ver esta imagen:

Slides:
Un slide consiste en deslizar un dedo desde un traste hasta otro de la misma cuerda mientras la cuerda
sigue vibrando.

Para tocar esto, pulsa la cuarta cuerda en el traste 7, golpea con la pa y usando el mismo dedo que has
usado para pulsar el traste 7, muvete hasta el traste 9. Tambin se puede representar con una s.

En ambos casos, si slo hay un nmero y una s o una /, significa que podemos hacer el slide desde
donde queramos (o hasta donde queramos).
Hammer on y pull offs: (ver leccin)
Los hammer on y los pull offs son una forma de tocar notas sin usar la pa, consiguiendo un sonido distinto
al que se consigue al usarla.
Para tocar un hammer on, pulsa un traste y golpea con la pa. Ahora, mientras mantienes pulsada la nota
anterior, pulsa otro traste de la misma cuerda sin tocar con la pa. Se representan as en las tablaturas:

Para tocar este hammer on, pulsa el traste 7 de la cuarta cuerda, golpea con la pa y mientras la cuerda
vibra pulsa el traste 9 mientras tu otro dedo sigue en el traste 7.
Lo pull off son lo inverso de los hammer on. Para hacer un pull off debes tener pulsadas dos notas en una
misma cuerda, hacer que suene la ms aguda y despus levantar ese dedo:

Esto se tocara pulsando en la cuarta cuerda los trastes 7 y 9, golpeando con la pa y mientras suena esa
nota levantaramos el dedo que pulsa el traste 9 haciendo un pequeo tirn de la cuerda.

Palm mute: (ver leccin)


El palm mute consiste en apagar las notas apoyando la mano derecha en las cuerdas cerca del puente de
forma que se consigue un sonido ms corto y contundente. Se usa sobre todo en msica con guitarras con
distorsin y est presente en la mayora de canciones de metal y punk. Se representa poniendo P.M. debajo
de las notas que se tocan con esta tcnica.

Fretboard mute:

Es parecido al palm mute, solo que en lugar de usar la mano derecha cerca del puente, se usa la mano
izquierda en cualquier parte del diapasn. Para conseguirlo, debes ejercer una pequea presin sobre las
cuerdas sin llegar a pulsar ninguna nota. Se representa con una X en las tablaturas:

Tapping: (ver leccin)


El tapping es en realidad una variacin de los hammer on y los pull of en los que usamos un dedo de la
mano derecha (normalmente el ndice o el corazn) para pulsar una nota. Se representa con una T encima
de la nota correspondiente:

En el ejemplo, habra que golpear con el dedo corazn de la mano derecha en el traste 12 mientras pulsas
los trastes 10 y 8, levantar el dedo del traste 12 y despus el del traste 10.

Armnicos: (ver leccin)


Los armnicos son esos pitidos agudos que se escuchan en algunas canciones. Hay varios tipos y se
representan de distinta forma segn si son naturales (H), forzados (TH) o de pulgar (PH).
Notas fantasma:

Cuando un nmero va entre parntesis representa una nota fantasma. Son notas que pueden no tocarse, y
si se tocan deben sonar como un golpe, de forma que casi no se escuchan.
A veces hay gente que al hacer las tablaturas usa nmeros entre parntesis para indicar bendings. Por
ejemplo, 7(9) puede representar un bending de un tono en el traste 7.
Duracin:

En algunas tablaturas se ven letras por encima de las lneas. Estas letras representan la duracin de cada
nota, pero no todo el mundo las representa igual, as que en la propia tablatura suele venir indicado el
significado de cada letra. Las L que se ven en esta tablatura indican una ligadura, es decir, que le duracin
de la nota anterior se suma a la duracin que est indicada para la L.

Ps aqui checando la tablatura. i ps al parecer la mayoria d las cosas


estan bien. pero si hai detalles graves que no van con la rola.
ammm.
primero q nada.
la primera guitarra usa Quintas no acord completo.
i segundo algunos acordes no son los correctos.

G#m5
E5
B5
F#5
D#5
C#m5
G5
e----- ----- ----- ----- ----- ----- ----B----- ----- ----- ----- ----- ----- ----G----- --9-- ----- ----- --8-- --6-- -----

D--6-- --9-- --9-- --4-- --8-- --6-- --5-A--6-- --7-- --9-- --4-- --6-- --4-- --5-E--4-- ----- --7-- --2-- ----- ----- --3-INTRO G#m E B F#
e-------------------------------|-------------------------------|
B-----4-4h5h4-------------------|-----4-4h5h4----------------4*-|
G---4---------4h6h4-3h4-6-4-3---|---4---------4h6h4-3h4-6-4-----|
D-6-----------------------------|-6-----------------------------|
A-----------------------------6-|-------------------------------|
E-------------------------------|-------------------------------|
* KI EN LA PARTE DONDE LLEVA EL ASTERISCO SE TOCA RAPIDO ASIENDO
LA PLUMILLA DE ARRIBA ASIA ABAJO
G#m
E
B
Caminas entre la gente, empujndola
D#
G#m
E
Llegas ami, me dices que no me aleje
B
D#
Y cuando estaba ah me hiciste infeliz
G#m
Te puedes matar
E
B
D#
Uuooh uooh ..
G#m
E
B D#
Total que ms da... uuooh uuohh
C#m
B
Pero es que nunca voy a olvidar
E
D#
E
Cuando te hice llorar de dolor
C#m
B
Pero es que nunca te voy a sentir
E
D#
Si eres para mi, solo diversin

G#m
E
Te muestras indiferente
B
D#
Que casualidad ah ah ah
G#m
E
Te drogas haber si me afecta
B
D#
Lo siento solo te afecta ati
G#m
E
B
D#
Te puedes matar Uuooh uuooh
G#m E
B
D#
Total que ms da uuooh uuooh
C#m
B
Pero es que nunca voy a olvidar
E
D#
F#
Cuando te hice llorar de dolor
C#m
G#m
Pero es que nunca te voy a sentir
E
D#
Y eres para mi solo diversin
G#m x4
Solo diversin.
SOLO
E B G# B D#
E B G# B F# G G#
e---7-7---7-7-6-6-6-6-6----9-9---9-9-8-7-5-4-5-7--|
B-5-----5----------------7-----7------------------|
G-------------------------------------------------|
Pero es que nunca voy a olvidar
Cuando te hice llorar de dolor

Pero es que nunca te voy a sentir


Si eres para mi, solo diversin
Solo diversin.

G#