Vous êtes sur la page 1sur 4

PRELUDIO 3- HEITOR VILLA-LOBOS

Q.
S S
S S S S S S S S
H
E||-------------|--------------3-1-|--0--------|
B||-------------|----------3-2-0---|--1--------|
G||-------------|------3-2-0-------|--0--------|
D||-------------|--3-2-0-----------|--2--------|
A||---------3-2-|--0---------------|--3--------|
E||---------0---|------------------|-----------|
S S S S S S S S S S S S
H
E E
------------------------7-8-|--8--------10--8--|
--------------------5-8-----|--0---------------|
----------------4-5---------|--8---------------|
------------2-5-------------|--7---------------|
-------2h-3-----------------|--8---------------|
--0h-3----------------------|------------------|
H
E S S
S S S S S S S S
H
--7---------------|--------------5-3-|--2--------|
--0---------------|----------5-3-0---|--2--------|
--7---------------|------4-2-0-------|--3--------|
--6---------------|--5-3-0-----------|--4--------|
--7-----------5-3-|--0---------------|--4--------|
--------------0---|------------------|--2--------|
S S S S S S S S S S S S
H
E E
----------------0-------9-12-|--12--------9--6--|
--------------2------11------|--12--------9--6--|
------------3-----11---------|--12--------9--6--|
--------2-4------------------|--11--------8--5--|
----1-4----------------------|---0--------------|
--2--------------------------|------------------|
Q.
E H
H
E E
--5------7--8--------|--10--------7--4--|
--5------7--8--------|--10--------7--4--|
--5------7--8--------|--10--------7--4--|
--4------6--7--------|---9--------6--3--|
--0---------0--------|---0--------------|
---------------------|------------------|
Q.
E H
E E E E
E E E
E
--2------4--5--------|--L--7--8--7--10--8--7------|
--2------4--5--------|--L---------------------10--|
--2------4--5--------|--L-------------------------|
--1------3--4--------|--L-------------------------|
--0---------0--------|--L-------------------------|
---------------------|----------------------------|

Q.

|--3--|
E E E

Q.

|---3--|
E E
E

--5------3--6--5--8--6--5--|--5------3--8--6--5-----10--|
--5------5--L--------------|--5------5--L--------8------|
--3------3--L--------------|--3------3--L---------------|
--0------L--L--------------|--0------L--L---------------|
---------------------------|----------------------------|
---------------------------|----------------------------|
Q.
E
Q
E E
Q.
E
Q
Q
--10------10--12----10--8--|--7------8--10---------|
---0-------0---0-----0--0--|--0------0---0---------|
--10------10--12----10--8--|--7------8--10---------|
---9-------9--11-----9--7--|--6------7---9---------|
--10------10--12----10--8--|--7------8--10---------|
---------------0-----------|--0--------------------|
S S S S S S S S S S S S
Q.
E
Q
E E
--------------------7-9-10-|--10------10--12----10--8--|
------------0---6-8--------|---0-------0---0-----0--0--|
----------0---7------------|--10------10--12----10--8--|
------0-3------------------|---9-------9--11-----9--7--|
----2----------------------|--10------10--12----10--8--|
--3------------------------|---------------0-----------|
S Q.
S Q
Q
S Q.
S Q
Q
----7------10-8----7----|----7------10-8----7----|
----0-------------------|----0-------------------|
----7-------------------|----7-------------------|
----6-------------------|----6--------------9----|
----7-------------------|----7-------------------|
--0---------------------|--0---------------------|
E
E
E
E
E
E
E
E
--12--12--12--12--12--12--12--12--|
----------------------------------|
---9------------------------------|
----------------------------------|
----------------------------------|
----------------------------------|
S S S S S S S S S S S S E.
S
--11-12-10-12-8-12----12----12----12------10-|
-------------------12----10------------------|
-------------------------------12----10------|
-------------------------------------10------|
-------------------------------------12------|
-------------------------------------10------|
[ Tab from: http://www.guitaretab.com/h/heitor-villa-lobos/175645.html ]
S S S S S S S S S S S S E. S
--9-10-8-10-7-10----10---10----10-----8-|
-----------------10----8----------5-----|
----------------------------10----5-----|

----------------------------------5-----|
----------------------------------0-----|
----------------------------------------|
S S S S S S S S S S S S E. S
--7-8-6-8-5-8---8---8---8-----7-|
--------------8---6---5---3-----|
--------------------------4-----|
--------------------------3-----|
--------------------------0-----|
--------------------------------|
S S S S S S S S S S S S E. S
--6-7-5-7-4-7---7---7---7-----5-|
--------------6---5-------------|
----------------------7---5-----|
--------------------------7-----|
--------------------------7-----|
--------------------------5-----|
S S S S S S S S S S S S E. S
--4-5-3-5---5---5---5---5-----4-|
----------6---5---3-------------|
----------------------5---4-----|
--------------------------3-----|
--------------------------5-----|
--------------------------4-----|
S S S S S S S S S S S S S S S S
--3-4-1-3-0-3---3---3---3-7-5-8-7-|
--------------3-----------5---7---|
------------------5---4---5---7---|
----------------------------------|
--------------------------0---L---|
----------------------------------|
S S S S E
E
E
E
E
S S
--10-8-12-10-12--12--12--12--12--12-12-|
---8---10-----9------------------------|
---8---10-----9------------------------|
--------------9------------------------|
---L----L----11------------------------|
--------------0------------------------|
S S S S S S S S S S S S E.
S
--11-12-10-12-8-12----12----12----12------10-|
-------------------12----10------------------|
-------------------------------12----10------|
-------------------------------------10------|
-------------------------------------12------|
-------------------------------------10------|

S S S S S S S S S S S S E. S
--9-10-8-10-7-10----10---10----10-----8-|
-----------------10----8----------5-----|
----------------------------10----5-----|
----------------------------------5-----|
----------------------------------0-----|
----------------------------------------|
S S S S S S S S S S S S E. S
--7-8-6-8-5-8---8---8---8-----7-|
--------------8---6---5---3-----|
--------------------------4-----|
--------------------------3-----|
--------------------------0-----|
--------------------------------|
S S S S S S S S S S S S E. S
--6-7-5-7-4-7---7---7---7-----5-|
--------------6---5-------------|
----------------------7---5-----|
--------------------------7-----|
--------------------------7-----|
--------------------------5-----|
S S S S S S S S S S S S E. S
--4-5-3-5---5---5---5---5-----4-|
----------6---5---3-------------|
----------------------5---4-----|
--------------------------3-----|
--------------------------5-----|
--------------------------4-----|
S S S S S S S S S S S S E E
Q.
S S
--3-4-1-4---4---4---4---4-7--5--|-------------|
----------5---3-----------5-----|-------------|
------------------5---4---5-----|-------------|
--------------------------------|--7----------|
--------------------------0-----|--0------3-2-|
--------------------------------|---------0---|
S S S S S S S S
H
--------------3-1-|-----------||
----------3-2-0---|-----------||
------3-2-0-------|-----------||
--3-2-0-----------|--7--------||
--0---------------|--0--------||
------------------|-----------||