Vous êtes sur la page 1sur 25

Her Strut Tab

Bob Seger
Watch her strut
Tuning: 1/2 step down (EbAbDbGbBbeb)
E----0---------------------------------0--------------------------------|
B-----0--------------------------------0--------------------------------|
G------4-------------------------------4--------------------------------|
D-------2-----------0h2p0h2p0h2p0------2--------------------------------|
A--------2-----------------------------2--------------------------------|
E---------0----------------------------0--------------------------------|
Main riff:
E-----------------------------------------------------------------------|
B-----------------------------------------------------------------------|
G-----------------------------------------------------------------------|
D-----------------------------------------------------------------------|
A-----------7--------------5--------------4---4---4---5---2-------------|
E-----0-3-4---0-0--0---3-4---0-0--0---3-4---0---0---0---0---0-0---0-----|
Play the main riff muffled behind the verses.
Chorus:
E-----------------------------------------------------------------------|
B-----------------------------------------------------------------------|
G----------2---2------5---5---------------------------------------------|
D----------2---2------5---5----2--2--2-------2--2--2--2-----------------|
A----------0---0------3---3----2--2--2-------2--2--2--2-----------------|
E----0-3-0---------------------0--0--0-0-3-4-0--0--0--0-----------------|
E-----------------------------------------------------------------------|
B-----------------------------------------------------------------------|
G----------2---2------5---5----4-4-4-4-4-4-4-4-4-4-4-4-4----------------|
D----------2---2------5---5----4-4-4-4-4-4-4-4-4-4-4-4-4----------------|
A----------0---0------3---3----2-2-2-2-2-2-2-2-2-2-2-2-2----------------|
E-----------------------------------------------------------------------|
(let chords ring - over riff)
2X
E-----------------0--------------2---------------2-----------0--0-------|
B-----------------0--------------0---------------0-----------0--0-------|
G-----------------4--------------4---------------4-----------4--4-------|
D-----------------2--------------2---------------2-----------2--2-------|
A----------7--------------5--------------4---4-------5---2--------------|
E----0-3-4---0-0------3-4---0-0------3-4---0---0---0---0---0------------|
Verse
Chorus
Solo
E-----------------------------------------------------------------------|
B-----------------------------------------------------------------------|
G-----------------------------------------b14(14)--12-14--12--14p12-----|
D----------2-----------------2--------------------------------------14--|
A----2-2h4---(echo)----2-2h4---(echo)-----------------------------------|
E-----------------------------------------------------------------------|

E-----------------------------------------------------------------------|
B-----------------------------------------------------------------------|
G----12-14-12v-----------------9------------------9---------------------|
D-----------------------9-9h11---(echo)----9-9h11------(echo)-----------|
A-----------------------------------------------------------------------|
E-----------------------------------------------------------------------|
E----17b(18)(17)-15-17-15-----------------------------------------------|
B-------------------------17b(18)(17)-15-17-15--------------------------|
G----------------------------------------------16-15-14-12--------------|
D----------------------------------------------------------14-12--------|
A-----------------------------------------------------------------------|
E-----------------------------------------------------------------------|
E-----------------------------------------------------------------------|
B-----------------------------------------------------------------------|
G-----------------------------------------------------------------------|
D-----------------------------------------------------------------------|
A----14-13-12v----------------------------------------------------------|
E-----------------------------------------------------------------------|
Chorus
Repeat main riff - then with chords
===============================================================
==========================================
================================================================
Old Time Rock N Roll Tab
Artist:Bob Seger
Song:Old Time Rock and Roll
Album:Stranger in Town
Year:1978
I think it's easier to play with a capo on the 2nd fret.
Notes relevant to capo!
Intro. (arr. for guitar, originaly played on the piano)
E|------------------------------------------|
B|------------------------------------------|
G|------------------------------------------|
D|------------------------------------------|
A|-7-7-7-7-7--------------7-7-7-7-7---------|
E|-----------10-9-7----------------10-9-7---|
It's just pretty much the same riff throughout the whole song.
Both Verse and Chorus.
E-------------------------------------------------------------------------|
B-------------------------------------------------------------------------|
G-------------------------------------------------------------------------|
D----------------------------------2-2-4---2-2-4---2-2-4---2-2-4----------|
A--2-2-4---2-2-4---2-2-4---2-2-4---0-0-0---0-0-0---0-0-0---0-0-0----------|

E--0-0-0---0-0-0---0-0-0---0-0-0------------------------------------------|
E--------------------------------------------------------------------------|
B--------------------------------------------------------------------------|
G--------------------------------------------------------------------------|
D--4-4-6---4-4-6---4-4-6---4-4-6----------------------------4-4-4-4-4-4-4--|
A--2-2-2---2-2-2---2-2-2---2-2-2---2-2-4---2-2-4----2-2-----2-2-2-2-2-2-2--|
E----------------------------------0-0-0---0-0-0----0-0--------------------|
There is a solo near the end, havent figuered that out yet, but this is the majo
rity of
song anyways.
Feel free to send me an email or whatever if you think theres any problems or an
ything
think would make it better.
It's one of the best songs - probably ever!!!
LONG LIVE SEGER!!!!!
===============================================================
==========================================
================================================================
Turn The Page Tab
Artist: Bob Segar and the Silver Bullet Band
Title: Turn the Page
Chords Used: Em 022000
D x00232
A x02220
C x32010

Intro/Outro on Sax
|----14/15\14----------------------15\14--------------------------------------|
|-------------15----12---------12--------15----12-----------------------------|
|----------------14---------14--------------14----14-12\11--------------------|
|----------------------------------------------------------12\7/9-------------|
|-----------------------------------------------------------------------------|
|-----------------------------------------------------------------------------|
Pattern
Em
D
A
C
|-----------------------------------------------------------------------------|
|-----------------------------------------------------------------------------|
|-------------------------2---2-----------2---2-----------0---0---------------|
|-------2----2-----------0---0-----------2---2-----------2---2----------------|
|------2----2---------0-----0---------0-----0---------3-----3-----------------|
|---0------0------------------------------------------------------------------|

Em
On a long and lonesome highway east of Omaha
D
You can listen to the engine moanin out as one lone song
A
You can think about the woman, or the girl you knew the night before
Em
But your thoughts will so be wandering the way they always do
D
When you're riding sixteen hours and there's nothing much to do
A
And you don't feel much like ridin; you just wish the trip was through

Em

Em

CHORUS
D
Em
Say here I am, on the road again
D
Em
There I am, up on the stage
D
A
Here I go, playing the star again
C D
Em
There I go, turn the page
Em
You walk into a restaurant, strung out from the road
D
And you feel the eyes upon you, as you're shaking off the cold
A
You pretend it doesn't bother you, but you just want to explode
Em
Most times you can't hear 'em talk, other times you can
D
All the same 'ole cliche's is that a woman or a man
A
And you always seem outnumbered; you don't dare make a stand

CHORUS
D
Em
Here I am, on the road again
D
Em
There I am, up on the stage
D
A
Here I go, playing the star again
C D
Em
There I go, turn the page
Em
Out there in the spotlight, you're a million miles away

Em

Em

A
Every ounce of energy, you try to give away
D
As the sweat pours out your body, like the music that you play

Em
Later in the evening, as you lie awake in bed
D
With the echo's of the amplifiers, ringin in your head
A
You smoke the day's last cigarette, remembering what you said

Em

Em

CHORUS
D
Em
Here I am, on the road again
D
Em
There I am, up on the stage
D
A
Here I go, playing the star again
C D
Em
There I go, turn the page
Guitar Outro
D
Em
Aah Here I am, on the road again
D
Em
There I am, up on the stage
D
A
Here I go, playing the star again
C
There I go
D
There I go

Outro on Sax
|-------15\14----------------------15\14--------------------------------------|
|-------------15----12---------12--------15----12-----------------------------|
|----------------14---------14--------------14----14-12\11--------------------|
|----------------------------------------------------------12\7/9-------------|
|-----------------------------------------------------------------------------|
|-----------------------------------------------------------------------------|
===============================================================
==========================================
================================================================
Turn The Page Chords
TITLE:
Turn the Page
ARTIST:
Bob Seger

Em
on a long and lonely highway east of omaha
D
you can listen to the engine, moanin out as one long song
A
Em
you can think about the woman, or the girl you knew the night before
and your thoughts will soo be wandering the way they always do
when your riding sixteen hours and there's nothing much to do
you don't feel much like travelin', you just wish the trip was through
CHORUS:
D
Em
but here I am, on the road again
D
Em
here I am, up on the stage
D
A
here I go, playing the star again
C D
Em
there I go, turn the page
you walk into a restaraunt, strung out from the road
and you feel the eyes opon you, as your shaking off the cold
you pretend it doesn't bother you, but you just want to explode
sometimes you hear 'em talkin', other times you can't
all the same 'ole cliche's is that a woman or a man
and you always seem outnumbered, you dare not make a stand
CHORUS
out there in the spotlight, your a million miles away
every ounce of energy, you try to give away
and the sweat pours from your body, like the music that you play
later on that evening, as you lie awake in bed
echos of the amplifiers, ringin in your head
and you smoke the days last cigarette, remembering what you said
CHORUS
CHORUS
Chords used
Em
D
A
C

+------+
X22XXX
XXX232
XX222X
332X1X

===============================================================
==========================================
================================================================
Against The Wind Chords
From: PHTH_TLH@HAL.LAMAR.EDU

Date: Wed, 11 Oct 1995 12:40:35 -0500 (CDT)


Subject: Against The Wind by Bob Seger (corrected version)
Against The Wind - Bob Seger
============================
CHORDS: Am7-X02010 Bm-(barre2)X13321 C-X32010 Cmaj9-X20010 D-XX0232
Em-022000 G-320003
INTRO & BRIDGE: G
VERSE 1:
G
It seems like yesterday,
Bm
but it was long ago.
C
G
Janey was lovely; she was the queen of my nights,
D
C
There in the darkness with the radio playing low. And the
G
Secrets that we shared
Bm
the mountains that we moved,
C
G
Caught like wildfire out of control - Till there was
C
D
nothin left to burn and nothin left to prove.
And I reEm
D
G
member what she said to me. . . How she
Em
C
G
swore that it never would end.
I reEm
D
C
member how she held me, oh so tight.
C
D
Wish I didn't know now what I didn't know then.
CHORUS:
G
Bm
C
G
Against the wind.
We were runnin against the wind. We were
C
Cmaj9
Am7
C
G
young and strong; we were runnin a-gainst the wind.
VERSE2:
And the years rolled slowly past.
And I found myself alone.
Surrounded by strangers I thought were my friends.
I found myself further and further from my home. And I
Guess I lost my way.
There were oh, so many roads.
I was livin' to run, and runnin' to live,
Never worryin' about payin', or even how much I owed.
Runnin' 8 miles a minute for months at a time.
Breakin' all of the rules that would bend.
I begin to find myself just searchin'...
Searchin' for shelter again and again.
CHORUS 2:
Against the wind.

A little somethin' against the wind.

I found myself seeking shelter against the wind.


VERSE 3:
(Solo for 1st 2 stanzas of verse)
Well those drifter's days are past me now. I've got
so much more to think about.
Deadlines and commitments.
What to leave in, What to leave out.
CHORUS 3:
Against the wind. I'm still runnin' against the wind.
I'm older now but still runnin' against the wind.
OUTRO:
C
Cmaj9
Am7
C
Well I'm older now and still runnin' a-gainst the wind.
(alternate G & C to fade)
Against the wind. Against the wind. Against the wind -- still running.
Against the wind -- I'm still running against the wind.
Against the wind -- I'm still running.
Against the wind -- I'm still running against the wind.
Against the wind -- still running.
Against the wind -- running against the wind -- running against the wind
Against the wind -- see the young man run.
Against the wind -- watch the young man run.
Against the wind -- watch the young man running.
Against the wind -- he'll be running against the wind.
Against the wind -- let the cowboys ride.
Against the wind -- Oooh
Against the wind -- let the cowboys ride.
Against the wind -- they'll be riding again the wind.
Against the wind -- against the wind.
Against the wind -- riding against the wind.
Against the wind -- against the wind.
Ride, ride, ride, ride, ride -- against the wind.
Enjoy, Budd phth_tlh@hal.lamar.edu
+++++++++++++++++++++++++++++++++++++++
Against The Wind Chords
#----------------------------------PLEASE NOTE---------------------------------#
#This file is the author's own work and represents their interpretation of the #
#song. You may only use this file for private study, scholarship, or research. #
#------------------------------------------------------------------------------#
#
From: PHTH_TLH@HAL.LAMAR.EDU
Date: Thu, 21 Sep 1995 6:55:33 -0500 (CDT)
I am a beginning player and this is my version:
Against The Wind - Bob Seger
============================
CHORDS: Am7-X02010 Bm-(barre2)X13321 C-X32010 D-XX0232 Em-022000
G-320003 *-X20010
INTRO & BRIDGE: G

VERSE 1:
G
It seems like yesterday,
Bm
but it was long ago.
C
G
Janey was lovely; she was the queen of my nights.
D
C
There in the darkness with the radio, playing low.
G
And the secrets that we shared,
Bm
the mountains that we moved,
C
G
Caught like wildfire out of control
D
D
till there was nothing left to burn and nothing left to prove.
Em
D
G
And I remember what she said to me.
Em
C
G
How she swore that it never would end.
Em
D
C
I remember how she held me, oh so tight.
C
D
Wish I didn't know now what I didn't know then.
CHORUS:
G
Bm C
G
Against the wind. We were running against the wind.
C
*
Am7
C
G
We were young and strong, we were running against the wind.
VERSE2:
And the years rolled slowly past.
And I found myself alone.
Surrounded by strangers I thought were my friends.
I found myself further and further from my home.
And I guess I lost my way.
There were oh, so many roads.
I was living to run, and running to live,
Never worrying about paying, or even how much I owed.
Runnin' 8 miles a minute for months at a time.
Breaking all of the rules that would bend.
I begin to find myself just searching.
Searching for shelter again and again.
CHORUS 2:
Against the wind. A little something against the wind.
I found myself seeking shelter against the wind.
VERSE 3:
(Solo for 1st 2 stanzas of verse)
Well those drifter's days are past me now.
I've got so much more to think about.
Deadlines and commitments.
What to leave in. What to leave out.
CHORUS 3:
Against the wind.
I'm still running against the wind.

I'm older now but still running against the wind.


OUTRO:
C
*
Am7
C
Well I'm older now and still running against the wind.
(alternate G & C to fade)
Against the wind. Against the wind. Against the wind -- still running.
Against the wind -- I'm still running against the wind.
Against the wind -- I'm still running.
Against the wind -- I'm still running against the wind.
Against the wind -- still running.
Against the wind -- running against the wind -- running against the wind
Against the wind -- see the young man run.
Against the wind -- watch the young man run.
Against the wind -- watch the young man running.
Against the wind -- he'll be running against the wind.
Against the wind -- let the cowboys ride.
Against the wind -- Oooh
Against the wind -- let the cowboys ride.
Against the wind -- they'll be riding again the wind.
Against the wind -- against the wind.
Against the wind -- riding against the wind.
Against the wind -- against the wind.
Ride, ride, ride, ride, ride -- against the wind.
P.S. I listen to the version off the "Greatest Hits" cassette.
Thanks, Budd phth_tlh@hal.lamar.edu
Against The Wind
by Bob Seger
VERSE 1:
C

|
Seems like yesterday,

Em

|
but it was long ago.

C
|
Janey was lovely; she was the queen of my nights,

F
Am
There in the darkness with the radio
C

G
playing low.

|
And the

|
Secrets that we shared

Em

|
the mountains that we moved,

F
C
|
Caught like wildfire out of control - Till there was
F
G
nothin left to burn and nothin left to prove.
Am

|
And I re-

member what she said to me. . . How she


Am
F
C
swore that it never would end.

|
I re-

Am
G
F
|
member how she held me, oh so tight.
F
G
|
Wish I didn't know now what I didn't know then.
CHORUS:
C

Em
Against the wind.

| F
We were

C
|
runnin against the wind. We were

Am
Em
F
G
| C
young and strong; we were runnin a-gainst the wind.
VERSE2:
The years rolled slowly past.
And I found myself alone.
Surrounded by strangers I thought were my friends.
I found myself further and further from my home. And I
Guess
There
I was
Never

I lost my way.
were oh, so many roads.
livin' to run, and runnin' to live,
worryin' about payin', or even how much I owed.

Runnin' 8 miles a minute for months at a time.


Breakin' all of the rules that would bend.
I found myself just searchin'...
Searchin' for shelter again and again.
CHORUS 2:
Against the wind. A little somethin' against the wind.
I found myself seeking shelter against the wind.
VERSE 3:
(Solo for 1st 2 stanzas of verse)
Well those drifter's days have passed me now. I've got
so much more to think about.
Deadlines and commitments.
What to leave in, What to leave out.
CHORUS 3:
Against the wind. I'm still runnin' against the wind.
I'm older now but still runnin' against the wind.
ENDING:
Am
Em
F
G
F
Well I'm older now but still runnin' a-gainst the wind.

|:

C
F
:|
Against the wind. Against the wind... (repeat & fade)

-Joe Palumbos

jmp@moscom.com

{rit,tropix,ur-valhalla}!moscom!jmp

===============================================================
==========================================
================================================================
Mainstreet Tab
#----------------------------------PLEASE NOTE---------------------------------#
#This file is the author's own work and represents their interpretation of the #
#song. You may only use this file for private study, scholarship, or research. #
#------------------------------------------------------------------------------#
#
MAINSTREET
As recorded by Bob Seger And The Silver Bullet Band
Gtr I (E A D G B E) - 'Untitled'
Gtr II (E A D G B E) - 'Untitled'
Gtr III (E A D G B E) - 'Untitled'
Intro
Slow Q=64
4/4
Gtr I
~~
W
E E S S E Q S S E
|-----------------||-17--17-17-15-14-15--15-17-15-|
|-----------------||------------------------------|
|-----------------||------------------------------|
|-----------------||------------------------------|
|-----------------||------------------------------|
|-----------------||------------------------------|
|
| Gtr II
| H
Q S S S S
+W
|-----------------||------------------------------|
|-------------0-3-||-(3)--------------------------|
|-----------2-----||------------------------------|
|-----------------||------------------------------|
|-----------------||------------------------------|
|-----------------||------------------------------|
D
C
~~
~~~
~~~
S
+E +S H
S S S S
Q
S S E Q
S S E
|------------------------------14-15-|-17---17-15-14-15---15-17-15--|
|-17b19==(17)r(17)-15----15-17-------|------------------------------|
|------------------------------------|------------------------------|
|------------------------------------|------------------------------|
|------------------------------------|------------------------------|

|------------------------------------|------------------------------|
|
|
Gtr III
| W
Q.
E Q.
E
|------------------------------------|--2-------------0-------------|
|------------------------------------|--3-------------1-------------|
|------------------------------------|--2-------------0-------------|
|------------------------------------|--0-------------2-------------|
|------------------------------------|----------------3-------------|
|------------------------------------|------------------------------|
G

Em
~~
~~~~~~~
a
+E. +S Q
S S E +E S S
|-------------------------------------------||
|-17b19==(17)r(17)-15---12h15p12-(12)-10h12p||
|-------------------------------------------||
|-------------------------------------------||
|-------------------------------------------||
|-------------------------------------------||
|
|
Q.
E Q.
E
|----------3-------------0------------------||
|----------0-------------0------------------||
|----------0-------------0------------------||
|----------0-------------2------------------||
|----------2-------------2------------------||
|----------3-------------0------------------||
Verse 1
D
C
G
Em
~~~
H.
Q
W
|-------------------------------|----------------------------------|
|-10----------------------------|----------------------------------|
|-------------------------------|----------------------------------|
|-------------------------------|----------------------------------|
|-------------------------------|----------------------------------|
|-------------------------------|----------------------------------|
|
| S S S S S S E S S S S S S E S S S S S S S S S S S S +S S E
|-----2-----0h2-----0-----------|---3-----3-----3---0---------0----|
|---------------3-------1-------|-------0---0-----------0-(0)---0--|
|-------2-------------0-------0-|-----0-------0-------0------------|
|--0------0---------------0h2---|----------------------------------|
|-----------------3-------------|----------------------------------|
|-------------------------------|-3---------------0----------------|
D
C
G
Em
Gtr III
S S S S S S E S S S S S S E S S S S S S S S S S S S +S S E 3x
||----2-----0h2-----0-----------|---3-----3-----3---0---------0----||
||o-------------3-------1-------|-------0---0-----------0-(0)---0-o||
||------2-------------0-------0-|-----0-------0-------0------------||
||--0-----0---------------0h2---|----------------------------------||
||o---------------3-------------|---------------------------------o||
||------------------------------|-3---------------0----------------||

Pre-Chorus 1
Bm
Bsus2
Bm
Bsus2
Q E E E S S S S E Q E E E S S S S E
|-2--2---2-------2---|-2--2---2-------2---|
|-3--3---2-----2---2-|-3--3---2-----2---2-|
|-4--4---4---4-------|-4--4---4---4-------|
|------4---4---------|------4---4---------|
|-2--2---2-----------|-2--2---2-----------|
|--------------------|--------------------|
F#m
G
Em
A7sus4
E S S S S S S E S S S S E E S S S S E e Q.
|-2-----2-------3-------3---|-0-------0----------||
|-2---2---2---2-0-0---0---0-|---0---0---0-3-3----||
|-2-2-------2---0---0-------|-----0-------0-0----||
|-4-------------0-----------|-2-----------2-2----||
|---------------------------|-------------0-0----||
|---------------------------|--------------------||
Chorus
D
C
Gtr I
E
E
S S E E
E
S S E
|-17---17---17-15-14-15---15---15-17-15-|
|---------------------------------------|
|---------------------------------------|
|---------------------------------------|
|---------------------------------------|
|---------------------------------------|
|
| Gtr III
| S S S S S S E S S S S S S E
|----2-------0h=2-------0---------------|
|------------------3---------1----------|
|-------2------------------0----------0-|
|--0------0---------------------0h=2----|
|---------------------3-----------------|
|---------------------------------------|
G

Em
~~~
H.

S
+E
+S
E
E
S S E E
E
S
S E
|----------------------------------------------|-17---17---17-15-14-15---15---15
-17-15--|
|-17b19==(17)r==(17)-15------------------------|---------------------------------------|
|----------------------------------------------|---------------------------------------|
|----------------------------------------------|---------------------------------------|
|----------------------------------------------|---------------------------------------|
|----------------------------------------------|---------------------------------------|

|
| S
S S S S S S S S S S S +S S E
S S S S S S E S S S S S
S E
|----------3----------3------3---0---------0---|----2-------0h=2-------0---------------|
|-----------------0------0-----------0-(0)---0-|------------------3---------1----------|
|-------------0------------0-------0-----------|-------2------------------0---------0--|
|----------------------------------------------|--0------0---------------------0
h=2-----|
|----------------------------------------------|---------------------3-----------------|
|--3---------------------------0---------------|---------------------------------------|
G

Em
~~
a
+E.
+S E
S S Q
S S S S
|-------------------------------------------------------||
|-17b19==(17)r====(17)-15---12h15p12-------10h=12p10h12p||
|-------------------------------------------------------||
|-------------------------------------------------------||
|-------------------------------------------------------||
|-------------------------------------------------------||
|
|
S S S S S S S S S S S S +S S E
|-------------3---------3-------3----0----------0-------||
|-------------------0-----0--------------0-(0)-----0----||
|---------------0------------0---------0----------------||
|-------------------------------------------------------||
|-------------------------------------------------------||
|----------3-----------------------0--------------------||
Verse 2
D
C
G
Em
S S E +H.
W
|---------------------------------|---------------------------|
|-10h12p10-(10)-------------------|---------------------------|
|---------------------------------|---------------------------|
|---------------------------------|---------------------------|
|---------------------------------|---------------------------|
|---------------------------------|---------------------------|
|
| E
E S S S S E E S S S S E E S S S S E E S S S S
|--2-----2---2--2-2-x-0-0-0-0-0-x-|-3-3-3-3-3-x-0-0-0-0-0-x---|
|--3-----3---3--3-3-x-1-1-1-1-1-x-|-0-0-0-0-0-x-0-0-0-0-0-x---|
|--2-----2---2--2-2-x-0-0-0-0-0-x-|-0-0-0-0-0-x-0-0-0-0-0-x---|
|--0-----0---0--0-0-x-2-2-2-2-2-x-|-0-0-0-0-0-x-2-2-2-2-2-x---|
|---------------------3-3-3-3-3-x-|-2-2-2-2-2-x-2-2-2-2-2-x---|
|---------------------------------|-3-3-3-3-3-x-0-0-0-0-0-x---|
D
C
G
Em
Gtr III
E E S S S S E E S S S S E E S S S S E E S S S S 3x
||--2-2-2-2-2-x-0-0-0-0-0-x-|-3-3-3-3-3-x-0-0-0-0-0-x--||
||o-3-3-3-3-3-x-1-1-1-1-1-x-|-0-0-0-0-0-x-0-0-0-0-0-x-o||

||--2-2-2-2-2-x-0-0-0-0-0-x-|-0-0-0-0-0-x-0-0-0-0-0-x--||
||--0-0-0-0-0-x-2-2-2-2-2-x-|-0-0-0-0-0-x-2-2-2-2-2-x--||
||o-------------3-3-3-3-3-x-|-2-2-2-2-2-x-2-2-2-2-2-x-o||
||--------------------------|-3-3-3-3-3-x-0-0-0-0-0-x--||
Pre-Chorus 2
Bm
Bsus2 Bm
Bsus2
F#m
G
Em
A7sus4
Q Q Q Q
Q Q Q S S E Q E E E. S S S E E S S S S E e Q.
|-2--2--2--2--|-2--2--2--2-2-2-|-2--2-2-3--3-3-3-3-|-0-0-0-0-0-0---------||
|-3--3--2--2--|-3--3--2--2-2-2-|-2--2-2-0--0-0-0-0-|-0-0-0-0-0-0-3-3-----||
|-4--4--4--4--|-4--4--4--4-4-4-|-2--2-2-0--0-0-0-0-|-0-0-0-0-0-0-0-0-----||
|-4--4--4--4--|-4--4--4--4-4-4-|-4--4-4-0--0-0-0-0-|-2-2-2-2-2-2-2-2-----||
|-2--2--2--2--|-2--2--2--2-2-2-|-4--4-4-2--2-2-2-2-|-2-2-2-2-2-2-0-0-----||
|-------------|----------------|-2--2-2-3--3-3-3-3-|-0-0-0-0-0-0---------||
Chorus
D
C
Gtr I
E E S S E
E E S S E
|-17-17-17-15-14---15-15-15-17-15---|
|-----------------------------------|
|-----------------------------------|
|-----------------------------------|
|-----------------------------------|
|-----------------------------------|
|
| Gtr III
| E E S S S S E E S S S S
|--2--2--2--2--2-x--0--0--0--0--0-x-|
|--3--3--3--3--3-x--1--1--1--1--1-x-|
|--2--2--2--2--2-x--0--0--0--0--0-x-|
|--0--0--0--0--0-x--2--2--2--2--2-x-|
|-------------------3--3--3--3--3-x-|
|-----------------------------------|
G

Em
D
C
~~~
S
+E
+S H.
E E S S E
E E S S E
|------------------------------------------|-17-17-17-15-14---15-15-15-17-15---|
|-17b19==(17)r==(17)-15--------------------|-----------------------------------|
|------------------------------------------|-----------------------------------|
|------------------------------------------|-----------------------------------|
|------------------------------------------|-----------------------------------|
|------------------------------------------|-----------------------------------|
|
| E
E
S S S S E E S S S S
E E S S S S E E S S S S
|--3----------3-------3--3-3-x-0-0-0-0-0-x-|--2--2--2--2--2-x--0--0--0--0--0-x-|
|--0----------0-------0--0-0-x-0-0-0-0-0-x-|--3--3--3--3--3-x--1--1--1--1--1-x-|
|--0----------0-------0--0-0-x-0-0-0-0-0-x-|--2--2--2--2--2-x--0--0--0--0--0-x--

|
|--0----------0-------0--0-0-x-2-2-2-2-2-x-|--0--0--0--0--0-x--2--2--2--2--2-x-|
|--2----------2-------2--2-2-x-2-2-2-2-2-x-|-------------------3--3--3--3--3-x-|
|--3----------3-------3--3-3-x-0-0-0-0-0-x-|-----------------------------------|
Guitar Solo
Em
D
C
~~~
~
a
+E.
+S e
S S Q.
E
Q S S E a Q S S S S
|---------------------------------------------||----------------------------|
|-17b19==(17)r==(17)-15---12h15p12------------||---------------------7-8-10-|
|---------------------------------------------||---------7---7h9---9--------|
|---------------------------------------------||-7---7-9--------------------|
|---------------------------------------------||----------------------------|
|---------------------------------------------||----------------------------|
|
|
E E
S S S S E E S S S S
E E S S S S E E S S S S
|----------3--3-------3-3--3--x--0--0-0-0-0-x-||-2-2-2-2-2-x---0-0-0-0-0--x-|
|----------0--0-------0-0--0--x--0--0-0-0-0-x-||-3-3-3-3-3-x---1-1-1-1-1--x-|
|----------0--0-------0-0--0--x--0--0-0-0-0-x-||-2-2-2-2-2-x---0-0-0-0-0--x-|
|----------0--0-------0-0--0--x--2--2-2-2-2-x-||-0-0-0-0-0-x---2-2-2-2-2--x-|
|----------2--2-------2-2--2--x--2--2-2-2-2-x-||---------------3-3-3-3-3--x-|
|----------3--3-------3-3--3--x--0--0-0-0-0-x-||----------------------------|
G

Em
~~~~
~~~
a
+H
a
+S +S S S S S S a
+S
|------------------------------------------------------------|
|-10b12-(10)-----------10b12==(10)r(10)-8p7-----10-----------|
|-------------------------------------------9p7----9b11==(9)-|
|------------------------------------------------------------|
|------------------------------------------------------------|
|------------------------------------------------------------|
|
|
E E S S S S
E
E S S S
S
|---------3--3-3-3-3-x----------0-------0---0-0--0--------x--|
|---------0--0-0-0-0-x----------0-------0---0-0--0--------x--|
|---------0--0-0-0-0-x----------0-------0---0-0--0--------x--|
|---------0--0-0-0-0-x----------2-------2---2-2--2--------x--|
|---------2--2-2-2-2-x----------2-------2---2-2--2--------x--|
|---------3--3-3-3-3-x----------0-------0---0-0--0--------x--|
D
~~~

C
~~

|---3----|
+Q.
a
+S +S
S Q.
a
+S +S
|----------------------------------------------------|
|----------------------------------------------------|
|-(9)-------9b11==(9)r(9)---7-9--------9b11==(9)r(9)-|
|----------------------------------------------------|
|----------------------------------------------------|
|----------------------------------------------------|
|
| E E S S
S
S E E S S
S S

|--2--2-2-2--------2------x---0--0-0-0--------0---x--|
|--3--3-3-3--------3------x---1--1-1-1--------1---x--|
|--2--2-2-2--------2------x---0--0-0-0--------0---x--|
|--0--0-0-0--------0------x---2--2-2-2--------2---x--|
|-----------------------------3--3-3-3--------3---x--|
|----------------------------------------------------|
G

Em
D
C
~
S S Q
S S s S S S S S S S Q S S S S Q S S S S
|-------------------------------|--------------------------|
|-------------------------------|--------------------------|
|-----7---------7---------------|---------------------7-9--|
|-7h9-------7h9-------7---------|---------7-------7s9------|
|-----------------7h9---9s7-5---|-5---7h9---9s7------------|
|-----------------------------7-|--------------------------|
|
| E E S S S S E E S S S S E E S S S S E E S S S S
|-3---3-3-3-3-x-0---0---0-0-0-x-|-2-2-2-2-2-x-0-0-0-0-0-x--|
|-0---0-0-0-0-x-0---0---0-0-0-x-|-3-3-3-3-3-x-1-1-1-1-1-x--|
|-0---0-0-0-0-x-0---0---0-0-0-x-|-2-2-2-2-2-x-0-0-0-0-0-x--|
|-0---0-0-0-0-x-2---2---2-2-2-x-|-0-0-0-0-0-x-2-2-2-2-2-x--|
|-2---2-2-2-2-x-2---2---2-2-2-x-|-------------3-3-3-3-3-x--|
|-3---3-3-3-3-x-0---0---0-0-0-x-|--------------------------|
a Q.
E S S S S S S S S
|--------------------------------|
|------------7---8p7---7---------|
|--------------------9---9p7-----|
|-7h9------------------------7h9-|
|--------------------------------|
|--------------------------------|
|
| E E S S S S E E S S S S
|---3--3-3-3-3-x-0---0---0-0-0-x-|
|---0--0-0-0-0-x-0---0---0-0-0-x-|
|---0--0-0-0-0-x-0---0---0-0-0-x-|
|---0--0-0-0-0-x-2---2---2-2-2-x-|
|---2--2-2-2-2-x-2---2---2-2-2-x-|
|---3--3-3-3-3-x-0---0---0-0-0-x-|
~~
~
Q
a
+Q
Q
a
+Q
Q S S S S S S S S Q
|---------------------------10b12-(10)-------|-10---7-------------------------||
|-----10b12-(10)-------10--------------------|--------10p7--------------------||
|--------------------------------------------|-------------9s7---7s9-7--------||
|-7------------------------------------------|-----------------9--------------||
|--------------------------------------------|--------------------------------||
|--------------------------------------------|--------------------------------||
|
| E E
S S S S E E
S S S S
E E S S S S E E S S S S
|-2-2---------2--2-2-x--0-0---------0--0-0-x-|--3-3-3--3-3-x-0---0---0-0-0-x--||
|-3-3---------3--3-3-x--1-1---------1--1-1-x-|--0-0-0--0-0-x-0---0---0-0-0-x--||
|-2-2---------2--2-2-x--0-0---------0--0-0-x-|--0-0-0--0-0-x-0---0---0-0-0-x--||
|-0-0---------0--0-0-x--2-2---------2--2-2-x-|--0-0-0--0-0-x-2---2---2-2-2-x--||
|-----------------------3-3---------3--3-3-x-|--2-2-2--2-2-x-2---2---2-2-2-x--||
|--------------------------------------------|--3-3-3--3-3-x-0---0---0-0-0-x--||

Pre-Chorus 3
Bm
Bsus2 Bm
Bsus2
F#m
G
Em
A7sus4
Gtr III
Q Q Q Q
Q Q Q S S E Q E E E. S S S E E S S S S E e Q.
|-2--2--2--2--|-2--2--2--2-2-2-|-2--2-2-3--3-3-3-3-|-0-0-0-0-0-0---------||
|-3--3--2--2--|-3--3--2--2-2-2-|-2--2-2-0--0-0-0-0-|-0-0-0-0-0-0-3-3-----||
|-4--4--4--4--|-4--4--4--4-4-4-|-2--2-2-0--0-0-0-0-|-0-0-0-0-0-0-0-0-----||
|-4--4--4--4--|-4--4--4--4-4-4-|-4--4-4-0--0-0-0-0-|-2-2-2-2-2-2-2-2-----||
|-2--2--2--2--|-2--2--2--2-2-2-|-4--4-4-2--2-2-2-2-|-2-2-2-2-2-2-0-0-----||
|-------------|----------------|-2--2-2-3--3-3-3-3-|-0-0-0-0-0-0---------||
Outro
D
Am
Gtr I
~~~
~~~
Q.
S S Q.
S S
|-17--------15-17-15--------14-15-|
|---------------------------------|
|---------------------------------|
|---------------------------------|
|---------------------------------|
|---------------------------------|
|
| Gtr III
| E. S S S S S E E S S S S
|--2--2-2-2--2--x--0--0-0-0--0--x-|
|--3--3-3-3--3--x--1--1-1-1--1--x-|
|--2--2-2-2--2--x--2--2-2-2--2--x-|
|--0--0-0-0--0--x--2--2-2-2--2--x-|
|------------------0--0-0-0--0--x-|
|---------------------------------|
D

Am
D
Am
~~~
~~~
~~~
~~~
Q.
S S Q.
E
Q.
S S Q.
S S
|-14--------12h14p12------------|-17--------15-17-15--------14-15-|
|-------------------------------|---------------------------------|
|-------------------------------|---------------------------------|
|-------------------------------|---------------------------------|
|-------------------------------|---------------------------------|
|-------------------------------|---------------------------------|
|
| E. S S S S S E E S S S S
E. S S S S S E E S S S S
|--2--2-2-2--2--x--0--0-0-0-0-x-|--2--2-2-2--2--x--0--0-0-0--0--x-|
|--3--3-3-3--3--x--1--1-1-1-1-x-|--3--3-3-3--3--x--1--1-1-1--1--x-|
|--2--2-2-2--2--x--2--2-2-2-2-x-|--2--2-2-2--2--x--2--2-2-2--2--x-|
|--0--0-0-0--0--x--2--2-2-2-2-x-|--0--0-0-0--0--x--2--2-2-2--2--x-|
|------------------0--0-0-0-0-x-|------------------0--0-0-0--0--x-|
|-------------------------------|---------------------------------|
D

Am
D
Am
~~~
~~~
~~~
Q.
S S S S Q
E
Q.
S S Q.
S S
|-14--------12-14-12s10------------|-17--------15-17-15--------14-15-|
|-----------------------13---------|---------------------------------|

|----------------------------------|---------------------------------|
|----------------------------------|---------------------------------|
|----------------------------------|---------------------------------|
|----------------------------------|---------------------------------|
|
| E. S S S S S E
E S S S S
E. S S S S S E E S S S S
|--2--2-2-2--2--x--0-----0-0-0-0-x-|--2--2-2-2--2--x--0--0-0-0--0--x-|
|--3--3-3-3--3--x--1-----1-1-1-1-x-|--3--3-3-3--3--x--1--1-1-1--1--x-|
|--2--2-2-2--2--x--2-----2-2-2-2-x-|--2--2-2-2--2--x--2--2-2-2--2--x-|
|--0--0-0-0--0--x--2-----2-2-2-2-x-|--0--0-0-0--0--x--2--2-2-2--2--x-|
|------------------0-----0-0-0-0-x-|------------------0--0-0-0--0--x-|
|----------------------------------|---------------------------------|
D

Am
~~~
~~
~~
Q.
S S Q
S S E
|-14--------12h14p12---10h12p10-----|
|-----------------------------------|
|-----------------------------------|
|-----------------------------------|
|-----------------------------------|
|-----------------------------------|
|
| E. S S S S S E E S S S S
|--2--2-2-2--2--x--0-0--0--0--0-x---|
|--3--3-3-3--3--x--1-1--1--1--1-x---|
|--2--2-2-2--2--x--2-2--2--2--2-x---|
|--0--0-0-0--0--x--2-2--2--2--2-x---|
|------------------0-0--0--0--0-x---|
|-----------------------------------|
D

Am
~~~~
~~~
+Q
E
S S Q.
S S
|-(10)-------15h17-15--------14-15-|
|----------------------------------|
|----------------------------------|
|----------------------------------|
|----------------------------------|
|----------------------------------|
|
| E. S S S S S E E S S S S
|---2--2-2-2--2--x--0--0-0-0--0--x-|
|---3--3-3-3--3--x--1--1-1-1--1--x-|
|---2--2-2-2--2--x--2--2-2-2--2--x-|
|---0--0-0-0--0--x--2--2-2-2--2--x-|
|-------------------0--0-0-0--0--x-|
|----------------------------------|
D

Am

Am
~~~
S S a
+Q
E
S S S S S S S S
H
H
|-14--15-15b17-(15)-----------15p14-14p12-12s10-10----|--------------------------|
|--------------------------------------------------12p|=10-----------------------|
|-----------------------------------------------------|-------------------------

--|
|-----------------------------------------------------|--------------------------|
|-----------------------------------------------------|--------------------------|
|-----------------------------------------------------|--------------------------|
|
| E.
S S S S S E
E
S S S S
E. S S S S S E E S S S
S
|--2----------------2-2-2-2-x--0-----0-----0--0--0--x-|--2--2-2-2-2-x-0-0-0-0-0x-|
|--3----------------3-3-3-3-x--1-----1-----1--1--1--x-|--3--3-3-3-3-x-1-1-1-1-1x-|
|--2----------------2-2-2-2-x--2-----2-----2--2--2--x-|--2--2-2-2-2-x-2-2-2-2-2x-|
|--0----------------0-0-0-0-x--2-----2-----2--2--2--x-|--0--0-0-0-0-x-2-2-2-2-2x-|
|------------------------------0-----0-----0--0--0--x-|---------------0-0-0-0-0x-|
|-----------------------------------------------------|--------------------------|
D

Am

D
Am
~~
Q
E E Q.
a E
Q.
S S Q.
S S
|-----------------------------|---------------------------|
|-----------------------------|-----------------------5s7-|
|----------7---5--------5h7---|-7--------7s9-9------------|
|-----------------------------|---------------------------|
|-----------------------------|---------------------------|
|-----------------------------|---------------------------|
|
| E. S S S S S E E S S S S E. S S S S S E E S S S S
|-2--2-2-2-2-x-0--0-0-0---0-x-|-2--2-2-2-2-x-0--0-0-0-0-x-|
|-3--3-3-3-3-x-1--1-1-1---1-x-|-3--3-3-3-3-x-1--1-1-1-1-x-|
|-2--2-2-2-2-x-2--2-2-2---2-x-|-2--2-2-2-2-x-2--2-2-2-2-x-|
|-0--0-0-0-0-x-2--2-2-2---2-x-|-0--0-0-0-0-x-2--2-2-2-2-x-|
|--------------0--0-0-0---0-x-|--------------0--0-0-0-0-x-|
|-----------------------------|---------------------------|
D
Am
~~
Q
S S S S E Q
E
|------------------------------|
|-7----7h8-8-7-10s12-----x-----|
|------------------------------|
|------------------------------|
|------------------------------|
|------------------------------|
|
| E. S S S S S E E S S S S
|-2--2-2-2-2-x--0--0-0-0-0-x---|
|-3--3-3-3-3-x--1--1-1-1-1-x---|
|-2--2-2-2-2-x--2--2-2-2-2-x---|
|-0--0-0-0-0-x--2--2-2-2-2-x---|
|---------------0--0-0-0-0-x---|
|------------------------------|

G
D
Q
S S E Q
S
+E.
Q
S S S S H
|------------------------------------|---------------------------*|
|-13-----13-12-10-8-----10b12-(10)---|-10-----10p8p7h8p7---------*|
|------------------------------------|---------------------------*|
|------------------------------------|---------------------------*|
|------------------------------------|---------------------------*|
|------------------------------------|---------------------------*|
|
| E S S S S E E S S S
S E
E S S S S E S E. +Q
|--0-0-0--0--0--0-3-3-3--3------3--3-|--2-2-2--2---0---0h2--(2)--*|
|--1-1-1--1--1--1-0-0-0--0------0--0-|--3-3-3--3-------3---------*|
|--0-0-0--0--0--0-0-0-0--0------0--0-|--2-2-2--2-------2---------*|
|--2-2-2--2--2--2-0-0-0--0------0--0-|--0-0-0--0-0-----0---------*|
|--3-3-3--3--3--3-2-2-2--2------2--2-|---------------------------*|
|-----------------3-3-3--3------3--3-|---------------------------*|
Duration Legend
--------------W - whole; H - half; Q - quarter; E - 8th; S - 16th; T - 32nd; X - 64th; a - acc
iaccatura
+ - note tied to previous; . - note dotted; .. - note double dotted
Uncapitalized letters represent notes that are staccato (1/2 duration)
Irregular groupings are notated above the duration line
Duration letters will always appear directly above the note/fret number it repre
sents the
duration for. Duration letters with no fret number below them represent rests.
Multibar rests are notated in the form Wxn, where n is the number of bars to rest for
. Low
melody durations appear below the staff
Tablature Legend
---------------h - hammer-on
p - pull-off
b - bend
pb - pre-bend
r - bend release (if no number after the r, then release immediately)
/ - slide into or out of (from/to "nowhere")
s - legato slide
S - shift slide
- natural harmonic
[n] - artificial harmonic
n(n) - tapped harmonic
~ - vibrato
tr - trill
T - tap
TP - trem. picking
PM - palm muting
n/ - tremolo bar dip; n = amount to dip
n - tremolo bar down
n/ - tremolo bar up
/n - tremolo bar inverted dip
= - hold bend; also acts as connecting device for hammers/pulls
- volume swell (louder/softer)
x - on rhythm slash represents muted slash

- on rhythm slash represents single note slash

Misc Legend
----------| - bar
|| - double bar
||o - repeat start
o|| - repeat end
*| - double bar (ending)
: - bar (freetime)
$ - Segno
& - Coda
Tempo markers - = BPM(8/16=s8/s16), where s8 = swing 8ths, s16 = swing 16ths
===============================================================
==========================================
================================================================
Night Moves Chords
Night Moves
Bob Seger
Tabbed by: Corey Heinrich- doompers7491@yahoo.com
Intro: G F C F G
G
F
I was a little too tall, coulda' used a few pounds
C
F
tight pants, points, hardly reknown
G
F
She was a black haired beauty with big dark eyes
C
G
and points all her own sittin' way up high.......
F
C
F
......way up firm and high
G
F
Out past the cornfields, where the woods got heavy
C
F
out in the backseat of my sixty Chevy
G
F
workin on mysteries without any clues
D
Em
Working on our night moves

D
Em
D
C
Tryin' to make some front page drive-in news
D

Em

Practicin' our night moves.........


C G
F C F
......in the summertime
G

F
in the sweet, summertime, summertime

G
F
We weren't in love, oh no, far from it
C
F
We weren't searching for some pie-in-the-sky summit
G
F
We were just young and restless and bored,
C
living by the sword

G
F
and we'd steal away every chance we could
C
F
to the back room, the alley, or the trusty woods
G
F
I used her, she used me but neither one cared
C
We were getting our share
D
Em
D
practicing our night moves
C

D
Em
D
tryin' to lose the awkward teenage blues

D
Em
D
workin on our night moves

D Em

G G7

Cmaj7
and ohhhhh...............
G
Cmaj7
I wonder
hey, we felt the lightening .
F
D
And we waited on the thunder,

G
waited on the thunder

G
I woke last night to the sound of thunder
Cmaj7
"How far off" I sat and wondered,

G
started humming a song from 1962
Cmaj7

Em
Ain't it funny how the night moves

C
Em
C
We just don't seem to have as much to lose
Em
Strange how the night moves
C

Cmaj7
G
with autumn closing in

G
F
C
F
night moves..........night moves........(repeat and fade)
===============================================================
==========================================
================================================================
===============================================================
==========================================
================================================================