Vous êtes sur la page 1sur 323

THE PHISH SONGBOOK

v1

46 Days
little riff example:
Code Sample
E :----7--7---------|------------------|
B :----7--7---------|----9-9-----------|
G :----8--8---------|----9-9-7-h8------|
D :----9--9----9-7--|--9-9-9------9----|
A :--9-------9-----9|7--------------9--|
E :7----------------|------------------|
-------------ALT. VERSION-----------------------------

E
B
G
D
A
E

----------------------------------|
------------------------7---------|
------------------9--9--7h8-------|
----9----9-7------9--9------9~----|
----9---9---7--/7-7--7------------|
-7--7--7-----5--------------------|

X 3

Then
Taste the fear for the devil's drawing near....
(strum the chord a little)
E ----------------------------------|
B ----------3~----------------------|
G -9---0-/2----0h2p0---0-2bp0-------|
D -9-----------------2--------2p0---|
A -7--------------------------------|
E --------------------------------0-|
Then back to verse 1
Solo around in B Minor

A Song I Heard The Ocean Sing


D (all D's may be Dm)
A song I heard the ocean sing
D
A shining light in darkness deep
D
I prayed a prayer into the tide
D
And both they soothed me in my sleep
G
For every
tide
G
A shining
G
Ten years

season that has passed I prayed a prayer into the


light in darkness deep in me
A
before the mast

D
For every season that has passed
D
I laid my body over the side
D
A shining light in darkness deep
D
I prayed a prayer into the tide
G
How
G
How
G
How
G
How

can I answer questions I've known?


can I answer questions I've known?
can I answer questions I've known?
A
can I answer questions I've known?

D
A song I heard the ocean sing
D
A shining light in darkness deep
D
Ten years before the mast
D
I heard the ocean sing
At the start of the jam, play a F on the 8th fret several times.
The jam itself is in Dm.

AC/DC Bag
C
Bb
Mr. Palmer is concerned with the thousand-dollar question
F
C
Bb B C
Just like Roger he's a crazy little kid
C
Bb
I've got the time if you've got the inclination
F
C
Bb B C
So cheer up Palmer, you'll soon be dead
C
Bb
The noose is hanging, at least you won't die wondering
F
C
Bb B C
Sit up and take notice Tell it like it is
C
Bb
If I were near you I wouldn't be far from you
D
I've got a feeling you know what you did
Chorus: (repeat 2x)
A
C
AC
DC
Bag
D
C
AC
DC
Bag
F
A
AC
DC
Bag
G
D
C
Bag
Time to put your money where your mouth is
Put 'em in a field and let 'em fight it out
I'm running so fast my feet don't touch the ground
I'm a stranger here I'm going down
Let's get down to the nitty gritty
Let's get this show on the road
I'll show you mine if you show me yours
I'm breathing hard - open the door
[repeat chorus]
C > Bb
Brain dead,
and made of money
F
Bb B C
No future at all
C > Bb
Pull down the blinds and
run for cover
F
No future at all
C
Bb
Who would've thought it, that's where I am
F
No future at all
C
Bb
Don't sweat it, that's where I am
D
(walk-down)
Whoa, carry me down, down, down, down
End riff:
E---------------------------------------------------------------B----7----5-----------------------------------------------------G---------------7---5-------------------------------------------D------------------------8--6--4--------------------------------A-----------------------------------7--5------------------------E------------------------------------------8--6--4--------------Repeat chorus chords & jam out

After Midnight
Key: D
INTRO:
h
h
-----------------------------------------------3--------------------3------------------2----4---4-----------2----4---4---------4----5-7-5-----------4----5-7-5----5---------5---5------5---------5---5------------------------------------------This riff is played twice, and then J.J. starts singing:
D
---------------------------------|
----3-----3-----------3--3-----3-|
----2-----2-----------2--2-----2-|
----4-----4-----------4--4-----4-|
----5-----5-----------5--5-----5-|
---------------------------------|
Af - ter mid-night
Riff 2
F
G
D (play riff2 twice)
---1----1---1------3---------3---3--------|---------------------1----1---1------3---------3---3--------|----1----1---0-------2----2---2------4---------4---4--------|----2----2---0--2-------------------------------------------|-0-----0---0------4
------------------------------------------|------------------------------------------------------------|------------------we're gon-na let it all_
hang| out.
|
D

D-D

Af-ter mid - night

D| (1. Return to F on line 3)


| (2. solo starts)
|

The solo is fairly basic and follows the progression of the


verse (2 times). I'm not typing it in, 'cause you should be
able to get it off the record. If not: improvise!

Alaska
(bluesy shuffle on most chords...listen to a copy to get the feel)
Verse 1 & 2:
C7
I always had to tell her to relax
F
C7
And the cat can slip in doors, through multitudes of cracks
F9
C
F9
C
And its funny what theyll do, cause cracks lead outside too
D7
When I asked her where shes goin
G
She said far away from you
C7
Stuck here on my own now, diggin down deep
F
C7
I dont understand it, but I aint losin sleep
F9 C
F9
C
Im not gonna lay down, or head north out of town
D7
I dont know, but I think Ill go
G
And try dog mushin with an Eskimo
Chorus:
C7
In Alaska, Alaska...I think Ill try Alaska
F
G
Somewhere she could wait for me, Ill catch up just wait and see
C7
Em7
F
Idaho, Nebraska...I dont know Ill ask her
G
C7
*riff
I think Ill try...I think Ill try Alaska
*Riff
E ----------8--B ---------9---G -------10----D ---9^10------A -------------E -------------Verse 3 & 4:
C7
I sold my old piano for the rent
F
C7
I loaded up on bug spray and I found my daddys tent
F9
C
F9
C
Now Im in high gear, doin forty-five
D7
Im hummin a tune, I wont see the moon
G
Till sometime in July
C7
I guess I couldve flown or took a train
F
C7

But you wont see a moose, if youre sittin on a plane


F9
C
F9
C
And now theres no more road, but I got a light load
D7
And if she isnt in Alaska
G
Ill stay and pan for gold
Chorus:
C7
In Alaska, Alaska...I think Ill try Alaska
F
G
Somewhere she could wait for me, Ill catch up just wait and see
C7
Em7
F
Idaho, Nebraska...I dont know Ill ask her
G
C7
I think Ill try...I think Ill try Alaska
Bridge:
B
E
Just when I thought Id end up alone
A
D
D#7
Big ol laskan mama come walkin down the road
(jam 2x over Chorus stay on last G 4x dont hit last C7)
Chorus:
C7
Alaska, Alaska...Ill stay right here in Alaska
F
G
All settled down and havin fun, here in the land of the midnight sun
C7
Em7
F
Is it time to call the pastor?...I dont know Ill ask her
G
Ill stay right here...Ill stay right here
(repeat this part 4x, ending is F to C)

Also Sprach Zarathustra "2001"


Note: I would just like to clear up some confusion
in the discusion part of this song. The organ actually
sounds better if you do something like this:
Bb A G E G:
Bb A G F G
and as far as the chords in the organ,
just let the guitar to the main part with the organ playing
what I have writen above. And end
on the chord specified by this tab.
I was looking at the tab for Also Sprach Zarathustra "2001". I
just wanted to point out that the funky version that phish plays is really
from Eumir Deodato and is recorded on the Sony label. If you want to hear
that version, check out the great movie "Being There" with Peter
Sellers. It's a clean, studio version with a very 70's feel to it.
Jam starts in Cmin7
Bass/Organ line:
G-----------------------------------------D----8-7--------------8-7-----------------A--------10--7--10--------10--8--10--6>7--E--8----------------8---------------------Alt Piano Bass Line
C Bb A G E G, C Bb A G F G F G F E
Trey does his little noodling over it:
E--8---8--B-11--11--G--8---8--D-10---8--A-----10--E------8--Then this riff builds up the jam (have whoever's not playing lead hit the chords/
notes listed above the tab)

Eb
C
F
G
C
**
e----------------------|-------------------|--------------------------------------------15---b--------13-----17-16--|-----13-----16-17--|--------13-----17-18--------------15--17-18------g-----12---------------|---12--------------|-----12------------------14-16-17----------------d--10------------------|-10----------------|--10---------------------------------------------a----------------------|-------------------|-------------------------------------------------e----------------------|-------------------|-------------------------------------------------** - can use a harmonic for sustain
F

e--------15---17---19----20-----------b--17-18------------------------------g ------------------------------------d-------------------------------------a-------------------------------------e--------------------------------------

Architect
This is a I, IV, V song in the key of E.
Main riff: E
e---------12----------x-x-x--------14-12--B---------12---xxx----x-x-x---xx---14-12--G---------12---xxx----6/7-7---xx---14-12--D--------------xxx----4/5-5---xx----------A---------------------x-x-x---------------E--/12*---------------x-x-x----------------*Play first time through only, substitute with some muting the other times.
|
|
|

E
A
B

|
|
|

E
A
A

|
|
|

E
E
E

|
|
|

E
E
E

|
|
|

This is the verse, there are four bars of intro first, which sould be
played using the main riff. The two bars of A should be played with
lots of muting and the same 14-12 ending as the E riff, using this
chord:
A9
e-12B-12G-12D-11A-12E--The B-->A progression should be played like this:
-7-----7--6-5---10----10-9-8---8-----8--7-6---7-----7--6-5---9-----9--8-7-----------------The last bars of E should then be played on the 12th fret, using the E
,B,and G strings. The chorus seems to be just playing around on that
same pattern.
For the solo, you can just play Em pentatonic the entire time, or switch
to Am and Bm pentatonic when those bars are played.
Lyrics:
Woke up this morning and I had those Walking Blues (x2)
I wasn't walkin' nowhere 'cause I didn't have no floor!
Staring over the edge of the bed
My old lady lying next to me, I started to cry (x2)
She said "I'm gonna take this diploma,
I'm gonna slice you in the eye!"
Well I'm alright (he's alright) (x9)
'cause I got a degree!
Escaping through my window
There's a policeman on the lawn outside my home (x2)
I opened my mouth to scream
But my throat was full of foam
So I'm sittin' in this cell
My fortune dwindled to a thimble full of filth (x2)
I may spend the rest of my life in jail
But at least it's got a floor!

Alumni Blues
G
D
All these words roll into one
Em
C
Together we revolve around the sun
G
And if you get the chance, watch the
C
In a little while, you will see them
G
D
Truth may dazzle gradually
Em
It all comes out in the wash
G
Try to catch a gleam, if you
C
You may even see the cogs in

D
young children dance
D
smile

C
eventually
D
know what I mean
D
the machine

[Chorus]
C
G
D
Reconvene, reconnect
C
G
D
raise a glass to the architect
C
G
D
Cause it turned out better
C
G
D
So much better
C
G
D
Em
Than we ever did expect
G
Em
G
E|--------------------------------------------------------------|
B|--------------------------------------------------------------|
G|---------------0--4--------------------------------------0--4-|
D|---------0--2----------0-2-0--2--4--0--2---2-0-----0--2-------|
A|-0-2-3-----------------------------------------3--------------|
E|--------------------------------------------------------------|
G
D
Find your treasures where you will
Em
C
Don't you stop until you've had your fill
G
D
Wherever you may go, look around take it slow
C
D
There might be more to this than we all know
G
D
And if we had the chance to see the rough draft
Em
C
I bet the early plans would make us laugh
G
D
And it never seems to help when we try to intervene
C
D
Some things are better left unseen

[Chorus]
C
G
D
Reconvene, reconnect
C
G
D
raise a glass to the architect
C
G
D
Cause it turned out better
C
G
D
So much better
C
G
D
Em
Than we ever did expect
E|--------------------|
B|--------------------|
G|---------------0--2-|
D|---------0--2-------|
A|-0-2-3--------------|
E|--------------------|
C
G
D
Reconvene, reconnect
C
G
D
raise a glass to the architect
C
G
D
Cause it turned out better
C
G
D
So much better
C
G
D
Reconvene, reconnect
C
G
D
raise a glass to the architect
C
G
D
raise a glass to the architect
C
G
D
raise a glass to the architect

Axilla II
Intro part:
||---------6--6----6-6-----6-6------------------||
||.--------6--6----6-6-----6-6---6--6----8-----.||
||---8-^--------8^------8^-------6--6----8------||
||.------------------------------6--6----8-----.||
||----------------------------------------------||
||----------------------------------------------||
^ means the note is bent up a half step.

This part is like the beginning of johnny b. goode.

Verse part:
~
~
~~
~
~~
||----------------------------------|----------------------------||
||----------------------------------|----------------------------||
||----------6-----------------------|----------6-----------------||
||-----8-------8---6--8-------6-----|-----8-------8----6--8------||
||---8---8-------8---------8--------|---8----8-------8-----------||
||-6---------------------9--------9-|-6----------------------9---||
~ means to add some vibrato by bending the string slightly.
ARRANGEMENT:
intro 4X
verse 4X
G7, F#7
intro 4X
verse 2X
G7, F#7
wait on F chord for 8 "Axilla" 's.
Page's solo--play intro 8X (there are a few variations on this, but I'm too lazy to put them here.)
Break:
Eb Bb Ab Bb 4X last time go to F instead of Bb and wait for 6 axilla's.
intro 4X
"axilla" 8X
intro 4X

(F chord)

The songs ends up on a Bb, then goes into that weird part at the end.
The chords are G7 and F#7, picked instead of strummed. You're
on your own for that spooky guitar overdub.
Axilla
(alternate transcription)
Intro:

A#

C# D#

}4x

A#
I dropped the buzzard in the sand and trudged off slowly toward the town,
I needed dinner and a place where I could throw my weight around,
G
I detected faint axilla scent that put me off my appetite,
C
F
But mouflon warring where I went renewed in me a need to fight,
[Repeat intro]
A#
Then reveling in mirror mask I soon was lost in foggy ditch,
Without a feather gray or white to tickle that piano witch,
G
Fearing that I must expose my worm to holographic haze,
C
F
My Clinometer error rose and spawned in her new mawkish ways,
[Repeat intro x2, 2nd time building up to bridge]

Bridge:
D#
A#
G#
A#
I woke the witch with reverence reserved for serpents, snails and slugs
D#
A#
G#
A#
I pulled the witch from out the ditch and turned to face the furry thugs
D#
A#
G#
A#
The sheep they smiled with teeth agleem, the weapons in their hooves revolved
D#
A#
G#
F
I detected a prostatic ream--I gulped and felt my loins dissolve!!!!!
F
Axilla! (x6)
[Repeat intro]
F
Axilla! (x8)
INTRO:
E---------------B-------6-------G---------78^---D---------------A---------------E---------------

Index finger
bend the 8th fret with ring finger, and use middle finger
on 7th fret for easier bend (trick learned by slavishly
listening to jimmy page, i should guess :-))

I droppped the buzzard in the sand and trudged off slowly toward the town
I needed dinner and a place
where I could throw my weight around
E|-------------------------------------------------------|
B|-------------------------------------------------------|
G|------6------------------------6-----------------------|
D|--8-----8--6-8----6--------8-----8--6-8----------------| x2
A|-8-------8-----8----------8-------8--------------------|
E|6---6---------------8----6---6----------8--------------|
^Bend up 1/2 step
^
I detected faint axilla scent
that put me off my appetite
E|-------------------------------------------------------|
B|-------------------------------------------------------|
G|------3------------------------3-----------------------|
D|--5-----5--3-5----3--------5-----5--3-5----------------|
A|-5-------5-----5----------5-------5--------------------|
E|3---3---------------5----3---3----------5--------------|
^Bend up 1/2 step
^
But mouflon warring where I went
renewed in me the will to fight!
<Tab below not quite right>
E|----------------------------------------------------------------|
B|----------------------------------------------------------------|
G|-------8----------------------------13--------------------------|
D|--10-----10--8-10----8---------15------15--13-15----------------|
A|-10-------10------10----------15--------15----------------------|
E|8-----8----------------10----13---13------------15--------------|
^Bend up 1/2 step
^

Backwards Down the Number Line


(Verse is in Gmaj, Chorus is in Cmaj)
|

C
G
Happy happy oh my friend
D
Blow out candles once again
Em
Leave the presents all inside
Em
D
C
G
Take my hand and lets take a ride
D
Dsus
D
Backwards down the number line
Em
You were eight and I was nine
D
Do you know what happened then?
(A)(B) C
Do you know why we're still friends
G
Laughing all these many years
D
We pushed through hardships tasted tears
Em
Made a promise one to keep
Em D C
G
I can still recite it in my sleep
D
Dsus
D
Every time a birthday comes
Em
Call your friend and sing a song
D
C
Or whisper it into his ear
G
Or write it down, just don't miss a year
Chorus 1: (played 4x through)
F
C
You decide what it contains
G
How long it goes but this remains
F
C
The only rule is it begins
G
Happy happy oh my friend
Chorus 2: (play 2x, starting after the 2nd time through "Chorus 1" above)
F
C
G
And all my friends come backwards down the number line x3

Bridge:
Em

Em

Em
C
And when I see you coming down the line with eyes wide open
Em
C
Somewhere in between the past and future, where you drift in time
D
G
You can see a different point of view
Repeat Chorus 2x
Jam
Repeat Chorus

bass solo transcribed for guitar (thru the piano...don't have a bass)and repositioned it
an octave above mike's bass due the guitar not having the range on the deeper octave
notes like a bass. hope that makes sense.
lead into the G
G
e-|--------B-|--------G-|-5-4----D-|-----7-5A-|--------E-|--------then the solo begins...
F
C
G F
C
G
F
e-|----------------------------------------------------------------8-8-B-|-6-6-5-6-5------------------------------5-6-5-6-5---------5-6-5-----G-|-----------7-5-5-----5--------5---5---5-----------7-5---5-----------D-|-----------------5-5------5-7---7---7-----------------7-------------A-|------------------------8-------------------------------------------E-|--------------------------------------------------------------------C
G
F
C
G
F
e-|-5-7-5---5------------5-5--------------------------------B-|-------8---8-8-5----8-----8-5-------5-6-8---5-6--6-5-----G-|-----------------5------------7-5-7-------7----------7-5-D-|---------------------------------------------------------A-|---------------------------------------------------------E-|---------------------------------------------------------C
G
e-|-------------------B-|-------------------G-|-4-4-2-------------D-|-------5-3-2-------A-|-------------5-3---E-|-----------------3--

Back On The Train


The chords are a little easier if you move them all down a half-step,
but I like the sound of all the flat chords, personally.
Intro (keep repeating until verse):
E------------------------------------------------------------B------------------------------------------------------------G------------------------------------------------------------D-------1-3-3-1-3-1-3-1-3----1-3-3-1-3-1-3-1-3---------------A----3---------------------3---------------------------------E------------------------------------------------------------F9
When I jumped off, I had a bucket full of thoughts
F9
Bb
Ab
When I first jumped off, I held that bucket in my hand
F9
Ideas that would take me all around the world
Bb
Ab
I stood and watched the smoke behind the mountain curl
Eb
Bb
Ab
It took me a long time to get back on the train
(the chord pattern is the same for all the verses)
Now I'm gone and I'll never look back again
I'm gone and I'll never look back at all
You know I'll never look back again
I turn my face into the howlin' wind
It took me a long time to get back on the train
See my face in the town that's flashing by
See me standing at the station in the rain
See me standing there beside the car
I left it all behind, again I'll travel far
It took me a long time to get back on the train
When I jumped off, I had a bucket full of thoughts
When I first jumped off, I held that bucket in my hand
Ideas that would take me all around the world
I stood and watched the smoke behind the mountains curl
It took me a long time to get back on the train
It took me a long time to get back on the train
It took me a long time to get back on the train
ALTERNATIVE SOLO
|----------------------------------------------|
|---4---4-----4----4-4-----4----4-4-----4----4-|
|-5---4-4pb5==4pb5r4-4pb5==4pb5r4-4pb5==4pb5r4-|
|----------------------------------------------|
|----------------------------------------------|
|----------------------------------------------|
|----------------------------------------|
|----------------------------------------|
|-------[1]---------------------1pb2r1---|
|-(0)-3-----[1]-[3]---------1-3--------3-|
|-------------------[2]-[3]--------------|
|----------------------------------------|

>F9

|-------------------------------------|
|-----------4-----------------3-6-3S1-|
|---------1---3pb4r3-1---/5-3-3-3-3S1-|
|-/3pb4r3--------------3--------------|
|-------------------------------------|
|-------------------------------------|
|-----------------------------------|
|-4---------4-----------3-3---1-----|
|---3b4r3-5---/3-1----------3---1---|
|------------------3-/3-----------1-|
|-----------------------------------|
|-----------------------------------|
|-------------------------------------------|
|---------4---------------1-----------------|
|-----[3]---3b3.5r3-----3---1---------------|
|-3h5---------------5-3-------3-[3]-[3]-[3]-|
|-------------------------------------------|
|-------------------------------------------|
|-------------------------------------------|
|-----------------------------------------4-|
|-----------------------------------------2-|
|-----[1]-[3]-[3]---------3-----1-[1]-[3]-3-|
|-1h3---------------------3---3-------------|
|-----------------3b4r3-1-1-1---------------|
ACOUSTIC RIFF
when trey plays this acoustic he does something like this little riff b/w verses
(much easier to play a half step down or with a capo
E-------------------------------------------B-------------------------------------------G-------------------------------------------D----------------3---1----------------------A------------3----3---3---------------------E--1--1-h-4--------------4-p-1-1~------------

Bathtub Gin
C7 Gm7 C7 Gm7 F Eb F Eb D Am7 D Am7
Intro:

C7

Gm7

C7
Gm7
C7
Gm7
Brett is in the bathtub,
making soup for the ambassadors,
F
Eb
F
Eb
And I am in the hallway,
singing to the troubadours,
C7
Gm7
C7
Gm7
And the kings are all lined up,
outside the gate,
F
Eb
F
Eb
And the autumn bell is ringing,
but they'll just have to wait.
D
C
D
C --> B ---> Bb
Where is the joker?
Have you seen him around with his 3-combed...
Bb
Fm7 Bb
Fm7
Cap,
that he wears like a crown
Bb
Fm7 Bb
Fm7
Have you seen his striped stockings, and heard his sad tales,
C7
Gm7
C7
Gm7
About the kids under the carpet, and the purple humpback whales.
C, Gm7, C, Gm7

(keyboard weirdness)

Here comes the ambassadors, they show up one by one,


And Brett is tasting all the soup to see if it done
And Wendy's on the window sill, waiting to be let in,
And we're all in the bathtub now, making bathtub gin,
And the kings storm the hallway, they've climbed up through the gate,
They didn't mean to be impolite, but they just couldn't wait,
Here comes the joker, with his silly grin,
He carries a martini, made of bathtub gin
(more weirdness)
Here comes the joker, we all must laugh,
Cause we're all in this together, and we love to take a bath.
(solo:

C7, Gm7, C7, Gm7, F, Eb, F, Eb

etc....)

E-8~~~----------------------------------------------------B-----8~~~10-11-10-11-10~~~-----8~------------------------G--------------------------9-10---10-9~~~8-9-10-8-9-------- x2
D---------------------------------------------------10-8~~~
A---------------------------------------------------------E---------------------------------------------------------E------------8------------------8-10-8--------B---------10---11-9-10----10-11---------------G-9-10-10--------------10-----------------8~~~~
D--------------------------------------10-----A---------------------------------------------E---------------------------------------------E-8~~~----------------------------------------------------B-----8~~~10-11-10-11-10~~~-----8~------------------------G--------------------------9-10---10-9~~~8-9-10-8-9-------D---------------------------------------------------10-8~~~
A---------------------------------------------------------E----------------------------------------------------------

== Chord Voicings ==
C7:
ex
B1
G3
D2
A3
Ex
G-7:
ex
B3
G3
D3
Ax
E3
F:
ex
B6
G5
D7
A8
Ex
and the Eb in the same formation, just a whole step lower:
ex
B4
G3
D5
A6
Ex

Billy Breathes
D
Am
F
G
Tumbling greens
and pick up screams alone above the square,
Bb C
Bb
F
Whoa, sing softly
D
Am
F
G
Above the trees where Billy breathes we float upon the air,
Bb C Eb
Bb
Whoa, whoa (whoa)
F
Softly
F
Softly

Dmi7
C Bb F
Dmi7
Eb Bb
sing sweet songs, Softly sing sweet songs,
Dmi7
C Bb Am Gm Bb
Am
D
sing sweet songs_, oooooooh

D
Am
F
G
Silent scenes, emotion beams, I'll wake you when we're there,
Bb C
Bb
F
Whoa, sing softly
D
Am
F
G
Time it seems in broken dreams to sleep beside the stair,
Bb C Eb
Bb
Whoa, whoa (whoa)
F
Softly
F
Softly

Dmi7
C Bb F
Dmi7
Eb Bb
sing sweet songs, Softly sing sweet songs,
Dmi7
C Bb Am Gm C
Bb
sing sweet songs_, oooooooh

bridge:
Eb
Gb

Bb
Db

F
Ab

Cm
Cm

Ab
Ab

Bb
Bb

Db
Db

Eb
Eb

Then the chorus again:


F
Softly
F
Softly
F
Softly

Dmi7
C Bb F
Dmi7
Eb Bb
sing sweet songs, Softly sing sweet songs,
Dmi7
C Bb F
Dmi7
Eb Bb
sing sweet songs, Softly sing sweet songs,
Dmi7
C Bb Am Gm C
Bb Eb F D (loud)
sing sweet songs_, oooooooh

Solo:
E-----------8----13/11-8-----------11p10------------------B--------10----------------11-8-11------11----------------G----7-10--------------------8----------------------------D-7h8-----------------------------------------------------A---------------------------------------------------------E---------------------------------------------------------E---------------------------------------------------------B---------------------------------------------------------G-10p8/7------------8\10--8--------8/7------7-8-----------D-------8\10-7-----------------9h10---9-10----------------A---------------------------------------------------------E---------------------------------------------------------E-----------8-11\13-15-16---15----11h14-11----------------B----8-11------------------------------------14-----------G-10------------------------------------------------------D---------------------------------------------------------A---------------------------------------------------------E----------------------------------------------------------

E-11------------------------------------------------------B----14-11------------------------------------------------G------------11-------10----------------------------------D---------------11/6-----11---------------6-9-10----------A-----------------------------11/9p8-6--------------------E---------------------------------------------------------E----------------------------10-11--10-13-11--------------B---------------------8-12--------13-------------13-------G-7------7-8-11------------------------------13-----------D---9-10--------------------------------------------------A---------------------------------------------------------E---------------------------------------------------------E-11-13--------10-13-15-16-13-------13--------------------B---------10h11---------------14--14----------------------G-------------------------------12------------------------D---------------------------------------------------------A---------------------------------------------------------E---------------------------------------------------------E-16\15-13b14-11-14---------------------------------------B---------------------------------11-14\13---13/15--------G-------------------------11-13------------10-------------D---------------------------------------------------------A---------------------------------------------------------E---------------------------------------------------------E-------------------13-13----15-13-----13b14--------------B-15-13-15-16---------------------16----------------------G---------------------------------------------------------D---------------------------------------------------------A---------------------------------------------------------E---------------------------------------------------------E-13-11-13b14-----15b16--13---13--15--15\14---------------B---------------------------------------------------------G---------------------------------------------------------D---------------------------------------------------------A---------------------------------------------------------E---------------------------------------------------------E-14-11---------------------------------------------------B---------14-11--------13-------12-------14---------------G-----------------11h13----11h13----11h13----13p11h13-----D---------------------------------------------------------A---------------------------------------------------------E---------------------------------------------------------E-13-14-15---16r15b16r15-------15b16r15------15-----------B-------------------------16-----------16--14--16---------G----------------------------15----------15---------------D---------------------------------------------------------A---------------------------------------------------------E---------------------------------------------------------E----15b16r15------12------12--------15b16r15-------------B------------16--14--16--14--16---------------------------G-15-----------15------15----------15---------------------D---------------------------------------------------------A---------------------------------------------------------E---------------------------------------------------------E--------15b16r15---------------13------------------------B-16--14--------------14---13-----------------------------G---15-------------------------(14)-----------------------D---------------------------------------------------------A---------------------------------------------------------E----------------------------------------------------------

Birds of a Feather
Intro:
E------B-10---G-10---D-8----A------E-------

(over and over again)

Cm7
F9
E|--------------|-----(h)--------(h)---|
B|--8--8---8-8--|--8-10-10----8-10-10--|
G|--8--8---8-8--|--8--8--8----8--8--8--|
D|--8--8---8-8--|--8-10-10----8-10-10--|
A|--------------|--8--8-(8)---8--8--8--|
E|--8--8---8-8--|--8----------8--------|

(8x)

Cm7
F9
Cm7
F9
It's easy sometimes we just coast along
Cm7
F9
Cm7
F9
But like it or not something always seems to go wrong
Cm7
f9
Cm7
F9
Sometimes people build you up just so they can knock you down
Cm7
F9
Cm7
F9
Sometimes they will have you there because they need someone around
Cm7
F9
Cm7
F9
Perhaps you'll receive invitations for tea
Cm7
F9
Cm7
F9
or perhaps you will laugh and you will make them all smile
Cm7
F9
Cm7
F9
Or maybe you'll join them cause they have to be
Cm7
F9
Cm7
F9
Perhaps you'll forget that you forgot for a while
Cm7
F9
Cm7
F9
Birds of a feather are flocking outside
Cm7

(4x)

F9 (4x)

like whippets they dance in a curly queue dance


of pulses and ringing and campfire chants
of ritual drumming although at first glance
you thought you could run but you won't take a chance
it's not an experience if they can't bring someone along
they hang on emotions they bottle inside
they peck at the ground and they strut out of stride
[chorus]
w/ fast wah wah
G
E|---------------|
B|---------------|
G|--12-----------|
D|------12-------|
A|---------------|
E|---------------|

(8x)

Jam on

Cm7 F9

after jam:
Cm7
F9
Cm7
F9
Birds of a feather are flocking outside

G
E|---------------|
B|---------------|
G|--12-----------|
D|------12-------|
A|---------------|
E|---------------|

(8x)

Then:
E|-10-10-10-10-10-10-10-10|
B|--8--8--8--8--8--8--8--8|
G|--8--8--8--8--8--8--8--8|
D|--8--8--8--8--8--8--8--8|
A|------------------------|
E|------------------------|

(3x)

(8x)

Bittersweet Motel
Intro: G
G
D
C (3 or 4 times)
part 1:
G
C
When the only tool you have is a hammer
G
D
C
Everything looks like a nail
D
G
And you're living, at the Bittersweet Motel
(Repeat above once)
then (part 2):
e-------------------------0----b-------------------------1----g-------------------------0----d-------------------------2----a-----0-----2------3-------------e-----------------------------C
Halfway between Erie and Pittsburgh
G
D
C
You're puttin' me through hell
D
G
On the highway, to the Bittersweet Motel
(solo over part 1 chords twice)

then after solo, back to part 2 and then part 1 once more

Beginning to the lick that follows... (improv after)


H-O
Bend ........... Bend MORE! slowly release
E--------15-17-17^(19)-(19)-(19)-(19)-(19)-(19)-(19)^(20)v(19)-------B--15-17-------------------------------------------------------------G--------------------------------------------------------------------D--------------------------------------------------------------------A--------------------------------------------------------------------E---------------------------------------------------------------------

Bold As Love
To make it easier, each line is a measure, for both the verses, chorus,
and the cool solo at the end.
A
Anger!

(E)
he smiles, towering in

(F#m)
(D)
shiny metallic purple armor.

Queen

(A)
(E)
Jealousy, envy waits behind him, her
(F#m)
(D)
(C#)
fiery green gown sneers at the grassy ground.
(D)
(A)
Blue are the life giving waters taking for
(Bm)
(G)
granted, they quietly understand.
(D)
(A)
Once happy turqoise armies lay opposite, ready,
(Bm)
G
G#
but wonder why the fight is on.
Chorus:
A
E
But there all, bold
F#m
as love

(A)
E
Yeah, they're all bold as
F#m
love.
(G)

G
Yeah!
(G#)
2.

My

Red is so confident, he flashes trophies


of war and ribbons of euphoria
Orange is young, full of daring, but
very unsteady for the first go round.
My Yellow in this case is not so mello. In
fact, I'm try'n' to say it's frightened like me.
And all of these emotions of mine keeps holding me from, uh,
giving my life to a rainbow like you. But I'm, uh,
yeah, I'm bold as love
yeah, yeah
Well, I'm bold, bold
as love, hear me talkin' girl.
I'm bold as
love, uh! Just ask
the Axis. He knows ev
'ry thing...
Yeah! Yeah!
Solo over chorus changes, until the rhythm changes to triplet feel
(before drum solo), where the changes go
F#m
D
A

(repeat this change until music drops out)

Then...
1
1
1
1
/
/
/
/
E--9--------9-----------------------B--12(14)---12(14)12-9--9-------9---G-----------------------11(13)--11(13)
D-----------------------------------A-----------------------------------E-----------------------------------E---------------------------------------------B--11------11------9-------7-------7------9---G--13(15)--13(15)--11(13)--9(11)---9(11)--11(13)
D---------------------------------------------A---------------------------------------------E---------------------------------------------E-9-----------9-------------------------------B-12(14)------12(14)12----9------9-------9----G--------------------------------11(13)--11(13)
D---------------------------------------------A---------------------------------------------E---------------------------------------------E---------------------------------------------B-11------------12-------12--------------9--9-9
G-13(15)--------14(16)---14(16)-----6/11------D---------------------------------------------A---------------------------------------------E---------------------------------------------E-11(13)-----11(13)11--9--11---------11-------B---------------------------------------------G---------------------------------------------D---------------------------------------------A---------------------------------------------E---------------------------------------------E-11(13)-11-9---------12(14)----12(14)----15(18)
B--------------11--9---------------------------G----------------------------------------------D----------------------------------------------A----------------------------------------------E----------------------------------------------E-15(18)--15(16)----15--------------------------B-----------------------0-----13-14---------16(17)
G------------------------------------------------D------------------------------------------------A-----------------------------------------------E------------------------------------------------E--------------------------------16(17)-------16(17)
B-16(18)-16--14---------------14------------------G---------------15--------------------------------D-------------------------------------------------A-------------------------------------------------E-------------------------------------------------E-16(18)--14-16-14--13------16-----------------------B-------------------16(18)-----16(18)--16--14-16(18)16
G----------------------------------------------------D----------------------------------------------------A----------------------------------------------------E----------------------------------------------------E----------------------------16(18)-----------------B-(18)--16(18)16-14----14--------------X\-----------G--------------------------------------X\-----------D--------------------------------------X\------------

A---------------------------------------------------E---------------------------------------------------E-------9---13-9---9------8---8-4---8-4----8-4----B-----9---9------9----9\4---4-----4----4-------4/6G-/10---------------------------------------------D-------------------------------------------------A-------------------------------------------------E-------------------------------------------------E-9---9-6---9-6---9-6---11-7---11-7---12-8---12-8--B---6-----6-----6-----6------7------8------8------8/9
G--------------------------------------------------D---------------------------------------------------A--------------------------------------------------E--------------------------------------------------E-13-9---13-9---13-9---13-9-----8-4---8-4---8-4---8-4B------9------9------9------9\4-----4-----4-----4----6
G----------------------------------------------------D----------------------------------------------------A----------------------------------------------------E----------------------------------------------------E-9-6--9-6---9-6---9-6---11-7---11-7---12-8---12-8--B----6-----6-----6-----6------7------7/8----8------8/9
G---------------------------------------------------D---------------------------------------------------A--------------------------------------------------E--------------------------------------------------/1
E-9----------9----9----9------12-9-----9----9---9---9
B---9-12(14)---12-9---9--12-9------9-12---12--12--12G-------------------11------------------------------D----------------------------------------------------A----------------------------------------------------E----------------------------------------------------/1
E-9--------9-------9---------9----------9-12(16!)---12
B---12(13)--12(13)---12(14)----12-9------------------G-----------------------------------11--------------D----------------------------------------------------A----------------------------------------------------E----------------------------------------------------/2
/2
/2
E-9---12(16)--12--9---12---12--9---12---12--9---------B---9---------------9------------9------------9--12(14)
G---------------------------------------------------D----------------------------------------------------A----------------------------------------------------E---------------------------------------------------/1
/1
E-9--------9-----------------------------------------B--12-9---9-12-9-------------------------------------G------11--------11-11-9-------------------------------D------------------------11-9---------------------9----A-----------------------------11-10-9-9-7-9/11-11-----E-----------------------------------------------------E---------------------------------------------------B----------------------------------------------------G-----------------------------------------------------D-11(14)-11---9-11-9--------9-11(13)---9--------------A--------------------7-9/11--------------11------------E------------------------------------------------------E---------------------------------------------------B----------------------------------------------------G------------------------------------------------------

D-------11-13(15)-13--11\-------11----10--------------A-11/13------------------/11-11--------------11-10---E------------------------------------------------------E----------------------9---------------9-------------9-B--------------------9---12(14)----------12-9-------9--G---------------9/10--------------------------11(13)---D-----11-9--------------------------------------------A-9-8--------------------------------------------------E------------------------------------------------------E----------------------------------------------9---9--9
B-12-9----------------------------------------9----9--9G------11(13)--11----9---------------9-11(13)-----------X\
D-----------------------11-9----9-11--------------------X\
A----------------------------11--------------------------E--------------------------------------------------------And fade out....

Boogie On Reggae Woman


Originally by Stevie Wonder
Ab -->
I like
Bb
I like
Ab
I like
Bb
I like

(reggae upstroke beat)


Db
(walk down to Bb)
to see you right across the floor,
Eb
Ab
to do it to you, til you holler for more
Db
walk down to Bb
to reggae but you dance too fast for me,
Eb
Ab
to make love to you, you can make me scream

Ab
Bb
Boogie on reggae woman
(A)
Bb
Boogie on reggae woman
I'd
I'd
I'd
I'd

like
like
like
like

to
to
to
to

see
see
see
see

Db

Gb
what is wrong with me?
Eb
Ab
baby can you see?

both of us fall deep in love


you in the raw, under the stars above
us both fall deep in love
you in the raw under the stars above

Boogie on reggae woman


Boogie on reggae woman

what is wrong with you?


what ya tryin' to prove?

(solo over verse chords as long as desired - come back singing into chorus:)
Boogie
Boogie
Boogie
Boogie

on
on
on
on

reggae
reggae
reggae
reggae

woman
woman
woman
woman

what is wrong with you?


what ya tryin' to prove?
let me do it to you!
what ya tryin' to do?

This is the solo to "Boogie on Reggae Woman".

"sd" means slide down

E-18b-18b-16-16-18b-18b-16-18------------18b-18b-18b-16------B-----------------------------18-18sd--------------------16-18
G------------------------------------------------------------D------------------------------------------------------------A------------------------------------------------------------E------------------------------------------------------------E-16-18b-18b-16----------------------------------------------B------------------------------------------------------------G------------------------------------------------------------D------------------------------------------------------------A------------------------------------------------------------E-------------------------------------------------------------

Bouncing Around the Room


G
D
A
D
The Woman was a dream I had Though rather hard to keep
G
D
A
for when my eyes were watching hers They closed, And I was still asleep.
D
A
G
(D)
For when my hand was holding hers She whispered words and I awoke
D
A
C
G
(D)
And faintly bouncing around the room, the echo of whomever spoke and I awoke
D
A
C
G
> A
and faintly bouncing around the room, the echo of whomever spoke.
G
D
A
D
The place I saw was far beneath The surface of the sea
G
D
A
My sight was poor
But I was sure The sirens sang their songs for me
D
A
G
(D)
They dance above me as I sink I see them through, a crystal
D
A
C
G
haze & hear em bouncin round t room the never ending coral maze. a crystal
D
A
C
G
haze & hear them bouncing round the room the never ending coral maze
C
G
A
That time then and once again I'm bouncing around the room.
repeat chorus: D A C G, over vocal in rounds:
"that time & once again I'm bouncing around the room"
Bouncing Around the Room Solo
Part 1 play twice
E-----------------|-----------------|-----------------|-----------------|
B-----------------|-----------------|-----------------|-----------------|
G-9-7-----9-7-----|-7-6-----7-6-----|-7-5-----7-5-----|-5-4-----5-4-----|
D-----9-7-----9-7-|-----9-7-----9-7-|-----7-5-----7-5-|-----7-5-----7-5-|
A-----------------|-----------------|-----------------|-----------------|
E----------play 2x|----------play 2x|----------play 2x|----------play 2x|
Part 2play twice
E-12-10-------12-10-------|-12-9-------12-9-------|
B-------12-10-------12-10-|------12-10------12-10-|
G-------------------------|-----------------------|
D-------------------------|-----------------------|
A-------------------------|-----------------------|
E------------------play 2x|----------------play 2x|
E-10-8------10-8------|-10-7------10-7------|
B------10-8------10-8-|------10-8------10-8-|
G---------------------|---------------------|
D---------------------|---------------------|
A---------------------|---------------------|
E--------------play 2x|--------------play 2x|
Part 3 repeat
E-17-14-------17-14-------|-17-14-------17-14-------|
B-------17-15-------17-15-|-------17-14-------17-14-|
G-------------------------|-------------------------|
D-------------------------|-------------------------|
A-------------------------|-------------------------|
E------------------play 2x|------------------play 2x|
E-15-12-------15-12-------|-15-12-------15-12-------|
B-------15-13-------15-13-|-------15-12-------15-12-| ... end on -12--|
G-------------------------|-------------------------|
D-------------------------|-------------------------|
A-------------------------|-------------------------|
E------------------play 2x|------------------play 2x|

(D)

Brian and Robert


C
F
2x C
G
F
E-|------------------|------------------------------------------B-|----1-1-----1-1---|----1-1---3-3---1-1-----------------------G-|*---0-0-----2-2--*|----0-0---0-0---2-2-----------------------D-|*---2-2-----3-3--*|----2-2---0-0---3-3-----------------------A-|--3---------------|--3---------------------------------------E-|----------1-------|---------3-----1--------------------------C
F
If you're just staring at your walls
C
F
Observing echoing footfalls
C
G
F
>From tennants wandering distant halls
C
F
Then this one is for you
All alone the life you lead
A silent diner where you feed
You bow your head pretend to read
Then this one if for you
If children playing all around
To you is noise, not pleasant sound
And you'd be lost on the playground
Then this one is for you
Slip past strangers in the street
There's no one that you care to meet
Longing for your TV seat
Am
Then this one is for you
Then this one is for you
If you're just staring at your walls
Then this one is for you

(this page left intentionally blank)

Brother
E-----------------------------------------------------------------------------------B-----------------------------------------------------------------------------------G--12-12-12-------------12-12-12-------------10-10-10------------12-12-12-----------D--11-11-11-------------11-11-11-------------9--9--9-------------11-11-11-----------A--13-13-13--13p11h13---13-13-13--13p11h13---11-11-11--11p9h11---13-13-13--13p11h13-E-----------------------------------------------------------------------------------E-------------------------------------------------------B--9-9-9-------9-9-9-------7-7-7-------9-9-9------------G--7-7-7-------7-7-7-------5-5-5-------7-7-7------------D--------9p7h9-------9p7h9-------7p5h7-------9p7h9------A-------------------------------------------------------E-------------------------------------------------------D7
C7
-------------------------------------------------------7--7--7--------------5--5--5----------------------5--5--5---7--5--7----3--3--3--5--3----------------7--7--7--------------5--5--5---------------------------------------------------------------------------------------------------------------------Play D7 lick twice then same for C7..repeat under the lyrics.
For this particular tune, I use this scale to jam - I don't
know if it's a real scale or mode since I am lame and I only
know pentatonics, but it is great to improvise melodically
over major chords
E-------------------------------------------12-14-16-B----------------------------------12-14-15----------G-------------------------11-13-14-------------------D----------------11-12-14----------------------------A-------11-12-14-------------------------------------E-12-14----------------------------------------------Take these notes and apply them in this position
as down around the 7th/9th frets (where you play
riff) and use alot of slurs/hammers/pull-offs to
Trey-ish sounding jam over this tune. One of my

as well
the verse
get a
fav's.

Lyrics:
Whoa!Whoa!Whoa!
Somebody's jumping in the tub with your brother (x2)
Whoa!Whoa!Whoa!
Somebody's definitely jumping in the tub with your brother (x2)
Jumpin in the tub with your cousin
Somebody's definitely jumping in the tub with your brother
Uncle!
Somebody's jumping in the tub with your brother!
Somebody's jumping in the tub with your mother!
Whoa!Whoa!Whoa!

Bug
Intro:
Use distorition to get some feedback. Turn on your Univibe
to get the rotation sound and then whip it off before going to
the verse chords
D
E--------------------------------------------B--------------------------------------------G----7---------------------------------------D--------------------------------------------A----5---------------------------------------E--------------------------------------------Verse:
Whether Trey plays these notes as power chords or not is debateable.
You can either play them this way or just play the notes on G string.
F#
F#
E
D
E
C
F#
G
C
A
E----------------------------------------------------------------------- -----B-----------------------------------------------------------------------------G--11---11--/--9--/--7--/--9--/--5----------11--/--12------------16--/--14----- X4
D-----------------------------------------------------------------------------A--9----9---/--7--/--5--/--7--/--3----------9---/--10------------14--/--12----E-----------------------------------------------------------------------------Pre-Chorus: Hold this note for 8 measures and then add the F on the high E string during the eighth
measure.
D
F
E---------------(22)-------------------------B--------------------------------------------G-----19-------------------------------------D--------------------------------------------A-----17-------------------------------------E--------------------------------------------Pre-Chorus (Alternative):
Hold the first chord then, instead of adding the F on the high E, play this.
D
C
B
A
E--------------------------------------------B--------------------------------------------G---19---17---16---14------------------------D--------------------------------------------A---17---15---14---12------------------------E--------------------------------------------Chorus:
If you have another TS9 (or distortion channel), turn it on and
belt out these three chords.
F
C
G
E-------------------------------------------B-------------------------------------------G-------5-----------------------------------D--3----5----5------------------------------A--3----3----5------------------------------E--1---------3------------------------------Lyrics:
Verse 1:
There've been times that I've wondered
And times that I don't
Concepts I'll ponder
And concepts I won't ever see
God is not one of these
Former or latter
Which did you think I meant

It doesn't matter to me
Chorus:
Bug
It doesn't matter
(Don't need it)
Bug
It doesn't matter
(Don't feed it)
Bug
(My thoughts faded)
It doesn't matter
(Overrated)
Overrated
Verse 2:
Gold in my hand
In a country pool
Standing and waving
The rain, wind on the runway
Spending or saving
Credit or death
Which did you think I meant
Nothing I see can be taken from me
Chorus:
Bug
It doesn't matter
(Don't need it)
Bug
It doesn't matter
(Don't need it)
Bug
It doesn't matter
(Overrated)
Overrated
== Alternate Transcription ==
intro

verse chords

chorus chords

G
F
C
G
E|---------------------------------------|
B|-------------------------------8----/8-|
G|--14p12-14p12--12p10-12p10-----9----/7-|
D|------------12-----------10----10---/9-|
A|---------------------------------------|
E|---------------------------------------|

(play intro 2nd half of verse)


E|-----------------------------|
B|--12------10---x-/13--x-/12--|
G|--12------10---x-/12--x-/12--|
D|--12------10---x-/14--x-/12--|
A|-----------------------------|
E|-----------------------------|

F
C
G
E|---------------B|---------------G|-(2)----5--(4)-D|-/3-----5---5--A|--3-----3---5--E|--1---------3---

lead in
E|---------------------------------|-------------------------------------------------------------|
B|---------------------------------|-----------------------15------------------------------------|
G|-0-0-0---0-0-0---0-0-0---0-0-0-0-|-14b -14b14-12--14b-14~14-12~----12-14b-14~----12-b14p12----|
D|--5-5-5-5-3-3-3-3-2-2-2-0-0-0----|--------------------------------/14------------/14------14~\-|
A|---------------------------------|-------------------------------------------------------------|
E|---------------------------------|-------------------------------------------------------------|
outro
E|-/15~~---------------------------------------------------|
B|------17h18p17-17----------------------------------------|
G|-------------19-------17h19-19~~17\16-------17p16--------|
D|-------------------------------------------19---17-------|
A|-------------------------------------------------17\14---|
E|-----------------------------------------------------15--|

(this page left intentionally blank)

Camel Walk
by Jeff Holdsworth
E--------------------------------------------G-----7----x-x-x--7----4-----7-----8--8--8---B-----7h8--x-x-x--7h8--4h5---7h8---7--7--7---D-----7----x-x-x--7----4-----7-----6--6--6---A----------x-x-x-----------------------------E-/7-----------------------7-----------------E-------------------------------G-------------------------------B-------------------------------D------------7--9--7---7--------A-------7--9---------9---9--7---E-7--10-------------------------== Alternate Transcription ==
CAMEL WALK - from alpine valley

E-----7-/-9-/-7------------------------------------------B-----7-/-9-/-7-------------------------------------------]---------G-----7-/-9-/-7----------------------------------------------------D-----------------5-6-5-6--------------------------------------------A-/7-----------------------7----------------------------------------E----------------------------------------------------------------play this after they sing "camel walk"


E-------------------------B--8-8-8-\----------------G--7-7-7-\----------------D--6-6-6-\----------------A-------------------------E-------------------------E------------------B------------------G------------7---9-D----5-7-8-9---9---A--7---------------E-------------------

Carini
section 1 Em chord section
e-------------------------------------------------------------------0---------B-------------------------------------------------------------------0---------G----9---9---9------9--9--9------------------------------0-----0---------D---10-10--10-----9--9--9------------------------------2-----2---------A----7---7---7------7--7--7------------------------------2----------------E-------------------------------------------------------3^--0----------------^ repeat 4x
section 1 2x,
e
B
G
D
A
E

Em chord section,

section 1 2x

---------------------------0------------------------------------0-----------------------------0-----0-----------------------------2-----2------------------------------2--------------------------------3^--0-----------------

I saw with Carini and that baby too


I couldnt eat my food
Section 1 2x
e
B
G
D
A
E

---------------------------0------------------------------------0-----------------------------0-----0-----------------------------2-----2------------------------------2--------------------------------3^--0----------------Lucy had a lumpy head


Lucy took a walk now Lucys dead

Section 1 2x
e ---------------------------0---------B ---------------------------0---------G --------------------0-----0---------D --------------------2-----2---------A ---------------------2----------------E ----------------3^--0----------------You told me of that secret place
I saw it when I met you the walrus on your face
Strike an Em and Im not sure of the words here
Continue as before with the lyrics:
????? (Im not sure about the fourth verse, something about a load of shit)
He went across the street and he called his dad
Now youll never get the raise you thought you had
Everybody started screaming when they saw the blood
Everyone was screaming when they saw the blood
Then strike an Em and sing the words Im not sure about

Section 1 2x
Page does a build up here that you can approximate with:
E
B
G
D
A
E

-------------------------------------------------------------------------------0---0---0---0---0---0---0---0----2---3---4---5---6---7---8---9----2---3---4---5---6---7---8---9----0---0---0---0---0---0---0---0

Do this 4x then go into:


e
B
G
D
A
E

--------------------------0-----------------------------------0-----------------------------0----0-----------------------------2----2-----------------------------2-------------------------------3^--0----------------Carini had a lumpy head!

(put some oomph into it)

Do this 8x
Then jam crazily in Em until your hearts content
Then back into the Carini had a lumpy head part until your satisfied and end on a big Em

Cavern
\=slide down
/= slide up
h= hammer on
p= pull off
Intro: At the beginning, Trey seems to just plays alterations of Em, and
holds them for 4 measures each while Fishman plays lays down a groove.
Em
E-------------0--------|-------------0------|
B-------------0--------|-------------0------|
G-------------0--------|-------------0------|
D-------------2--------|-------------6------|
A-------------2--------|-------------7------|
E-----12\0----0--------|-----12\0----0------|
Main Riff: This is very similar, in fact, the same as the main riff in
Weekapaug Grove. This is how I think Trey plays it, and it sounds
pretty close.
Em
D/F#
A
E-------------7-------------7---|-----------------------------|
B-------------8----7---h8---8---|----7---7------10------------|
G-------------9----7---h9---9---|----7---7------9-------------|
D-------------9----7---h9---9---|----7---7------7-------------|
A-------------7--------h7---7---|----9----------x-------------|
E-----12/0----------------------|---------------9-------------|
On the album version Trey plays something like this between the verses, but live this
section is mainly improvised.
E-----------12--------------------B-----------12----12h14--12-------G-----------12----12h14--12-------D---(14)-14----14-----------14----- x4
A---------------------------------E---------------------------------Steal away before the dawn Riff:
G
D
Em
B
E---------------------------7-----------------------------------------B-------12-----10-----8-----7-----------------------------------------G-------12-----11-----9-----8(7)--------------------------------------D-------12-----12-----9-----9-----------------------------------------A-------10-----12-----7-----9-----------------------------------------E---------------------------------------------------------------------The high chord after "before I could think twice"
E|----17/!------B|----16/!------G|----14/!------D|--------------A|--------------E|--------------"The flesh from Satan's dog..." part is D - A - C G

Starting at "give the director" these chords ensue in these voicings~


E
A
D/F#
A
E-----x-----x--------------x----------------------B-----9-----10------7------10---------------------G-----9-----9-------7------9----------------------D-----9-----7-------7------7----------------------A-----7-----x-------9------x----------------------E-----------9--------------9----------------------these chords continue until the stops which occur on the D/F# right after both
"dissector"'s, then continue through "whatever you do
take care of your shoe", then it goes back to the between verse funky fill riff before
this lick
E--12----12----12----12----12------B--15b17-15b17-15b17-15b17-15b17---G----------------------------------D----------------------------------A----------------------------------E----------------------------------End on Em

Cayman Review
(verse 1)
E7
The Cabo Wabo's everywhere
E7
It's on my skin and in my hair
A7
E7
And Louise, I think I'm falling for you
B7
G
A
E7
Might go down easy, this is my Cayman Review
E7
I don't know how you did the rest
E7
sixteen men on a dead man's chest
A7
E7
Louise, I can't seem to get enough of you
B7
G
A
E7
Might go down easy, this is my Cayman Review
(chorus 1)
A7
E7
I'm feeling kind of funny and i feel i'm sinking down
A7
My head it starts a spinnin as i tumble to the ground
G
B7
E7
Thinking I spent all my money just a chasing you around, Louise
E7
Louise ------------------------------------------------------A7
Louise-------------------------------------------------------E7
Louise-------------------------------------------------------B7-----------

G ------

A ---

E7
Louise

(improv solo melody over the verse progression)


(chorus 2)
A7
E7
I know that you've got it and you know what it's for
A7
Cause when you start to shake it, and then you shake a little more
G
B7
Shake me up, shake me down, shakin that thing all over town
E7
(Shake me up, shake me down, shakin that thing all over town)
E7
(Shake me up, shake me down, shakin that thing all over town)
A7
(shake me up, shake me down, shakin that thing all over town)
E7
(shake me up, shake me down, shakin that thing all over town)
B7
G
A
(Shake me up, shake me down--------------------------E7
(shake me up, shake me down, shakin that thing all over town)

(more improv over the verse progression)


(verse 2)
E7
The Don Eduardo's everywhere
E7
It's on my skin and in my hair
A7
and Louise
I can't seem to get
B7
Might go down easy,
B7
Might go down easy,
B7
Might go down easy,

E7
enough of you
G
A
E7
this is my Cayman Review
G
A
E7
this is my Cayman Review
G
this is my Cayman Review

now end on E7, and that's it...........

Chalkdust Torture
All chords are in open position
Pickups|-------------------------|
|-------------------------|
|-------------------------|
|-------------------------|
|-------------------------|
|--------0--3^--0--3^--0--|
|--------0--------0-----0--|-----0--0--------------------|
|--------0--------0-----2--|-----2--2--------------------|
|--------1--------1-----2--|-----2--2--------------------|
|--------0--------0-----2--|-----2--2--------------------|
|--------2--------2-----0--|-----0--0--------------------|
|--0-----------0-----------|-----------0--3^--0--3^--0---|
Main riff|--------0--------0-----0--|-----0--0-----------------|
|--------0--------0-----2--|-----2--2-----------------|
|--------0--H1----1-----2--|-----2--2-----------------|
|--------0--------0-----2--|-----2--2-----------------|
|--------2--------2-----0--|-----0--0-----------------|
|--0-----------0-----------|-----------0--3^-0--3^-0--|

Play 4x

Repeat
(H1 is a hammer on)

During the bass solo & verses, alternate between E7 and A, using palm
muting. As the song progresses, Trey uses less and less muting, so use
your judgment.
Here are a few of the chords I've heard Trey "funk around on" to
fill this space with:
E7+9 Em7+9
E---------14---------------B---9-----12---------------G---7-----12---------------D---8-----12---------------A---7----------------------E---------12---------------E7
A
Come stumble my mirth beaten worker
A7
I'm Jezmund the family berzerker
E7
A
I'm bought for the price of a flagon of rice
The wind buffs the cabin
You speak of your life
E7
Or more willingly Locust the Lurker
...and so on.
Follow this pattern for the verse using your right palm the mute the
sound and in between lines let it lose and crank it out real loud.
The chorus goes
G
A
But who can unlearn all the facts that I've learned

G
E7
As I sat in their chairs 'til my synapses burned
G
A
And the torture of chalk dust collects on my tongue
G
A
Thoughts follow my vision and dance in the sun
G
A
All my vasoconstrictors they come slowly undone
G
Can't this wait till I'm old?
(use main riff)
Can't I live while I'm young?
(use main riff)
Can't I live while I'm young?
It then goes on with E to A to G tickle

End of song progression.


E------------------------------------------------------------------------B------------------------------------------------------------------------G------------------------------------------------------------------------D---5-6---------7-8---------8-9--------10--11-------11-12-------13-14----A-------7-5---9-----9-7---10----10-8---------12-10-------13-11-------15-13
E------------------------------------------------------------------------E------------------------------------------------------------------------B------------------------------------------------------------------------G--------------------------------------------14-15---------15-16---------D-14-15-----------16-17---------17-18--------------16-14--------17-15----A-------16-14--18------18--16--------19-17-------------------------------E------------------------------------------------------------------------E---------------------------------------------------------B--------------------------------------------------------22
G-17-18-------18-19--------19-20---------20-21------------D------19-17-------20-18---------21-19---------22-21--19--A---------------------------------------------------------E----------------------------------------------------------

(this page left intentionally blank)

Character Zero
by Phish
E----------------------------------B--------------------------------3-G----------------------------------D------------2-0----5--2-0-2-5-2---A----------------2-----------------E--3^(1/2)-0-----------------------I was taught a month ago
E----------------------------------B--------------------------------2-G----------------------------------D------------2-0----5--2-0-2-5-2---A----------------2-----------------E--3^(1/2)-0-----------------------To bide my time and take it slow
But then I learned just yesterday
To rush and never waste the day
Now I'm convinced the whole day long
That all I learn is always wrong
And things are true that I forget
But no one taught that to me yet
E-----------------------------B--2-2-2-2-2-2-2-2-2----------G--2-2-2-2-2-2-2-2-2----------D--2-2-2-2-2-2-2-2-2----------A--0-0-0-0-0-0-0-0-0----------E---------------------3^(1/2)-E G5
A
D5
E---0---------------B---0---3----2---3--G---1---0----2---2--D---2---5----2---0--A---2--------0------E---0---------------E
G5
I ought to see the man Mulcahy
A
D5
I ought to see the man Mulcahy
I was taught a month ago
to bide my time and take it slow.
But then I learned just yesterday
To rush and never waste the day.
Now I'm convinced the whole day long
That all I learn is always wrong.
And things are true that I forget
But no one taught that to me yet.
E--12------12---------------------------------------------12----B--15^(17)-15^(17)-15-12----10-12------12------12-----15--15^(17)
G------------------------14----14^(16)-14^(16)-14^(16)----------D---------------------------------------------------------------A---------------------------------------------------------------E----------------------------------------------------------------

Cities
Rake strings and start funk...
{Throughout verses: D (x57775) (often followed by open A->C bass walk-up)}
Think of London
small City
dark...
dark in the daytime
people sleep...
[Fishman] sleeps in the daytime
if they want to
if they want to!!
{Then D->C# (x46664)}
I'm checkin 'em out
I'm checkin 'em out
{Back to D}
I got it figured out
I the one that's got it figured out
there's some...
{Then up to high G (x10 12 12 12 10) followed by F->F# (same A-shape, 8 and
some good points
some bad points
{low F (133211)}
but it all works out
I'm just a little freaked out
{For chorus: F#m->Em->Bm on 9th, 7th, 7th fret respectively}
Find your city
find yourself a city to live in
I will
find a city
find yourself a city to live in
{Back to verse}
A lot of bridges in
Birmingham
a lot of ghosts
and a lot of houses
look over there
dry Ice factory
good place to get some thinking done!
I'm checkin' 'em out
I'm checkin' 'em out
I got it figured out
I'm the one that got it figured out
there's some...
some good points
some bad points
{chorus}
{Jam over chorus chords}
{Still another verse:}
Did I forget to mention...
forget to mention Memphis?
home of Elvis and the
ancient Greeks
do I smell?
I smell home cookin'
it's only the river
it's only the river
I'm checkin 'em out
I'm checkin em out
I got it figured out
I got it figured out
there's some...

fret)}

some good points


some bad points
are those things real?
NEIN!! *
{chorus to finish}

Talking Heads' version:


Intro:
D
Verse:
D
Chorus:
C#->D
("I'm a little freaked out")
Dm->D6
F
F#m Em Bm
repeat and jam!
== Alternate Transcription ==
Verse
D
E
B
G
D
A
E

C#

Bridge
G

Chorus
f#

--------------------9---7--7-------|
--7--6----12--10----10--8--7-------|
--7--6----12--10----11--9--7-------|
--7--6----12--10----11--9--9-------|
--5--4----10--8-----9---7--9-------|
---------------------------7-------|I

noticed Trey uses hammer-on's during the f# (minor) and the e (minor) chords of
the chorus, in which you would actually start those chords as a Sus2 bar chord.
Basically, hammer on from the 9th fret to the 10th fret (utilizing your middle
finger) on the B string for the f# chord and then like-wise from the 7th fret
to the 9th fret on the B string as well, for the e chord. It makes for a
funkier voicing. Playing it with a little bit of wah-wah helps too!
Also, while the G (major) chord is going on during the "bridge" (i.e., "Some
good points, some bad points..."), you can "walk" the individual notes D and F
between each accented G chord, then leading into the following F chord. This
would be 10th fret Low E and then 8th fret A.
This is a real loose, light, funky tune. I like to add in what Mike would play,
here and there, try and sort of make up for some of the sparse-ness left when
playing the song by yourself...or not :)

Colonel Forbins Ascent


A
Dbm
D
G
E-0--------0---------0----------0-B-5--------5---------3----------3-G-6--------4---------2----------4-D-7--------6---------4----------5-A---------------------------------E---------------------------------Intro:
Ab7 > Adim (repeat)
Dbm7
Gbm7
Colonel Forbin stared up at the mountain
B
E
and wiped away the beads of sweat that glistened on his brow
Gbm
???
his tired feet were buried in the Quagmyre
Am
Ab7 > Adim
and his bloodshot eyes saw all the lay between him and fulfillment of his vow
Db7
Gbm7
And he felt his fingers wrap around a knotted root
B
E
and pulled his body upwards to a seagreen mossy boulder
Gbm
????
and he dragged weary shitass up the mountain
Gbm
G
Gbm
G
And he climbed so slowly.. he climbed so slowly
A
F
Gbm
D (this part I'm not sure about, but it sounds right played to a recording)
A-Heyyyyyyyyyyyyyyyyyyyyyyyyy
[Funky Chords, sounds like Em]
A
Db
Suddenly he heard the crack of thunder
D
G
and the rocks began to crumble overhead
A
Db
and tumbled down the mountain to the dismal swamp that lay beneath
D
G
the jagged cliffs through which his path had led
A
Db
and the earth began to quake beneath his feet
D
G
and the mighty mountain changed before his eyes
A
Db
and he stood amidst a sea of dust and rocks and stones
D
G
(Ab)
A
cascading down the mountain and a thousand birds were headed for the sky
Dbm7 D
G
A
Dbm7 D G
Ohhh...... the sacred creed will be yours....
A
Dbm7 D
G
and if you wait until tomorrow ... the sacred creed/greed
Gbm
G
Gbm
G
A
F Gbm D
will be yours to devour, yours to seize, and to obey.....
Dbm7 ...
[Funky Chords, sounds like Em]
Dbm7
Gbm7
When the dust had cleared the colonel lifted up his head
B
E
and was driven to his knees by a blazing beam of light
Gbm7
????
and he saw the silhouette that stood before him
Am
Ab
A>Ab
and he bowed in reverence, trembling, in the shadow of the mighty legend's form.
Dbm7
Gbm7
Icculus, the prophet, stood before his eyes
B
E
??
looking down on Colonel Forbin as he shuddered in the puddles and the muck
?? ??

and he quietly addressed him


Gbm
G
Gbm
G
and he spoke so slowly ... he spoke so slowly..
A
F
Gbm
D (x2)
he said.........................
[Funky Chords, sounds like Em]
A
Db
D
G
Colonel Forbin I know why you've come here, and I'll help you in your quest to gain the knowledge
that you lack.
A
Db
D
G
I call upon my faithful friend the Mockingbird, to fly and seize the Helping Book and bring it to
your shack.
A
Db
D
G
And a tree of knowledge in your soul will grow, and the Helping Friendly Book will plant a seed
A
Db
D
G
(Ab) A
But I warn you that all knowledge seeming innocent and pure becomes a deadly weapon in the hands
of avarice and greed..
A Dbm7 D
G
A
Dbm7 D
G
Oh...
the sacred creed/greed will be yours...
A
Dbm7
D
G
Gbm
G
Gbm
G
A F Gbm D (x2)
And if you wait until tomorrow ........ the sacred creed/greed will be yours, to devour, yours to
seize, and to obey..
Dbm ....
Chords underlying the "story"
D Dbm Bm E A Dbm (segue into Mockingbird)

Crosseyed and Painless


e-|--------------------7/---x--x-x--------------7/-B-|--------------------7/---9--9/7--------------7/-G-|--7--7-7-----------------9--9/7-----------------D-|--7--9-9-11p9----9-------9--9/7---11p9----9-----A-|--------------11--------11-11/9--------11-------E-|------------------------------------------------or
e-|----------------------------------------------------b-|--7-7--9-------------12-----9-9--7-7-------------12-g-|--7-7--9--------------------9-9--7-7----------------d-|--7-7--9-----11p9-----------9-9----7-----11p9-------a-|-----------------11--------------------------11-----e-|----------------------------------------------------Verse:
Lost my shape-Trying to act casual
Can't stop-I might end up in the hospital
I'm changing my shape-I feel like an accident
They're back-To explain thier experience
e|-Melody Line:-------------------------------|
B|-----------10~--10-9-10-9-7------------|
G|-------------------------------------------|
D|----9-9-9-----------------------9--9-----|
A|-------------------------------------------|
E|-------------------------------------------|
isn't it weird,looks to obscure to me
wasting away,that was their policy
Verse:
I'm ready to leave-I push the facts in front of me
Facts lost-Facts are never what they seem to be
Nothing there-No information left of any kind
Lifting my head-Looking for the danger signs
Melody:
There was a line-There was a formula
Sharp as a knife-facts cut a whole in us (2x)
Chorus:
I'm still waiting...(8x)
Melody:
The feeling returns-whenever we close our eyes
Lifting my head-looking around inside
(2x)
Verse:
The island of doubt-is like the taste of medicine
Working my hindsight-got the message from the
oxygen.
Making a list-find the cost of opportunity
Doing it right-facts are useless in emergencies
Break3:
Verse:
Facts are simple and facts are straight
Facts are lazy and facts are late
Facts all come with points of view
Facts don't do what I want them to
Facts just twist the truth around
Facts are living turned inside out
Facts are getting the best of them
Facts are nothing in the face of things
Facts don't stain the furniture
Facts go out and slam the door
Facts are written all over your face
Facts continue to change their shape
Chorus:

The Curtain
Intro:
(A7)
E------------------B------------------G--0h6p0-----------D------------------A---------0h7p0----E-------------------

REPEAT

Aadd9
Gmaj7(9,13)
E--0---0-----0---0---12---12--12--12-B--0---0-----0---0---10---10--10--10-G--6---6----18--14---11---11--11--11-D--7---7----19--14----x----x---x---x-A--0---0-----0---0---10---10--10--10-E------------------------------------Aadd9
E--0---0--|----------------B--0---0--|----------------G--6---6--|--0h6p0---------D--7---7--|----------------A--0---0--|----------0h7p0-E---------|-----------------

REPEAT

Aadd9
Gmaj7(9,13)
E--0---0-----0---0---12---12--12--12-B--0---0-----0---0---10---10--10--10-G--6---6----18--14---11---11--11--11-D--7---7----19--14----x----x---x---x-A--0---0-----0---0---10---10--10--10-E------------------------------------D
E--------B--7---7-G--7---7-D--7---7-A--5---5-E--------ALL NATURAL HARMONICS
E--------------------------------B-12-------12-------7--------7---G-------12----7---7----5---7---5-D----12---------7--------7-------A--------------------------------E-------------------------------(D)
|1st Ending
E--(0)--------(0)----------(0)-------(0)-------(0)-------------------------|-12--12--12--12---------B--15-15-15----13-13-13---12-12-12---10-10-10---8-8-8---7-7-7---8-8-8-|------10--10--10--10---------G--16-16-16----14-14-14---12-12-12---11-11-11---9-9-9---7-7-7---9-9-9-|------11--11--11--11---------D--(0)--------(0)----------(0)-------(0)-------(0)------------------------|---0---0---0---0---------A---------------------------------------------------------------------|-------------------------E---------------------------------------------------------------------|-------------------------|2nd Ending
G
G/B
G
E-----------3---B--8---8----3---G--7---7----0---D--9---5----0---A------x----x---E------7----3----

REPEAT

Gm9
C
D
G/D
Am7/D C#dim
E---------------------------|--------------------------|---0-----0-----0--------------------------------------B-10--10--11--10-----10--11-|--12--12--13--12---12--13-|--10----12----13------14---14---14---14---14---14---14G-10--10--10--10-----10--10-|--12--12--12--12---12--12-|--11----12----14----15---15---15---15---15---15---15--D--8---8---8---8------8---8-|--10--10--10--10---10--10-|---0-----0-----0--------------------------------------A---------------------------|--------------------------|------------------------------------------------------E---------------------------|--------------------------|-------------------------------------------------------

Play descending riff again.


Then, build up on this Aadd9 chord:
E--0-B--0-G--6-D--7-A--0-E--0-E
D
A
As he saw his life run away from him
D/E
A
Thousands ran along,
D/E
Aadd9
Chanting words from a song
(Repeat)
CHORD FORMS
E
D Aadd9
D/E
E----0-----0---0-----0-----------------------B----0-----0---0-----0-----------------------G---13----11---6----11-----------------------D---14----12---7----12-----------------------A---14----12---7----12----------------------E----0---------------0------------------------

Aadd9
D/A
A
G/A
Gmaj7#11
Please me, have no regrets
E----------------------B----------------------G--6^(7)--6-4---4---6---- REPEAT
D------------5----5----A---------------------5E----------------------A
D/A G/A Aadd9
Came from the baby's mouth
Aadd9
Em
We follow the lines going south---(Repeat "Please, me have no regrets" section)
(Aadd9)
D/A G/A (D-A)
Em
Came from the.. came from the..came from the BABY'S MOUTH
We follow the lines going south
E------------------------------------------------------------------------------------------------0-----B---------------------------------------------7---3----------------------------------------------0-----G-4--2--0----4--2--0----4--2--0---------------7---4----------------------------------------------0-----D-5--4--2----5--4--2----5--4--2---------------7---5----------------------------------------------2-----A-0--0--0----0--0--0----0--0--0---------------0---0----------------------------------------------2-----E------------------------------------------------------------------------------------------------0------(Em)
E------0------------------------------------------------------B------0------------------------------------------------------G------0----------0--------0------0-------0-------0-------0---D------2--------12-------10------9-------7-------5-------4----A------2------12-------10-------9-------7-------5-------4-----E--0---0-----0--------0--------0-------0-------0-------0------Em-G-Am-C
Abmaj7#11
E--------------------------B--3--3--4--3-------3--4---G--1--1--1--1-------1--1---D--1--1--1--1-------1--1---A--------------------------E--------------------------Em-G-Am-C

REPEAT

PLAY 4 TIMES

Bbmaj7#11
E-------------------------B--5--5--6--5-------5--6--G--3--3--3--3-------3--3--D--3--3--3--3-------3--3--A-------------------------E--------------------------

REPEAT

For this next section, I've named the chords based on Mike's bass note
Bbmaj7#11
Em
Bb
F Em
A
E--------------------------|-----------------------------B--8---6---5---6---5-------|-----8---6--10-----8---10----G----------------------7---|-----------------------------D--5---3---2---3---2-------|-----5---3---7-----5----7----A----------------------5---|-----------------------------E--------------------------|-----------------------------Em
D
E
Esus4
E
D
E------------0----0-----0-----0------|
B-12---10----0----0-----0-----0------|
G-12---11---13---14----13----11------|
D-12---12---14---14----14----12------|
A-----------14---14----14----12------|
E------------0----0-----0------------|

REPEAT WITH SLIGHTLY DIFFERENT TIMING (Listen to a recording)

G
D/F# Em D/F#
Em D
E-------------------------------B--12---10----8---10----8----7--G-------------------------------D---9----7----5----7----5----4--A-------------------------------E--------------------------------Cmaj7#11
Bbmaj7#11
E----------------------------|-----------------------------B--7--7--8--7------7--8------|---5--5--6--5------5--6------G--5--5--5--5------5--5---x2-|---3--3--3--3------3--3---x2-D--5--5--5--5------5--5------|---3--3--3--3------3--3------A----------------------------|-----------------------------E----------------------------|-----------------------------Em
E-----0----------------------------------------------------B-----0----------------------------------------------------G-----0---------0------0------0------0---------0--------0---PLAY 4 TIMES
D-----2--------4------5------7------9--------10-------12---A-----2-------4------5------7------9-------10-------12-----E--0--0------0------0------0------0-------0--------0-------D
(sus4)
D
(sus4)
E---0----0----0----0------0----0--B---0----0----0----0------0----0--G--11---11---12---11-----11---12---PLAY 2 TIMES
D--12---12---12---12-----12---12--A--12---12---12---12-----12---12--E----------------------------------Em
B C C#
E------------------------------------------------------------B------------------------------------------------------------G--------------------------------------------------8---9--10--REPEAT PREVIOUS 2 LINES 3X
D---2-----5--4-----7--5------9--7-----10--9--------9--10--11-A---2-----5--4-----7--5------9--7-----10--9--------9--10--11-E-0----------------------------------------------------------Then, instead of going to the above Em riff on the last time, play transition into original theme-Eb6/9/#11
F6/9/#11
E--5---5---6---5-----5---6------|---7---7---8---7------7---8-----B--6---6---6---6-----6---6------|---8---8---8---8------8---8------

G--5---5---5---5-----5---5-x2---|---7---7---7---7------7---7--x2-D--5---5---5---5-----5---5------|---7---7---7---7------7---7-----A--6---6---6---6-----6---6------|---8---8---8---8------8---8-----E-------------------------------|---------------------------------Gm9
C
D
G/D
Am7/D C#dim
E---------------------------|---------------------------|---0-----0-----0--------------------------------------B-10--10--11--10---10--11---|--12--12--13--12---12--13--|--10----12----13------14---14---14---14---14---14---14G-10--10--10--10---10--10---|--12--12--12--12---12--12--|--11----12----14----15---15---15---15---15---15---15--D--8---8---8---8----8---8---|--10--10--10--10---10--10--|---0-----0-----0--------------------------------------A---------------------------|---------------------------|------------------------------------------------------E---------------------------|---------------------------|------------------------------------------------------ORIGINAL THEME
(D)
|1st Ending
E--(0)--------(0)----------(0)-------(0)-------(0)-------------------------|-12--12--12--12---------B--15-15-15----13-13-13---12-12-12---10-10-10---8-8-8---7-7-7---8-8-8-|------10--10--10--10---------G--16-16-16----14-14-14---12-12-12---11-11-11---9-9-9---7-7-7---9-9-9-|------11--11--11--11---------D--(0)--------(0)----------(0)-------(0)-------(0)------------------------|---0---0---0---0---------A---------------------------------------------------------------------|-------------------------E---------------------------------------------------------------------|-------------------------|2nd Ending
G
G/B
G
E-----------3---B--8---8----3---G--7---7----0---D--9---5----0---A------x----x---E------7----3----

REPEAT

TRANSITION INTO "WITH" SECTION


C
Eb
Bb/D
Ab/C
Bb
Ab/C
Bb
Ab
Bb
E----------------------------------------------------------------------------B-5-5-5---8-8-8---6-6-6---4-4-4---3-3-3---4-4-4---3-3-3-------------------6--G-5-5-5---8-8-8---7-7-7---5-5-5---3-3-3---5-5-5---3-3-3---5-5-5---7-7-7---7--D---------------------------------------------------------6-6-6---8-8-8------A----------------------------------------------------------------------------E-----------------------------------------------------------------------------Then the big Eb chord that starts the "With" section.

The Curtain WITH


This is a lot like Rift in actual notes but the timing is much different.
The way Trey plays it, it almost feels like he comes in too early. But the
3rd note seems to land on the beat.
Eb
B
E|--------------------------------------------------------------------|
B|11--8---------11--8-------------------------------------------------|
G|-------10--8----------10--8------8---11--10--8-----11--10--8-----8--|
D|------------------------------9------------------9-----------9------|
A|--------------------------------------------------------------------|
E|--------------------------------------------------------------------|
Eb
B
E|--------------------------------------------------------------------|
B|11--8-------------11--8---------------------------------------------|
G|--------10--8------------10--8----8---11--10--8---11--10--8---------|
D|-------------------------------9----------------9-------------9--11-|
A|--------------------------------------------------------------------|
E|--------------------------------------------------------------------|
C#
B
E|--------------------------------------------------------------------|
B|--------------------------------------------------------------------|
G|13--11--10---13--11--10--------11---10---8-----11---10---8----------|
D|----------11-------------11--9--------------9----------------9--11--|
A|--------------------------------------------------------------------|
E|--------------------------------------------------------------------|
C#
F#
E|--------------------------------------------------------------------|
B|--------------------------------11---14--11--------14--11-----------|
G|13--11--10-----13--11--10-------11----------13--11---------13--11---|
D|-----------11--------------11---11----------------------------------|
A|---------------------------------9----------------------------------|
E|--------------------------------------------------------------------|
B
F#
E|--------------------------------------------------------------------|
B|---12-----12--11-----12--11---------14--11--------14--11------------|
G|------------------13--------13--11---------13--11---------13---11---|
D|-13----13-----------------------------------------------------------|
A|--------------------------------------------------------------------|
E|--------------------------------------------------------------------|
B
E
E|--------------------------------------------------------------------|
B|---12----12--11----12--11------------14--12--12--11--9--12--11--9--8|
G|-----------------13--------13--11--9--------------------------------|
D|-13---13------------------------------------------------------------|
A|--------------------------------------------------------------------|
E|--------------------------------------------------------------------|
Youll repeat this entire thing one more time the go into the jam
section which is three measures of Eb then one measure of F. At the
end of the jam they do one more Rift type lick and volume swell
the last D.
E|-------------------------------------5--||
B|---11---10---8---11---10---8---------7--||
G|-------------------------------------7--||
D|-------------------------------------7--||
A|-------------------------------------5--||
E|----------------------------------------||

Curtis Loew
Just the chord changes and lyrics:
E
B
Well, I used to wake the mornin, before the rooster crowed
E
A
F#
Searchin for soda bottles to get myself some dough
E
B
Runem down to the corner, down to the country store
A
E
Cashem in and give my money to a man named Curtis Lowe
E
B
A
E
Old Curt was a black man with white curly hair
E
B
D
A
When he had a fifth of wine, he did not have a care
E
B
A
E
He used own an old Dobro, used to lay it across his knee
E
B
D
E
Id give old Curt my money, hed play all day for me
A
E
Play me a song, Curtis Lowe, Curtis Lowe
A
E
I got your drinkin money, tune up your Dobro
A
F#
People said he was useless, them people all were fools
E
D
A
E
Cause Curtis Lowe was the finest picker, to ever play the blues
He looked to be 60, maybe I was 10
Mama used to whoop me, but Id go see him again
Id clap my hands and stomp my feet, tryin to stay in time
Hed play me a song or two, then hed take another drink of wine
Play me a song, Curtis Lowe, Curtis Lowe
I got your drinkin money, tune up your Dobro
People said he was useless, them people all were fools
Cause Curtis Lowe was the finest picker, to ever play the blues
On the day ol Curtis died, nobody came to pray
An ol preacher said some words, and they chucked him in the clay
He lived a lifetime playin the black mans blues
And on the day that he lost his life, that was all he had to lose
Play me a song, Curtis Lowe, Curtis Lowe
I wish that you was here so everyone would know
People said you were useless, them people all were fools
Cause Curtis, you were the finest picker, to ever play the blues

David Bowie
B/Db Dbm7

H
H
S\
H
H
S\
E-------------------------------------------------------------------------|
B-4---5----4--5---x-x-----x-2--x-4-x-x---4--5---4--5--x-x----x-2--x-x-4-x-|
G-4--(4)---4-(4)--x-x-----x-2--x-4-x-x---4-(4)--4-(4)-x-x----x-2--x-x-4-x-|
D-4---6----4--6---x-x-----x-2--x-4-x-x---4--6---4--6--x-x----x-2--x-x-4-x-|
A-4--(4)---4-(4)--x-x-----x-x--x-x-x-x---4-(4)--4-(4)-x-x----x-2--x-x-4-x-|
E----------------------9-----------------------------------9--------------|
Da- vid Bo-wie
Da-vid Bo-wie
*
This is played through three times, then started a fourth time. The fourth
time is the same untill the part marked with a "*" then its
B
S\
S\
S\
E----------------------|------------------------------|
B-x-4----------4-5-6-7-|---------------------4-5-6-7--|
G-x-4--------4---------|-----2-----4-------4----------|
D-x-4------4-----------|-----2-----4-----4------------|
A-x-2--4-6-------------|-2-4---4-6---5-6--------------|
E----------------------|------------------------------|
S\
S\
S\
S\
E-----------------------------|-----------------------------|-------------|
B---------------------4-5-6-7-|---------------------4-5-6-7-|-------------|
G-----2-----4-------4---------|-----2-----4-------4---------|-----2-----4-|
D-----2-----4-----4-----------|-----2-----4-----4-----------|-----2-----4-|
A-2-4---4-6---5-6-------------|-2-4---4-6---5-6-------------|-2-4---4-6---|
E-----------------------------|-----------------------------|-------------|
B/Db Dbm7

H
H
S\
H
H
S\
E-------------------------------------------------------------------------|
B-4---5----4--5---x-x-----x-2--x-4-x-x---4--5---4--5--x-x----x-2--x-x-4-x-|
G-4--(4)---4-(4)--x-x-----x-2--x-4-x-x---4-(4)--4-(4)-x-x----x-2--x-x-4-x-|
D-4---6----4--6---x-x-----x-2--x-4-x-x---4--6---4--6--x-x----x-2--x-x-4-x-|
A-4--(4)---4-(4)--x-x-----x-x--x-x-x-x---4-(4)--4-(4)-x-x----x-2--x-x-4-x-|
E----------------------9-----------------------------------9--------------|
Da- vid Bo-wie
Da-vid Bo-wie
*
This is played through three times, then started a fourth time. The fourth
time is the same untill the part marked with a "*" then its
1st Interlude:
*(edited 2/21/06)
E---------------------------------7----------------|
G-----------4-7---------------5-7---7-5------------|
B---------6-----7-----4-7---6-----------6-4--------|
D-----4-7---------7-4-----4-----------------7-4----|
A---6-------------------------------------------7--|
E-7------------------------------------------------|
*
E---------------------------------5----------------|
G-----------2-5---------------3-5---5-3------------|
B---------4-----5-----2-5---4-----------4-2--------|
D-----2-5---------5-2-----5-----------------5-2----|
A---4-------------------------------------------5--|
E-5------------------------------------------------|
*
E---------------------------------3----------------|
G-----------0-3---------------1-3---3-1------------|
B---------2-----3-----0-3---2-----------2-0--------|
D-----0-3---------3-0-----3-----------------3-0----|
A---2-------------------------------------------3--|
E-3------------------------------------------------|
*
E----------------------------------------------13------------------------|
G---------------10-13--------------------11-13----13-11------------------|
B------------12-------13------10-13---12----------------12-10------------|
D------10-13-------------13-10-----13-------------------------13-10------|
A----12-------------------------------------------------------------13----|
E-13---------------------------------------------------------------------|

*
E--------------------------------------------11--------------------|
G--------------8-11---------------------9-11----11-9---------------|
B------------8------11-------8-11----10--------------10-8----------|
D------ 8-11-----------11-8-------11----------------------11-8-----|
A----10--------------------------------------------------------11--|
E-11---------------------------------------------------------------|
*
E---------------------------------9----------------|
G-----------6-9---------------7-9---9-7------------|
B---------8-----9-----6-9---8-----------8-6--------|
D-----6-9---------9-6-----9-----------------9-6----|
A---8-------------------------------------------9--|
E-9------------------------------------------------|
Here Trey rests for 2 beats while Page plays C# then A, then:
E-------------------12-------------------|
B-11----12-------13-------11-12-13-11----|
G----11----12-13-------13-------------13-|
D----------------------------------------|
A----------------------------------------|
E----------------------------------------|
(
)
Play the first 6 notes with ring finger, moving it up from the
11th to 13th fret. Also, cheat on the marked ( ) part like this:
P
E-----------------|
G----11-13-11-----|
B-13----------13--|
D-----------------|
A-----------------|
E-----------------|
E-------------------13-------------------|
B-12----13-------14-------12-13-14-12----|
G----12----13-14-------14-------------14-|
D----------------------------------------|
A----------------------------------------|
E----------------------------------------|
E-------------------14-------------------|
B-13----14-------15-------13-14-15-13----|
G----13----14-15-------15-------------15-|
D----------------------------------------|
A----------------------------------------|
E----------------------------------------|
E-------------------15-----------------------------------------------|
G-14----15-------16--------12-13-14-15--15-14-13-12--14-15-16-17--|
B----14----15-16-------16-------------------------------------------|
D-------------------------------------------------------------------|
A-------------------------------------------------------------------|
E-------------------------------------------------------------------|
E-----------------------------------------------------|
G-17-16-15-14--16-17-18-19--19-18-17-16--18-19-20-21--|
B-----------------------------------------------------|
D-----------------------------------------------------|
A-----------------------------------------------------|
E-----------------------------------------------------|
Fast Chromatic Lick:
E-20-19-18-17--19-18-17-16--18-17-16-15--17-16-15-14--16-15-14-13--|
G------------------------------------------------------------------|
B------------------------------------------------------------------|
E-15-14-13-12--14-13-12-11--13-12-11-10--12-11-10-9--11-10-9-8--|
G---------------------------------------------------------------|
B---------------------------------------------------------------|
E-10-9-8-7------------------------------------------------------------|
G----------11-10-9-8--------------------------------------------------|
B--------------------11-10-9-8----------------------------------------|
D------------------------------12-11-10-9-----------------------------|
A-----------------------------------------13-12-11-10-----------------|
E-----------------------------------------------------14-13-12-11-----|

H
H
S\
H
H
S\
E----------------------------------------------------------------------|
B-7--8---7--8---x-x-----x-5--x-7-x-x--7--8---7--8--x-x----x-5--x-x-7-x-|
G-7-(7)--7-(7)--x-x-----x-5--x-7-x-x--7-(7)--7-(7)-x-x----x-5--x-x-7-x-|
D-7--9---7--9---x-x-----x-5--x-7-x-x--7--9---7--9--x-x----x-5--x-x-7-x-|
A-7-(7)--7-(7)--x-x-----x-x--x-x-x-x--7-(7)--7-(7)-x-x----x-5--x-x-7-x-|
E--------------------11--------------------------------11--------------|
UB
40
UB
40
*
This is played through three times, then started a fourth time. The fourth
time is the same until the part marked with a "*" then its:
S\
S\
S\
E----------------------|-------------------------------|
B-x-7----------7-8-9-0-|---------------------7-8-9-10--|
G-x-7--------7---------|-----5-----7-------7-----------|
D-x-7------7-----------|-----5-----7-----7-------------|
A-x-5--7-8-------------|-5-7---7-9---8-9---------------|
E----------------------|-------------------------------|
S\
S\
S\
S\
E-----------------------------|-----------------------------|-------------|
B---------------------7-8-9-10|---------------------7-8-9-10|-------------|
G-----5-----7-------7---------|-----5-----7-------7---------|-----5-----7-|
D-----5-----7-----7-----------|-----5-----7-----7-----------|-----5-----7-|
A-5-7---7-9---8-9-------------|-5-7---7-9---8-9-------------|-5-7---7-9---|
E-----------------------------|-----------------------------|-------------|
2nd Interlude:
/S
/S
H
E------------------------------------------10--------------------------|
G-----12-----10-----9-------------------11----11-----8--9--------------|
B---9----9------9------8--9--8--9--9-12----------12--8-(8)-8-----------|
D-9--------9------9----9-10--9-10----------------------------11-10-11--|
A----------------------------------------------------------------------|
E----------------------------------------------------------------------|
P
/S
/S
E-----8------------------------------------------------------------|
G-7-9---9---10---10--11-(10)--12----------------------------12-12--|
B---------8--8---10--10--10---10---9-10---9-10--10-10-13-13--------|
D-----------10---10--10--10---10--10-11--10-11---------------------|
A------------------------------------------------------------------|
E------------------------------------------------------------------|
A
B
H
H
/S
/S
E------------------5-5--7-7----------------|
G-9-(10)--9-(10)---7-7--9-9----------------|
B-9---9---9---9----7-7--9-9----------------|
D------------------7-7--9-9-------9--------|
A----------------------------9-11---11-13--|
E------------------------------------------|
/S
/S
H
E------------------------------------------12---------------------------|
G-----14-----12-----11-------------------13--13----10--11---------------|
B---11--11-----11------10-11--10-11-11-14------14--10-(10)-10-----------|
D-11------11-----11----11-12--11-12---------------------------13-12-13--|
A-----------------------------------------------------------------------|
E-----------------------------------------------------------------------|
P
/S
/S
E-----10-----------------------------------------------------------|
G-9-11--11---12--12--13-(12)-14-----------------------------14-14--|
B---------10-10--12--12--12--12---11-12--11-12--12-12-15-15--------|
D------------12--12--12--12--12---12-13--12-13---------------------|
A------------------------------------------------------------------|
E------------------------------------------------------------------|
H
H
/S
/S
E-------------------7-7--9--9----------------------|
G-11-(12)--11-(12)--9-9-11-11------------------13--|
B-11--11---11--11---9-9-11-11------------------13--|
D-------------------9-9-11-11--------11--------13--|
A------------------------------11-13----13-15------|
E--------------------------------------------------|

/S
/S
H
E---------------------------------------7---------------------|
G-----9-----7-----6-------------------8---8----5--6-----------|
B---6---6-----6------5--6--5--6--6--9-------9--5-(5)-5--------|
D-6-------6-----6----6--7--6--7------------------------8-7-8--|
A-------------------------------------------------------------|
E-------------------------------------------------------------|
P
/S
/S
E-----5------------------------------------------------|
G-4-6---6----7--7--8-(7)-9-------------------------9-9-|
B---------5--5--7--7--7--7---6--7--6--7--7-7-10-10-----|
D------------7--7--7--7--7---7--8--7--8----------------|
A------------------------------------------------------|
E------------------------------------------------------|
H
H
/S
/S
E----------------2-2--4-4-----------------|
G-6-(7)--6-(7)---4-4--6-6--------------8--|
B-6--6---6--6----4-4--6-6--------------8--|
D----------------4-4--6-6------6-------8--|
A--------------------------6-8---8-10--10-|
E-----------------------------------------|
/S
/S
H
E----------------------------------------9-----------------------|
G-----11-----9-----8-------------------10-10----7--8-------------|
B---8----8-----8------7--8--7--8--8--11-----11--7-(7)-7----------|
D-8--------8-----8----8--9--8--9------------------------10-9-10--|
A----------------------------------------------------------------|
E----------------------------------------------------------------|
E-----7-------------|
G-6-8---8----9---9--|
B---------7--7---9--|
D------------9---9--|
A----------------7--|
E-------------------|
/S
/S
H
E---------------------------------------3---------------------|
G-----5-----3-----2-------------------4---4----1--2-----------|
B---2---2-----2------1--2--1--2--2--5-------5--1-(1)-1--------|
D-2-------2-----2----2--3--2--3------------------------4-3-4--|
A-------------------------------------------------------------|
E-------------------------------------------------------------|
P
/S
/S
E-----1------------------------------------------------|
G-0-2---2----3--3--4-(3)-5-------------------------5-5-|
B---------1--1--3--3--3--3---2--3--2--3--3-3--6-6------|
D------------3--3--3--3--3---3--4--3--4----------------|
A------------------------------------------------------|
E------------------------------------------------------|
H
H
/S
E--------------|-3-3--0-0--------|
G-2-(3)--2-(3)-|-3-3--2-2--------|
B-2--2---2--2--|-0-0--2-2--------|
D--------------|-0-0--2-2------2-|
A--------------|-2-2--0-0--2-3---|
E--------------|-3-3-------------|
E------9-----------------------------------------------|
B-12-9---11-10-12-9------------------------------------|
G-------------------9-12-9-11----9----11-8----9--------|
D-----------------------------12---9-------12---11-----|
A--------------------------------------------------12--|
E------------------------------------------------------|
E---------------------------------------------------------------------------------------|
G-13-10-12----10---12-9----10-----------------------------------------11----10----------|
B----------12----9------12----11----10----9----------9-------------------12-------------|
D--------------------------------12----12---10-12------11-10-12-9--------------12-------|
A-------------------------------------------------12--------------10--------------13-12-|
E---------------------------------------------------------------------------------------|

E-------------------------------12-|
B-4--5--6--7-8-9-10-11-12-13-14-12-|
G-2--3--4--5-6-7-8--9--10-11-12-12-|
D-3--4--5--7-7-8-9--10-11-12-13-14-|
A-------------------------------0--|
E----------------------------------|
Next comes the Jam, which is pretty much Em to D. Towards the end, it starts
alternating the Em to D part with a C to D to Em part:
C D Em Em C D Em Em

Em D Em D Em D Em D

Not sure how Phish decides when to kick into this part:
C
D
Em
C
D
Em
4x
4x
8x
4x
4x
8x
P
P
P
P
P
P
E-15-12----|-17-14----|-19-15----|-15-12----|-17-14----|-19-15----|
G-------13-|-------15-|-------17-|-------13-|-------15-|-------17-|
B----------|----------|----------|----------|----------|----------|
D----------|----------|----------|----------|----------|----------|
A----------|----------|----------|----------|----------|----------|
E----------|----------|----------|----------|----------|----------|
*
This goes back and forth between this pattern and the Em to D part a few
times, then when Trey decides to end the jam, he plays the pull off pattern
untill the point marked *, there he plays 4 whole step bends on the 22 fret
B
B
B
B
Em
A B
A B
A B
A B
E-22--22--22--22--|----------------|-----------|-----------|------------|
G-----------------|-----x-x-x-2--4-|--x-x-2--4-|--x-x-2--4-|--x-x-2--4--|
B-----------------|-0---x-x-x-2--4-|--x-x-2--4-|--x-x-2--4-|--x-x-2--4--|
D-----------------|-2---x-x-x-2--4-|--x-x-2--4-|--x-x-2--4-|--x-x-2--4--|
A-----------------|-2--------------|-----------|-----------|------------|
E-----------------|-0--------------|-----------|-----------|------------|
*
E------------------|
G-4---5---4----5---|
B-4--(4)--4---(4)--|
D-4---6---4----6---|
The * on the B chord above signafies Trey
A-4--(4)--4---(4)--|
toggling him pick-up selector back and forth
E------------------|
Da-vid Bo- wie

Destiny Unbound
Intro
Sometimes Trey bends up, sometimes he starts bent and releases.
to a recording.
B
R
E--------------------------------------------------B----4^(5)--(5)^4-------(5)^4----------------------G----4^(5)--(5)^4-------(5)^4----------------------D--------------------------------4---2-------------A---------------------------------------4-3-2------E---------------------------------------------5-2---

Listen

H-O
H-O
E----------------------------------------------------------B-------5---5----------------------5---5--5-6-7-6-5--------G--------------7^(8)---4----------------------------7^(8)-4D---5-6---6--------------------5-6---6---------------------A----------------------------------------------------------E----------------------------------------------------------can also be played as such, if your guitar's intonation is terrific:
H-O
E------0---0----------------------0---0---0-1-2-1-0---------B-------------3^(4)----0-----------------------------3^(4)-0G--0-1---1--------------------0-1---1-----------------------D-----------------------------------------------------------A-----------------------------------------------------------E-----------------------------------------------------------either way, the transition to the lyrics are made with a slow

release:

R
E--------B--------G-(4)^3--D--------A--------E--------F# B
E

F# (4x)

B (4x, on the fourth time, end with a lingering A)

F#
B
Highway bill's on the rotary still
E
F#
And he can't even feel the pain
F#
Of a sun dried shoulder
G#m
And a scar from a boulder
C#7
That cut him right across his vein
F#
Now's he's sucking' cigar
B
And he's shovelin' tar
E
F#
In the crater of a turnpike terrain
F#
B
He's got only one hope and he wants to elope
E
B
'Cause Highway Jill is driving him insane

F#

CHORUS
E
B
We gotta get on the road
F#
B
Destiny Unbound
E
B
She's the one for me
C#7
F#
We gotta get out of town
(Repeat chorus)
(Verse 2 same chords as verse 1)
Highway Jill was a daffodil
With a cactus sense of pride
At the wheel of a tractor she was quite an impactor
When the road rocks started to slide
She saw Bill drop his shovel on a pile of gravel
As he climbed up out of his ditch
She was wonderstruck
When he climbed in her truck
He said, "I've been having this everlasting itch"
(Repeat chorus twice this time "she's the one.. Becomes "you're the one..)
JAM
Trey likes to go up and down this little scale:
E-------------2-5-2----------B---------2-4-------4-2------G-----3-4--------------4-3---D-2-4---------------------4-2A----------------------------E----------------------------E
At first she was cold
B
She was ready to scold
F#
B
This guy from the pit with a thing in his head
E
But then she thought twice
B
When he melted her ice
C#7
With his passionate eyes
B
She was energized
F#
She started the ignition
B
And without permission
C#7
The two of them flew down the dusty road
F#
But the road wasn't finished
B
And the pavement diminished
E
They flew off the edge
B
F#
And plunged in the sludge
FINAL CHORUS (same chords as chorus)
(She said) There isn't even any road
Our destiny was bound
We were the ones for us
Now we're in the ground
(Repeat 4 times)

F#

Dinner and a Movie


Intro chords: Am7

F7

1st verse - no chords (*Guess* what the lyrics are!;^)


Am7
Let's
Am7
Let's
Am7
Let's
B
Let's

F7
go out to dinner and see a movie
F7
go out to dinner and see a movie
Bb
go out to dinner - and see a movie
C
go out to dinner and see a movie

Piano & guitar riff


[Play 4x - 1st two: piano & guitar in unison, 2nd two: p&g harmonize]
S/
E|--------------8-10--------------------------------9------------------B|------------11----11-10-------------------------13-13-9--------------G|-----------8----------10-------------------10-13-------10------------D|----8-12-10------------10-------------10-11--------------11-10-------A|------------------------11-10-------11------------------------11-10--E|8-11-------------------------11-9-13-------------------------------111 4 1 4 3 1 4 1/ 2 1| 2 1 2 1 4 2 1 2 1 4| 1 4 1 2 3 2 3 2 3
Guitar Solo
Piano & guitar riff again
"Sing-song" section [play 4x]
Amaj7
Dmaj7
Let's go out to dinner and see a movie
Last verse
Am7
Let's go out
Am7
Let's go out
Am7
Let's go out
Bdim
Let's go out

F7
to dinner and see a movie
F7
to dinner and see a movie
Bb
to dinner - and see a movie
Cdim
to dinner and see a movie

A Little fill during this tune...


H P
E----------------------------------------------13---------B-15-------15---------------13-----13-16-13--------16-13--G-----12-------12-----15-15------15-----------------------D---------------------------------------------------------A---------------------------------------------------------E----------------------------------------------------------

(x2)

Hold
|
E-----------------------------B-13----16-----13-----16------G----15----15-----15-----15---D-----------------------------A-----------------------------E-----------------------------And play the fill a couple of times...
I have a better way to finger the intro chords, thats more accurate to the album:
E|------------5------5-----------3------3-------------------------B|------------5------5-----------4------4-------------------------G|------------5------5-----------2------2-------------------------D|------------5------5------3-3-----3-3---------------------------A|----------------------------------------------------------------E|--12----5-5----5-5----------------------------------------------S\

Dirt
intro (whistling)
Dsus2 Am C G
(x4) :

Em

{repeated throughout}

"Never hear your voice again..."


Dsus2
Am
C
G
I'd like to live beneath the dirt
A tiny space to move and breathe is all that I would ever need
I want live beneath the dirt
where I am free from push and shove like all those swarming up above
Em
C
beneath your heals I'll spend my time
Dsus2
Am
C
G
(shout your name into the wind) I'll wiggle in the earth and dew
(shout your name into the wind) and somtimes I will think of you
(shout your name into the wind) And if you ever think of me
Kneel down and kiss the earth and show me what this thought is worth
Em

Solo:
E---------------------------------------------------------------B---------------------------------------------------------------G----14--14-14--12-11--12--14~~---------14-12-11--/14-12-11-----D-12---12-----------------------------12--------12----------12--A---------------------------------------------------------------E---------------------------------------------------------------E-------------------------------B-------------------------------G----/12--12--11---------/12-11-D-12----12-------12---12-------12
A-------------------------------E-------------------------------e---------------------------------------------------------------------B--22-22-22--20-19-20-22~~-22-20-19--/22-20-19-----/20-19-----/20-19--G-19----------------------19-------------------19-19----19--19-----19-D---------------------------------------------------------------------A---------------------------------------------------------------------E---------------------------------------------------------------------___________
ending
E----14---14--14-----12---12--12-----12---12--12-----10---10--10-----10---10--10-----8---8---8--B---15-15--15--15---13-13--13--13---13-13--13--13---12-12--12--12---10-10--10--10--10-10--10--10G--14---14--14--14-14---14--14--14-12---12--12--12-12---12--12--12-11---11--11--11-9---9---9---9D-0---------------0---------------0---------------0---------------0---------------0-------------A-----------------------------------------------------------------------------------------------E-----------------------------------------------------------------------------------------------E----8--8--8-----7--7--7------5--5--5-----5--5--5-------3--3--3-----3--3--3--B---8-8--8--8---8-8--8--8----7-7--7--7---5-5--5--5-----5-5--5--5---3-3--3--3-G--9---9--9--9-7---7--7--7--7---7--7--7-6---6--6--6---5---5--5--5-4---4--4--4D-0-----------0------------0-----------0-------------0-----------0-----------A----------------------------------------------------------------------------E----------------------------------------------------------------------------Basic chord fingering {probably not exactly what Trey does}
Dsus2: xx0230
Am: x02210
C: x32010
G: 320033
Em: 022000

Divided Sky
Mostly based on the Junta version, with lots of help from the 4-29-1990 (Woodbury Ski and
Racquet Club, Woodbury CT) video.
Intro:
Repeat 4x
|: A D9/A :| C/A E
E|---0---12---|--0---0--B|---5---10---|--8--12--G|---6---11---|--9--13--D|---7---12---|-10--14--A|---0---0----|--0---0--E|------------|---------Repeat 4x
|: A D9/A :| C/A A C/A E
E|---0---12---|--0---0---0---0--B|---5---10---|--8---5---8--12--G|---6---11---|--9---6---9--13--D|---7---12---|-10---7--10--14--A|---0---0----|--0---0---0---0--E|------------|-----------------Here are some guidelines for getting the intro right.
A: pick A string, then a fast rake down the other 4, then strum up, up, down.
D9/A: strum up 7 times.
C/A: gently pick the strings individually (same goes for the last A).
E: fast strum up-down-up-down-up-down-up-down.
Sing over A chord: "Divided sky, the wind blows high..."
Build up:
E|-----11------12------13----14-15-16-17B|---x-10----x-11----x-12----13-14-15-16G|---x-------x-------x-------x----------D|---x-------x-------x-------x----------A|---x-------x-------x-------x----------E|-9------10------11------12------------This is followed by the Palindrome section:
DR
UR

Downward rake: don't alternate pick - play all notes in a single downward motion
Upward rake

The number under the tab indicates where the index finger is placed.
(Starts at 1:17 on the CD)
DR--DR--E|-----------------------------------------------------B|-----4-6-4-------------7-9-7----8--------------------G|---6-------6---------7--------8------9-7----7-9-9-9--D|-7-----------7---8-8--------------9------10----------A|-----------------------------------------------------E|-----------------------------------------------------4
7
8
7
DR----- DR----DR----(*)
E|----------------------------------------------------------------------B|-10-8--------8--------8------------11-13-11-----------12--------13----G|----------10-------10-----------11----------11------------------------D|-------11-------11--------11/12----------------12--13----13--14----14-A|----------------------------------------------------------------------E|----------------------------------------------------------------------8
11
12
13
This marks the halfway point of the palindrome (at 1:25). As the name implies,
the second half is comprised of the first half in the reverse order (well, almost)
UR-----UR----- UR----E|------------------------------------------------------------------B|----13--------12-----13-11-------------11-13--10-8-8-------8------G|-------13--------12--------11-------11---------------10------10---D|-14--------13-----------------12-12---------------------11------11A|------------------------------------------------------------------E|-------------------------------------------------------------------

12

11

UR---UR--E|-----------------------------------------------------B|-------------------8----9-7-------7--6-6---------4-6-G|-9-9-9-7----7-9------8------7-----7------6-----6-----D|---------10------9------------8-8----------7-5-------A|-----------------------------------------------------E|-----------------------------------------------------7
8
7
4
At this point (1:33) the first half of the palindrome is played again until the (*),
at which point play:
Repeat 2x
|:
A
A/C#
G/D G/B
A/C# D/A G/B A :| D9
E|--------------------|--------12----------10-----12--------10---0--|-0-B|--------12-------13-|----14--10------12---8-----10---7-----8---5--|-5-G|-12-14-----13-15----|----14----------12--------------7---------6--|-7-D|--------------------|----14--11------12---9-----11---7-----9---7--|-7-A|--------------------|----12--12------10--10-----12---9----10---0--|-0-E|--------------------|---------------------------------------------|---The rhythm of this next section is real tricky, but it still flows very smoothly. It's a
collection of 4/4 (8/8) and 7/8 bars, but then Trey fits some 3/4 bars into it - see below.
( 1 2 3 4 5 6 7 8 - 1 2 3 4 5 6 7) 6x
(1+2+3+) 4x
Chords chould be played on beats 1,4, & 6 of the 4/4 bar, and 1,3 & 5 of the 7/8 bar.
The first pair of bars is repeated six times total, then the 3/4 bars are played four times.
Each pair of chords in parentheses below is repeated 3 times.
(Am7 Bm7) (Cm7 Dm7) (Ebm7 Fm7) (F#m7 Abm7) (Am7 Bm7)
Trey uses the following fingering:
Am7 Bm7 Cm7 (etc.) Am7 Bm7
E|--0----2----3--12---14-B|--1----3----4--13---15-G|--0----2----3-- .....-12---14-D|--2----4----5--14---16-A|--0----2----3--12---14-E|-----------------------This leads directly into...
Solo 1:
A
C
F#m
E
D
E|-------9----------------------------------------------------------B|-12b14---12-9-----------------------10-9-----12----------------10~G|--------------11b13-11-9----9~-----------9------11~-p9------------D|-------------------------11----11-9--------9-----------11p9h11----A|------------------------------------------------------------------E|------------------------------------------------------------------B
A
E|-------------------------------------------------------------B|----------------12~----------12~----------12\10~--------10---G|-------------------------------------------------------------D|-11/13-13p11h13-----13p11h13-----13p11h13-------11p9h11------A|-------------------------------------------------------------E|-------------------------------------------------------------This repeats twice, on the second time playing this bridge.
Notes in parentheses are taken from the Woodbury video. They are passing notes,
played very briefly and usually partially silenced. They are not 100% accurate.
In later years instead of playing these notes Trey slides down and back up
the fretboard. See 10-31-94 video.
E
Eb
F#
A
E|-------9--------------------------------------------------------------B|-12b14---12-9---------------------------------------------------------G|--------------11b13-11-9----9------9-11-12------12-14-15------15-17-18D|-------------------------11-------------------------------------------A|-------------------------------(10)---------(13)----------(16)--------E|----------------------------------------------------------------------C
Eb
F#
A
E|------------------------------------15-17-18-------18-20-21-------B|-------------------17-19-20---------------------------------------G|-----18-20-21----------------(15h17)-----------(21)---------------D|------------------------------------------------------------------A|-(22)----------(21)-----------------------------------------------E|-------------------------------------------------------------------

The solo repeats twice more, ending like this (strum the first chord upwards,
pick the rest gently):
A
E D/E E A/E Emaj7 A/E E D/E Gm7 Gm7b5 F
E|-------9------------------------0---0---0----0---0---0--0--10-----------B|-12b14---12-9-------------------0---0----------------0--0--11---11----10G|--------------11b13-11-9----9---11--13--14---16--14--13-11-10---10----10D|-------------------------11-----12--14--16---18--16--14-12-12---11----10A|--------------------------------12--14--16---18--16--14-12-10---10------E|--------------------------------0---0----------------0--0---------------Trey occasionally likes to (very quietly) go up and down the Dm pentatonic
scale (10th fret) at this point. Use hammers/pulloffs.
The organ plays on
Notice the implied
sometimes not, but
emphasize them too

the F chord very quietly as the second solo starts.


notes (in parentheses); these are sometimes played,
they are very important to the feel of the song. Don't
much; they should be used as passing guide tones.

Solo 2:
This solo is repeated 4 times. First two times played, it is slow and
quiet:
F
Bb
C
Am7
E|----------13-----------13-12-10----10h12--10----12-10h12-10---B|-------10-----------10--------------------------------------13G|-10-12--------10-12--------------------------12---------------D|--------------------------------------------------------------A|--------------------------------------------------------------E|--------------------------------------------------------------Dm7
Gm7
C
F
E|----------10----------10--------------------------------------|---B|-------10----------10----13-11----11h13--11----13----11h13-11-|-10G|-10-12-------10-12------------(12)----------12---(12)---------|---D|--------------------------------------------------------------|---A|--------------------------------------------------------------|---E|--------------------------------------------------------------|---It's played a bit differently subsequently:
F
Bb
C
Am7
E|----------13----------------13-12-10----10h12-10----12---10h12-10-------B|-------10----------------10-------------------------------------------13G|-10-12-------------10-12-------------12----------12----12--------(12)---D|-------------(12*)------------------------------------------------------A|------------------------------------------------------------------------E|------------------------------------------------------------------------*-Sometimes played on 10th fret
Dm7
Gm7
C
F
E|---------------10-------------10---------------------------------------B|------------10-------------10----13-11----13-11---13----11h13-11-----10G|------10-12-----------10-12------------12------12----12---------(12)---D|-(*10)------------(12)-------------------------------------------------A|-----------------------------------------------------------------------E|-----------------------------------------------------------------------*-sometimes Trey slides up to this note (use middle finger).
The fourth repetition ends on a BbMaj7 instead of an F. While holding that
last note Trey sometimes throws in some 12th fret harmonics.
This bridge follows:
Dm7
Am7
BbMaj7
F
E|----10-12-13----10-13-12----10-12-10-17-15-13-----B|-10----------10----------13-------------------13--G|--------------------------------------------------D|--------------------------------------------------A|--------------------------------------------------E|--------------------------------------------------Dm7
Am7
Gm7
C
E|---------------------10---------------------------B|-----------10----*10----13-10----10-11----10-11-13G|-----10-12----10--------------12-------12---------D|-(10)---------------------------------------------A|--------------------------------------------------E|--------------------------------------------------*-sometimes Trey slides up to this note

The solo repeats 2 more times (substituting the BbMaj7 on the last time again),
then plays the bridge again with more distortion on the guitar, then repeats the
solo 2 more times, again substituting the Bbmaj7 and holding the last note as
long as possible. The chords D D/C Bm7 D/A are played under this note.
This leads into...
Solo 3 (Ending theme):
D D/C Bm7
D/A
Em
Em/Eb Em/D Em/C# (*)
E|--17--------14-15-17-------------14-15-17-----------------B|-------------------------15-17----------------------------G|----------------------------------------------------------D|----------------------------------------------------------A|----------------------------------------------------------E|----------------------------------------------------------Em Em/Eb Em/D
Em/C#
D
D/C Bm7 D/A
E|----------19----15-17-19----14-14-14-14-15-17-------------B|----------------------------------------------------------G|----------------------------------------------------------D|----------------------------------------------------------A|----------------------------------------------------------E|----------------------------------------------------------D
D/C
Bm7
BbMaj7
E|-17-14----19-17-15-14------------B|-------15-------------15-17-15---G|---------------------------------D|---------------------------------A|---------------------------------E|---------------------------------A
D D/C Bm7(D/B) D/A
E|-----------------15-14-------------------------------------B|--14-------15-15-------17----14-14----14-15----------------G|-----------------------------------16----------------------D|-----------------------------------------------------------A|-----------------------------------------------------------E|-----------------------------------------------------------For those who wish to accompany with backing chords, here they are:
Repeat 2x
Repeat 2x
|: D D/C Bm7 D/A :| |: Em Em/Eb Em/D Em/C# :| D D/C Bm7 D/A D D/C Bm7 BbMaj7 A
E|----5------7-------------7---------------------5------7-------5------7---------5-B|----7--7---7---7---------8---8-----8----8------7--7---7---7---7--7---7----6----5-G|----7--7---7---7---------9---9-----9----9------7--7---7---7---7--7---7----7----6-D|----7--7---7---7---------9---9-----9----9------7--7---7---7---7--7---7----7----7-A|----5----------5---------7---6-----------------5----------5---5----------------7-E|-------8---7---5-------------------10---9---------8---7---5------8---7----6----5-(* Note: an alternate way to notate this progression is Em Eb+ G/D C#mb5; this
highlights the falling bassline a bit better at the expense of making the
chords seem a lot more complicated.)
Repeat Solo 3 twice, and then move into the improvisational part. As a rule
of thumb, play using the same scale as the chord - D major over the D, E
minor dorian (which is basically the same as D major, but with different emphasized notes)
over the Em, A major over the A. The only exception is that Trey switches to G minor pentatonic
for the BbMaj7 chord. Watch out for this as this is important for the feel of the solo.
Here is the solo from the Junta album, starting at the A chord just before
the solo begins (Timings are from the CD).
To keep things simple I have not notated the falling bass notes in the
underlying chords.
8:14 A
|:D (repeat this 2x)
:|
E|------------15-14----------15-14-|-------17-14h15-------14-15----|-----B|---14-15-15-------17-15-15-------|-15----------------17-------17-|-----G|---------------------------------|----14----------16-------------|-----D|---------------------------------|-------------------------------|-----A|---------------------------------|-------------------------------|-----E|---------------------------------|-------------------------------|-----8:30
Em
E|---------14----17-------17-14----17/19-17-15-14-----------------------------B|--/14/15----15----15-17-------15----------------17----------------------12--G|---------------------------------------------------14----------12----12-----D|------------------------------------------------------14-12/14----14-------13
A|----------------------------------------------------------------------------E|-----------------------------------------------------------------------------

8:37
E|--------------------------12-------------15----15-19-------15----15-22-B|--12-------------------12----14----10/17----17-------16~~-----17-------G|-----14-12----------12-------------------------------------------------D|-----------12\11/12----------------------------------------------------A|-----------------------------------------------------------------------E|-----------------------------------------------------------------------8:44
D
E|--21-19-17-15-14-14-15-17-------15\14-19p17--------------------------B|--------------------------------------------------15h17-14-15----15--G|--------------------------16\14-------------------------------14-----D|--------------------------------------------16\14--------------------A|---------------------------------------------------------------------E|---------------------------------------------------------------------8:52
BbMaj7
A
E|--14-17-14-15-16-17-14-----------------------------------------B|-----------------------15-------------------14-------14-17b19~~G|--------------------------14----------------14-16b18-----------D|-----------------------------15-------14/16-16-----------------A|---------------------------------------------------------------E|---------------------------------------------------------------9:05 D
E|----------------17~~--14h15p14h15p14h15p14h15p14h15p14------B|--5/17b19-17b19----------------------------------------17---G|----------------------------------------------------------14D|------------------------------------------------------------A|------------------------------------------------------------E|------------------------------------------------------------9:10
E|-------------------------------------------------B|-----------------------------------------10b12-10G|-7-7-----7-9b11---9b11b9b11b9b11b9p7---7---------D|-7-7-----7------7--------------------9-----------A|-5-5-7/9-----------------------------------------E|-------------------------------------------------9:15
E|----------------------------------------------10------------------------B|-----10b12-10-7-8-7-8-7--------------------10----12-10-------15-12------G|-7-7--------------------9-7---------7-9/11-------------11/14-------14-14D|----------------------------7---7-9-------------------------------------A|------------------------------9-----------------------------------------E|------------------------------------------------------------------------9:20
Em
E|-------12----12-14----12-14-15----14-15p12----12---------------B|-10/12----12-------12----------12----------14----14b15---------G|---------------------------------------------------------------D|---------------------------------------------------------------A|---------------------------------------------------------------E|---------------------------------------------------------------9:24
E|------------------------------------------------------------------------B|-12-15-12-------12-------------------------------------------------12-0-G|----------14b16----14b16-14-12-11-------11-12-11----12-14-11-12-14----0-D|----------------------------------12-14----------14---------------------A|------------------------------------------------------------------------E|------------------------------------------------------------------------9:27
E|-------------------------------------14-15----14-15-17/19B|----12-14-11-12-14h15-14-15-17-15-17-------17------------G|-14------------------------------------------------------D|---------------------------------------------------------A|---------------------------------------------------------E|---------------------------------------------------------9:31 D
E|---17-15-14-15-17----17-17-15-14-15-17-------------14-15-17-15-14-15-17B|------------------------------------------------15---------------------G|------------------14-------------------14----14------------------------D|------------------------------------------16---------------------------A|-----------------------------------------------------------------------E|------------------------------------------------------------------------

9:37
BbMaj7
E|-14h15p14----------14----------------14-15-17-18-----15h18p15h18p15h18p15---B|----------17p16h17----17-15----15-17--------------------------------------18G|----------------------------14----------------------------------------------D|----------------------------------------------------------------------------A|----------------------------------------------------------------------------E|----------------------------------------------------------------------------9:42
A
E|----------------------------------------------------------------------B|-15h18p15h18p15h18p15-----------------------------------------------14G|----------------------17--15h17p15h17p15h17p15----------------------14D|-----------------------------------------------17p16-16h17p16-------14A|--------------------------------------------------------------17\16---E|----------------------------------------------------------------------9:46
D
E|-------------------------------------------14-------14-15-17-17b19~~--------10---B|-------------------------14-15----14-15-17----15-17--------------------7/10----10G|----------14-16----14-16-------16------------------------------------------------D|----14-16-------16---------------------------------------------------------------A|-16------------------------------------------------------------------------------E|---------------------------------------------------------------------------------9:51 Play a D trill starting on the following notes:
E|-12-14-12-14-12-14-12-14-12-14-12It looks like this:
E|-12p10----14p10----12p10----..etc..-B|-------10-------10-------10-.......-G|------------------------------------D|------------------------------------A|------------------------------------E|------------------------------------9:55
E|-14\----------------------------------------------------------10---B|----------7----------8b10-7h8p7-8-7---------7-8---7-8-10---------10G|--------------9b11-7----------------7---7-9-----9--------9/11------D|------5/7---7-------------------------9----------------------------A|------7/9----------------------------------------------------------E|-------------------------------------------------------------------10:01 Repeat the trill above, this time starting at:
E|-12-14-12-14-12-14-12-14-12-14-15-14-12-14Continue:
10:06
Em
(*)
E|-------12----14p12----16p12----14p12----15p12----17p12----15p12----14p12----15p12----14p12---B|-10/12----12-------12-------12-------12-------12-------12-------12-------12-------12-------12G|---------------------------------------------------------------------------------------------D|---------------------------------------------------------------------------------------------A|---------------------------------------------------------------------------------------------E|---------------------------------------------------------------------------------------------(*) I think Trey intended a 15 and slipped
10:09
6x
2x
E|-14b15-12-15-12-14-12-------12------------14-17-14-------15----15-|-19p15----|-17p15----|B|----------------------15b17----15/17---15----------15/17----17----|-------17-|-------17-|G|------------------------------------------------------------------|----------|----------|D|------------------------------------------------------------------|----------|----------|A|------------------------------------------------------------------|----------|----------|E|------------------------------------------------------------------|----------|----------|10:16
D
E|-17\-------14----14B|-----14/15----15---G|-------------------D|-------------------A|-------------------E|-------------------10:17 Now start a D trill, starting at:
E|-17-17-17-17-19-17-16-17-15-17-15-17-19-17-15-18-17-15-17-17-17-17-15-

It looks like this:


E|-17p14----174p14---..etc..-17p14----15p14---B|-------15-------15-.......-------15-------15G|--------------------------------------------D|--------------------------------------------A|--------------------------------------------E|--------------------------------------------10:24
BbMaj7
E|-17/19~~-------20\13-18-15------------------------------------B|---------------------------18\15/18-15------------------------G|---------------------------------------17\15-15\13------------D|---------------------------------------------------16\11/14\11A|---------15/19------------------------------------------------E|--------------------------------------------------------------10:30
A
E|-----------9--------------------14-17-14-15-14----14------------------------------------------B|------9-10-10-12-10----------15----------------14----15-17-14-15----14-15-17p15p14-15-14------G|-9-11------9-----------14-16-------------------------------------16----------------------16-14D|--------------------16------------------------------------------------------------------------A|----------------------------------------------------------------------------------------------E|----------------------------------------------------------------------------------------------10:36 D
E|----------------14-17-14----14-15-14-------14----------------------14------------------B|----14-------15----------15----------17b19----17-15-------------15----17-19\17-15-17-15G|-------14-16----------------------------------------14----14-16------------------------D|-------------------------------------------------------16------------------------------A|---------------------------------------------------------------------------------------E|---------------------------------------------------------------------------------------10:41
E|-------17b19b17----------------------17b19b17----------------------------14-------14-15-17B|----15----------------17b19b17----------------------17b19b17-------15-17-------15---------G|-14-------------14-14----------14-14----------14-14-------------14----------16------------D|-------------------------------------------------------------16---------------------------A|------------------------------------------------------------------------------------------E|------------------------------------------------------------------------------------------10:46 Now play Solo 3 one more time, and then:
D D/C Bm7 Bb7+13 Eb Eb/Db Cm7 B7+13 E E/D C#m7 C7+13
E|---------7-------------------8---------------9--------B|--7--7---7---8-----8---8-----8----9---9--9---9----10--G|--7--7---7---7-----8---8-----8----8---9--9---9----9---D|--7--7---7---6-----8---8-----8----7---9--9---9----8---A|--5----------------6------------------7---------------E|-----8---7---6---------9-----8----7------10--9----8---The final crescendo is played over a B and ends on an E.
Start at B (in the Woodbury video Trey starts at Bb) and move your hand one fret up
each time you strum:
B
E
E|----------------|-24-|- slide down.
B|-4-5-6-19-20-21-|-21-|G|-4-5-6-...-19-20-21-|-21-|D|-4-5-6-19-20-21-|-21-|A|-6-7-6----------|----|E|----------------|----|As you go higher up the fretboard, at around the 15th fret you stop playing the lower
note on the A string, so you're left with just your index finger on the D-G-B strings.
The speed at which you strum and move up gradually get faster - listen to a recording
to get the right feel for this.

Dog Faced Boy


Chord formations (mostly the usual):
C G Am F E7 G7 Bb C7 D
E|-0--3--0--1-0--1-----0--2B|-1--0--1--1-3--0--3--1--3G|-0--0--2--2-1--0--3--3--2D|-2--0--2--3-2--0--3--2--0A|-3--2--0--3-2--2--1--3---E|(3)-3-----1-0--3---------Intro (Get a feel for the picking pattern, note alternating bass in ALL C chords
in this song):
C
G
C
E|-0-----------3-----------0-----------0----B|---------1-----------0-----------1--------G|-----0-----------0-----------0------------D|---2-------2---0-------0---2-------2------A|-3-----------------------3-----------3----E|-------3-----3-----3-----------3----------C
G
Am
I can't spare a moment on the dog faced boy
F
G
C
I won't lend another hand to the worm-girl of Hanoi
E7
F
Don't deplete my oxygen for the guy who's turning blue
C
G
C
But ask me, and I'll do anything for you
C
Whenever I think
G7
Whenever I think
Bb
before I gave it
C
Well, I lied and

G
G7
of you it only makes me feel sad
C
of you, the best friend I ever had...
C
up all for nothing

I cheated
G G7
And it made me feel bad
G7
It made me feel guilty for not being true
Oh the months I spent trying for a way to explain
C
In the end all I could do was turn my head in shame
C
C7
F
D
Whenever I think of you, oh darling, it makes me feel sad
G7
Cause you deserve better and once I was it
C
Somehow my good intentions just got up and git
F
G
C
So I can't spare a moment on the dog faced boy
F
G
C
I won't lend another hand to the worm-girl of Hanoi
E7
F
Don't deplete my oxygen for the guy who's turning blue
C
G
C(*)
But ask me, and I'll do anything for you
(*) Played like this:
C
E|-0---------0---------12-B|---------1----(5)----13-G|-----0--------(5)-------D|---2--------------------A|-3---------3------------E|-------3-----------------

(this page left intentionally blank)

Dog Log
Intro & Main Theme:
Em
e----x-x---x---x---xB----x-x---x---x---xG----x-x---x---x---xD----x-x---x---x---xA----x-x---x---x---xE--0-x-x-3-x-2-x-1-x- x=rake
now that's more or less the bass, you can use it for the guitar too,
but this is more appropriate:
Em
e------------------------B------------------------G-----0-----0-----0-----0D-----2-----2-----2-----2A-----2-----2-----0-----0E--0--0--3--3--2--2--1--1and you down pick the bass note and up strum the chord
do this progression over:
Em
Walk across the lawn, lawn, lawn, lawn, lawn, lawn, lawn, lawn
Em
Walk across the lawn, lawn, lawn, lawn, lawn, lawn, lawn, lawn....then:
Am
e------------------------B-----1-----1-----1----1--G-----2-----2-----2----2D-----2-----2-----x----xA---0-0---3-3---2-2--1-1E------------------------Walkin cross the lawn, walking cross the lawn lawn lawn
Em
Walk across the lawn, lawn, lawn, lawn, lawn, lawn, lawn, lawn
Bm Bm Bm - Am
Walking cross the lawn, wonderin where my dog done gone
Stepped upon a log, log, log, log, log, log, log....
then comes a quick jam over Em then a quick jam in Am
then this quick progession:
E > A > G#m* > F#m* x4
then
A > G > D > A
then the last cool progression:
E > G > F# > F (with the weird strumming)
and then back into the origional part up top.

Down With Disease


Mike starts, then Trey comes in with a D#9 chord on beats 2 and 4. he
does the chords for 3 measures and then slides from an F chord to a G.
So you do the three hits on D7#9, then F to G.

Lets call this part I.

ARRANGEMENT:
Part I twice, then let Mike do his few measures, then kick in with part I
one more time before cutting to a verse:
A----(let chord ring, pray for sustain)
part I twice
A----(same as above)
part I one and a half times; second tome through, don't play the F/G,
instead, take the D#9 chord, and play, on the repeated line:
D#9
C##9 C7
"dancing on my lawn"
Chorus:
A / A / G / D / G / D / G / C
2x
"stop stop..."part: A / A / G / D

2x

Do another verse, then another chorus, and another "stop" part. then
there's a guitar solo over:
C / D / C / D / C / D / E / E
2X
== Guitar Leads(Album Version) ==
h - hammer on
p - pull off
b - bend
r - release(at end of bend)
/ - slide into from below
\ - slide out from above
~ - vibrato
1st lead after 2nd chorus section:
E||---------|----------------------------|
B||---------|--5----5-------7-------8----|
G||---------|--5----5-------7-------7b9--|
D||---------|--5----5-------7------------|
A||-----5/7-|-----------7/9--------------|
E||---------|----------------------------|
E-----------------------------|-----8-----8-------10--------------|
B-------8----------7----------|-----------------------------------|
G-------7b9r7--5---7----------|--/9---9-9-----9/11---11-11\-------|
D----------------7-7----------|-----------------------------------|
A-----------------------------|-----------------------------------|
E-----------------------------|-----------------------------------|
E--12----------12--------------|--------------------------|
B--15b~--------15b~------------|--5----5------7----7------|
G------------------------------|--5----5------7----7------|
D------------------------------|--5----5------7----7------|
A--------------------------5/7-|----------7/9-------------|
E------------------------------|--------------------------|
E-----8-----8--------10---10---------|-----------------------------------|
B--------------------13b--13b--------|--------5---------5-----7----------|

G--/9---9-9-----9/11-----------------|--------5---------5-----7----------|
D------------------------------------|--------5---------5-----7----------|
A------------------------------------|---6h-7---7p-6h-7---7/9---9\-------|
E------------------------------------|-----------------------------------|
E------------------------------|-------------------|
B--15b~------------------------|-----8\------------|
G------------------------------|-----7\------------|
D------------------------------|-----6\------------|
A------------------------------|-----7\------------|
E------------------------------|-------------------|
Outro solo(after 3rd chorus section):
E------------------------|--------------------------------|
B----------14------17----|------------------15~-----------|
G------14--14------16b18-|-r16----16-14-------------------|
D--16------14------------|--------------16----------------|
A------------------------|--------------------------------|
E------------------------|--------------------------------|
E-----15-15-15-15-15-15-15-15-14--------------|
B-/15----------------------------15-----------|
G---------------------------------------------|
D---------------------------------------------|
A---------------------------------------------|
E---------------------------------------------|
E-----15-15-15-15-15-15-15-15-14-----17b19r17~----|
B-/15----------------------------15---------------|
G-------------------------------------------------|
D-------------------------------------------------|
A-------------------------------------------------|
E-------------------------------------------------|
This will be the lick that repeats for the rest of the song:
E|-----------------------------------|----------------------------|
B|---------14------------------17----|------------------15~-------|
G|*--------14----------14---14-16b18-|-r16----16-14---------------|
D|*--------14---14h-16---------------|--------------16------------|
A|-----------------------------------|----------------------------|
E|-----------------------------------|----------------------------|
E-----15-15-15-15-15-15-15-15-14--------------|
B-/15----------------------------15-----------|
G---------------------------------------------|
D---------------------------------------------|
A---------------------------------------------|
E---------------------------------------------|
E-----15-15-15-15-15-15-15-15-14-----17b19r17~-----||
B-/15----------------------------15----------------||
G-------------------------------------------------*||
D-------------------------------------------------*||
A--------------------------------------------------||
E--------------------------------------------------||
The very last time through, it ends like so:
E-----15-15-15-15-15\------------------------||
B-/15-----------------/5---------------------||
G---------------------/5---------------------||
D---------------------/5---------------------||
A---------------------/3---------------------||
E--------------------------------------------||

Drifting
Intro
G F C
Verse

(Trey inverts these some too in the Intro)


G

Am*

Ive seen trey use a C in place of the Am* on some live stuff,
but I think Am sounds better, jut play whatever sounds better to you
G
F
I've been drifting,

Am*

G
for years at sea

F Am G

Chorus (Pretty much Am>D, throw in descending bass notes to fill out the sound)
Am
D/F#
Am
Am/G
D/F#
The fog is lifting, we got the moon and the stars abooove
Solo over G F Am G
Lyrics:
I've been drifting for years at sea
But now, you've come along to rescue me
And the fog is lifted
We got the moon and the stars above
Since you came along
(Love, love, love)
I'm back where I belong
(Love, love, love)
Since you rescued me
(Love, love, love)
The whole world is there to see
'Cause the storm is lifted
We got the moon and the stars above
And in mornin' it's plain to see
Smell coffee in the air you're here with me
I'm walkin' down the street
(Love, love, love)
The sun beams down
The grass is cool beneath my feet
(Love, love, love)
My head is spinnin' round and round and round
'Cause the storm is lifted
We got the moon and the stars above
Stars above
Stars above
Stars above

Drowned
Verse Riff:
e|-8--8--8--8-----|
B|-5--6--8--6-----|
G|-5--5-----5-----|
D|-5--7--8--7-----|
A|----------------|
E|----------------|
Chorus:
G, then back into the Verse riff
There are men high up there fishing,
Haven't seen quite enough of the world,
I ain't seen a sign of my heroes,
And I'm still diving down for pearls.
Let
Let
Let
Let

me flow into the ocean,


me get back to the sea.
me be stormy and let me be calm,
the tide in, and set me free.

I'm flowing under bridges,


Then flying through the sky,
I'm travelling down cold metal
Just a tear in baby's eye.
Let
Let
Let
Let

me flow into the ocean


me get back to the sea
me be stormy and let me be calm
the tide in, rush over me.

I am not the actor


This can't be the scene
But I am in the water,
As far as I can see...
I'm remembering distant memories
Recalling other names.
Rippling over canyons,
And boiling in the train.

Energy
Apples in Stereo Cover
B
F#
And the world is made of energy
C#
E
And the world is electricity
B
F#
And the world is made of energy
C#
E
And there's a light inside of you and there's a light inside of me
G#m
F#
E
It's gonna be
alright
G#m
F#
E
It's gonna be alright,
uh huh yeah
G#m
F#
E
We're gonna see
the sunlight
G#m
F#
E
We're gonna see the sunlight,
uh huh yeah

Full Lyrics:
And the world
and the world
and the world
and there's a
and there's a

is made of energy
is electricity
is made of energy
light inside of you
light inside of me.

And
and
and
and
and

is made of energy
is synchronicity
is made of energy
light inside of you
light inside of me.

the world
the world
the world
there's a
there's a

Chorus:
Its gonna be all right
Its gonna be all right uh huh yeah.
Were gonna see the sunlight
Were gonna see the sunlight uh huh yeah.
And
and
and
and
and

the world
the world
the world
there's a
there's a

is made of energy
is possibility
is made of energy
light inside of you
light inside of me.

Ether Sunday
Most of the song, one guitar part just kind of hits
the following with the beat of the song:
E--13---- OR
B-------G-------D-------A-------E--------

--13----- OR
--13------10-----------------------------

--13------10------10-----------------------------

The chords are hit lightly and are really carried more by the
piano and horn and reed section, but you can just strum them
The basic chord progression is as follows:
Verse:
F A#

Chorus:
Dm A# F A#
Dm A# C
(Verse)
F
A#
C
Sunday morning, shadows on the shade
F
A#
C
Yellow dusted fingers been (bent?) through day old lemonade
F
A#
C
Sounds of breathing, the birds singing in the trees
F
A#
C
Beautiful morning, there's no place I'de rather be
(A little mix of the guitar and horn/reed part):
F
F
A#
C
E-------------------------------------------------------B-10-----------------------------10-----10/11-10------10~
G-10------10---------------------10--10-----------12----D---------10----12/10--10--------10--10-----------------A-------------------------------------------------------E-------------------------------------------------------F
F
A#
C
E-------------------------------------------------------B-13----------------------------------10/11-10-------10~~
G-10--10-----------------------10--10----------12-------D-10------12/10--10~~~~~-------10--10-------------------A-------------------------------------------------------E-------------------------------------------------------(Verse)
F
A#
C
I sit right down and I rest a while, by a shady tree
F
A#
C
Golden robes(rolls?) of summer stretched as far as I can see
F
A#
C
Sounds of music are rippling through my head
F
A#
C

(Hemme?)'s in the kitchen, the captain's still in bed


(Chorus)
Dm
A#
Cuz life is just a funny dream
F
A#
And someday, I'll share this dream with you
Dm
A#
Just to be with you
A#
C
This much I pray
F
It's
F
It's
F
It's
F
It's

A# C
true!
A# C
true
A# C
true
A# C
true

Solo:
F
F
A#
C
E-----------------------------------------------------------B--/10--10--------------------------------------------------G-----------12--10--10~~~---------10----10----12/14--12~~~~-D------------------------------12----12---12----------------A-----------------------------------------------------------E-----------------------------------------------------------F
F
A#
C
E-----------------------------------------------------------B-13-------13------13---------------------------------------G----12h14---12/14------14--12--10------10--10--------------D-----------------------------------12--------12--12--12/10~A-----------------------------------------------------------E-----------------------------------------------------------F
F
A#
C
E-----------------------------------------------------------B-----------------------------------------------------------G14/-big slide----/10~~~----------10----12/14---12~~~~~-----D-----------------------------12----12----------------------A-----------------------------------------------------------E-----------------------------------------------------------F
F
A#
C
E-----------------------------------------------------------B--13-------------------------------------------------------G----14/12-12-10--------------------------------------------D----------------12------10---------------------------------A-------------------12-13--12/13---12/13~~~--12-13--15~~~~~-E-----------------------------------------------------------Dm
A#
Life is just a funny dream,
E--------------B--------------G-------12~~~~~D-8/12---------A--------------E---------------

F
A#
and someday,
I'll share this dream with you
E-------------------------B---------------10/11\10--G------------12-----------D-------------------------A-------------------------E-------------------------Dm
A#
Just to be with you,
A#
C
this much I pray
F
A# C
It's true!
F
It's
It's
It's
It's
It's

A# C
true
true
true
true
true

Farmhouse
Intro:
E
B
G
D
A
E

|--------8------|
|------8--------|
|---/9----------|
|---------------|
|---------------|
|---------------|

C
G
Am
F
Welcome this is a Farmhouse we have cluster flies alas
G
C
G
And this time of year is bad
C
G
Am
F
C
We are so very sorry, but there's little we can do
G
C G
But swat them

Verse 1:
Am
G/B
She didn't beg oh, not enough
C
F
She didn't stay when things got tough
Am
G/B
I told a lie and she got mad
C
G/B
C
She wasn't there when things got bad
Chorus:
C
G
I never ever saw the northern lights
Am
F
I never really heard of cluster flies
C
G
Never ever saw the stars so bright
Am
F
In the farmhouse things will be alright
Solo:
E
B
G
D
A
E

|--------------------------------------------------------------------|
|----------5h6p5-----5-------8b10r---8-------------------------------|
|---7b-~----------5--------------------7----5---5------------5-5-----|
|-----------------------5---------------------7------5--5/7----------|
|--------------------------------------------------------------------|
|--------------------------------------------------------------------|

E
B
G
D
A
E

|-----------------------------------------10b12r---10h12p10--8-------|
|--------------------------8--8-------8------------------------------|
|---5-----7b9r--5-----7/9---------9----------------------------------|
|------7-----------7-------------------------------------------------|
|--------------------------------------------------------------------|
|--------------------------------------------------------------------|

E
B
G
D
A
E

|-----8-------------------------15-----------------------------------|
|---8---8--13b15--13-----15b17------(17)--(17r)--13---15b17--(17r)---|
|--------------------12----------------------------------------------|
|--------------------------------------------------------------------|
|--------------------------------------------------------------------|
|--------------------------------------------------------------------|

E
B
G
D
A
E

|--------------------------------------------------------------------|
|--p13----------13-----------13-13-13-10--13--10--15--15\13--10------|
|-------14--12---------12/14-------------------------------------12--|
|-------------------14-----------------------------------------------|
|--------------------------------------------------------------------|
|--------------------------------------------------------------------|

Verse 2:
Am
G/B
Woke this morning to the stinging lash
C
F
Every man rise from the ash
Am
G/B
Each betrayal begins with trust
C
G/B
C
Every man returns to dust
Interlude:
E
B
G
D
A
E

/Heavy Wah\
|--------------------------------------------------------------------|
|---13---------------------------------------------------------------|
|---12---12---12p10---------10--------------10------12b14r-p10-------|
|--------10---10-----12p10--10--10---10/12------12--------------12---|
|--------------------------------------------------------------------|
|--------------------------------------------------------------------|

E
B
G
D
A
E

|--------------------------------------------------------------------|
|-------------------------------------------------10--13-13--10------|
|---12---12--12--12p10---------/7--7/9--12-12--9---------------------|
|---10---10--10--------12p10-----------------------------------------|
|---10---10--10------------------------------------------------------|
|--------------------------------------------------------------------|

E
B
G
D
A
E

|------------------------------------|
|---13b15r--10------10--13-----------|
|--------------12-----------12-------|
|-------------------------------10---|
|------------------------------------|
|------------------------------------|

Outro Solo:
E
B
G
D
A
E

|--------------------------------------------------------------------|
|----------------------10p8-8p5--~5----------------------------------|
|----------12b-r--12b-----------------5-----7b9r/9--9h10--9h10p7-----|
|----12b---------------------------------7---------------------------|
|--------------------------------------------------------------------|
|--------------------------------------------------------------------|

E
B
G
D
A
E

|--------------------------------------------------------------------|
|---------------------/17--15--17--17-----17b18--(18)r-14----17------|
|---7-9------/14-\12--------------------------------------16----17---|
|--------------------------------------14----------------------------|
|--------10----------------------------------------------------------|
|--------------------------------------------------------------------|

E
B
G
D
A
E

|--------------------------------------------------------------------|
|--------------------------------------------15b17~--17--18--20------|
|---/14--17--17-14----17p14------14----------------------------------|
|----------------------------17------14------------------------------|
|----------------------------------------15--------------------------|
|--------------------------------------------------------------------|

E
B
G
D
A
E

|-------------20---17------------------------------------------------|
|--17-20b22r-----------20--------------------------------------------|
|--------------------------19---17----17--19/21---21-21-21\19-17-----|
|----------------------------------19----------------------------17--|
|--------------------------------------------------------------------|
|--------------------------------------------------------------------|

E
B
G
D
A
E

|-------------20--17-------------------------------------------------|
|---20b22r------------20--17----------------17----------17-----------|
|-----------------------------19--17h19b21-----19b-19b-----19b-19b---|
|--------------------------------------------------------------------|
|--------------------------------------------------------------------|
|--------------------------------------------------------------------|

E
B
G
D
A
E

|--------------------------------------------------|
|-----------------------------17-18--20~--20b22r---|
|---19--17---19p17------19b------------------------|
|------------------h17-----------------------------|
|--------------------------------------------------|
|--------------------------------------------------|

Fee
Cm Abm
Bbm
Gbm
Gbm7
Db Ab
E|--3----4-----1------2------5-----0---4|
B|--4----4-----2------2------5-----6---1|
G|--5----4-----3------2------6-----6---1|
D|--5----6-----3------4------4-----6---1|
A|--3----6-----1------4------0-----4---x|
E|--x----4-----x------2------x-----0---x|
intro/verse
In the (Cm)cool shade of the (Abm)banana tree
On the (Bbm)rugged trail toward the (Gbm)balcony
A (Gbm7)child of the twentieth (Db)century
A (Ab)dried up Goliath and a weasel named Fee
Far away in another place
A fading beauty named Milly Grace
A gospel singer with pox on her face
And a bamboo cane to help her keep the pace
Fee was a Buddhist prodigy
Long past the age of maturity
Someday he knew it would set him free
Like it did for Floyd the chimpanzee
chorus
(Eb)Oh, Fee(Bb), you're (Db)trying to live a life That's (Ab)completely free.
You're (Eb)racing with the wind You're (Bb)flirting with death
So (Gm7)have a cup of coffee And (Ab) catch your breath
Piano solo after the chorus: Cm Bb Ab Eb Fm7 Cm7 Bb
Fee first met Milly in a bar in Peru
His heart was jumping like a kangaroo
Like a beast in a cage in an old Dutch zoo
It was hopping and thumping in wooden shoes
But Floyd was jealous and alone
He wanted Milly for his own
A desperate craving in his bones
"Their love", he said, "I will not condone."
Then one day on a ship to
Quebec Floyd found Milly on a lover's trek
He picked up a bottle and broke off the neck
It sliced through the air, and Fee hit the deck
Oh, Fee, you're trying to live a life that's completely free
You want to stay with Milly until you're dead
But you just got a bottle upside your head
Milly turned and began to scream
At Floyd, she said "You think you're pretty mean"
And though she was as thin as a small string bean
She slammed him in the face with a nectarine
Floyd fell back over the edge of the ship
Till he hung from the rail by his fingertip

said, "Floyd I'll make you lose your grip


With this tiny piece of paper I can make you slip"
So Milly took that paper and did the deed
Floyd hit the water with astonishing speed
And as the sharks circled and began to feed
Milly knew her weasel was finally free
Oh, Fee, you're trying to live a life that's completely free
Floyd is dead; he's nothing but a ripple
Cause Milly took that paper and sliced him on the nipple

live (key of Bm) verse:


Bm Bb6 Am Fm Fm7 C G
E|--2---3----3---1---1---0--3--|
B|--3---3----1---1---4---1--0--|
G|--3---3----0---1---1---0--0--|
D|--4---3----2---3---1---2--0--|
A|--2---1----0---3---3---3--2--|
E|--x---x----x---1---1---x--3--|
live chorus:
D
A
C
G
D
A
C
Gmaj9
E|--2---0----0---3---2---0---0---2-or-3-|
B|--3---2----1---3---3---2---1---3-or-0-|
G|--2---2----0---0---2---2---0---2-or-2-|
D|--0---2----2---0---0---2---2---0-or-0-|
A|--x---0----3---2---x---0---3---x-or-0-|
E|--x---x----x---3---x---x---x---3-or-3-|
live piano section chords: Bm,A,G,D,Em7,Bm,A

First Tube
e--------------------------------------------------------B--G-7
9 7 7 10 9 9
7 7
-D-- 7 7 10 9 9
10 10
10
9 10 10 7 -A--7
7-E--------------------------------------------------------e--------------------------------------------------------B--G-7
9 7 7 10 9 9
7 7
-D-- 7 7 10 9 9
10 10
10
9 7
-A--7
-E--------------------------------------------------------e--------------------------------------------------------B--G-7
9 7 7 10 9 9
7 7
-D-- 7 7 10 9 9
10 10
10
9 10 10 7 -A--7
7-E--------------------------------------------------------e--------------------------------------------------------B--G-7
9 7 7 10 9 9
7 7
-D-- 7 7 10 9 9
10 10
10
9 7
-A--7
-E--------------------------------------------------------e--------------------------------------B--G--D-- 7 7
7 7
7 7
7 7
7 7
7 7-A--7
7
7
7
7
7
-E--------------------------------------e--------------------------------------------------------B--G-7
9 7 7 10 9 9
7 7
-D-- 7 7 10 9 9
10 10
10
9 10 10 7 -A--7
7-E--------------------------------------------------------e--------------------------------------------------------B--G-7
9 7 7 10 9 9
7 7
-D-- 7 7 10 9 9
10 10
10
9 7
-A--7
-E--------------------------------------------------------At this point there is a change.

Trey hits a very loud Em

First Part
E-----X----------------B-----X----------------G-----X-----------------(7 slide to 9)
D-----2-----------------(7 slide to 9)
A-----2----------------E-----0-----------------

(or E5)

like this

I do the slide with my


this 6 times.

right hand while I hold the Em with my left.

Then back to the main theme for a while.

I do

Do some loops if you've got 'em.

THen...
Horse Chord!!
E-(0)-B--0--G--5--D--7--A--0--E-----E---0-------------------------------0----B---0-------------7------8----------0----G---5-------------7------9----------5----D---7-------------7-----10----------7----A---0-------------0-----0-----------0----E----------------------------------------At the end of this segment Trey plays a staccato A octave way up on the neck.
I am not sure if he does this with a delay loop, or if he is really hitting
each stroke - it's very weird!
E-----17
B-----X
G-----14
D-----X
A-----12
E-------then back to the main theme a few times...
(A-D/F#) Now it gets fun. Alternate between these two chords:
A D/F#
E|--0----0--|
B|--2----3--|
G|--2----2--|
D|--2----4--|
A|--0----0--|
E|----------|
This is where the jam starts. You can move these chords up an octave,
and experiment on the neck. Trey uses a backwards-guitar effect here.
This is a great jam, so enjoy it!

Fluffhead
Some chords that are useful:
C(I) D9/11(I) G6(I)
F2(I) G(II) F2(II)
P
P
P
P
E|--0--------0------10-------8------3------3-B|--1--------3-------8-------6------0------1-G|--0--------0-------0-------0------0------2-D|--2-3-2----4-5-4---9-10-9--7-8-7--0------3-A|--3--------5------10-------8------2--------E|----------------------------------3--------The actual motion at the start of the song is more like this.
E------------------------------------10-----------8----------------------------------3--3-B--1-----------3---------------8------------6------------1--------------3------------3--3-G--0-----------------------------0------0-----0-----0--------------------------------0--0-D--2--3-2--------4---5-4-----------9------------7----------2---3-2--------4---5-4----0--0-A--3------3--5-----5-----5--10------------8------------3-----3-----3--5-----5-----5--2--2-E------------------------------------------------------------------------------------3--3-The additional notes shown after each chord rock up and back to the
sus-4 version of the chord; listen to the song and you'll hear where
that note goes.
Intro
|: C(I) D(I) G(I) F(I) :| (4x)
G(II) F2(II) 4x
Verse
G(II)
F2(II) G(II)
F2(II)
Fluffhead was a man
G(II) F2(II) G(II)
F2(II)
With a horrible
disease
G(II)
F2(II) G(II)
F2(II)
Could not find no cure
G(II)
F2(II) G(II)
F2(II)
Won't you help him if you please?
C(I) D(I) G(I) F(I) C(I) D(I) G(II)
Fluff-Head!
C(I) D(I) G(I) F(I) C(I) D(I) G(II)
Fluff-Head!
Next verses just like the first:
Fluff came to my door
Askin' me for change
His eyes were clear and pure
But his mind was so deranged
C(I) D(I) G(I) F(I) C(I) D(I) G(II)
Fluff-Head!
C(I) D(I) G(I) F(I) C(I) D(I) G(II)
Fluff-Head!
Fluff went
Askin' for
The banker
But I sure

to a banker
some bills
said, "I ain't got that
got some powerful pills."

C(I) D(I) G(I) F(I) C(I) D(I) G(II)


Fluff-Head!
C(I) D(I) G(I) F(I) C(I) D(I) *A
Fluff-Head!

Fluffhead Ending /'Travels Begining


*A D (4x) |
e|-0---------|-----------9-10B|-0--10-----|------10-12----G|-6--7------|-11-12---------D|-7--0------|---------------A|-0---------|---------------E|-----------|----------------

Fluffs Travels
These are played twice:
H
E|-------------9-10----12-10-9----------9--9-10-9------------------|
B|-------10-12-----------------10-------10---------------9-12------|
G|-11-12------------12------------11----11-------------9-----------|
D|-----------------------------------12-12-----------9-------------|
A|------------------------------------------------11---------------|
E|-----------------------------------------------------------------|
H
E|-9-------------------------|
B|---12------------10--------|
G|---------------9-----------|
D|------11----11---------11--|
A|---------12---------12-----|
E|---------------------------|
Then the following phrase and chords are repeated twice:
E|----------------|
B|----------------|
G|---------4------|
D|---4-6-7--------|
A|-7---------7----|
E|----------------|

|: E A A/B E A A/B E A A/B D :|

Then this twice:


E|--------7-8-7-----|
B|-7-8-10-------8---|
G|----------------7-|
D|------------------|
A|------------------|
E|------------------|

G C D G C D G C D C D

The fingerings are:


C
D G
E:-3---5--10-|
B:-1---3--8--|
G:-0---0--0--|
D:-2---4--9--|
A:-3---5--10-|
E:-----------|
^
E|-----------------------------------------------5-8-0-----------|
B|-3-----------------------3-----3-----3-6-0-3-6-----1-----------|
G|---------------2-----2-4---2-4---2-4---------------0-----------|
D|-----0-3-3-0-3---0-3-------------------------------2-----------|
A|---2-----------------------------------------------3-----------|
E|---------------------------------------------------0-----------|

The Chase:

(1:09)

E|-------------------------------------------------------|
B|-------------------------------------------------------|
G|-5-2-0-4-0---0-----------------------------------------|
D|-----------3---2---0-3-2-----3-0---2-3-2-3---3-0---2---|
A|-----------------3-------3-1-----1---------1-----1-----|
E|-------------------------------------------------------|
E|-----------------|
B|-----------------|
G|-2---0-----------|
D|---3---2-3-0-2---|
A|---------------3-|
E|-----------------|
rake
E|-12-10-------------------------------------------|
B|-X-----11-8--------------------------------------|
G|-X----------10--------------10-7----9-7---5------|
D|-X-------------10-8------10------10-----8---7----|
A|--------------------10-8-------------------------|
E|-------------------------------------------------|
E|-------------------------|
B|-------------------------|
G|-------------------------|
D|---5-8-7-----8-5---7-8-7-|
A|-8-------8-6-----8-------|
E|-------------------------|
E|-----------------0-2-3-0---2---------------------|
B|-------------------------3---3-1-3-0-----1-0-----|
G|-------------2-4---------------------0-2-----0---|
D|-5-4-----0-2-----------------------------------3-|
A|-----0-2-----------------------------------------|
E|-------------------------------------------------|
E|--------------------------------------------------------------------|
B|--------9-8-----------5-4-------------------------------------------|
G|---8-10-----8-6-3-4-6-----4-2-------5-4-----5-2---4-5-4-5---5-2---4-|
D|-10---------------------------4-5-7-----5-3-----3---------3-----3---|
A|--------------------------------------------------------------------|
E|--------------------------------------------------------------------|
E|-------------------------------------------------------|
B|-------------------------------------------------------|
G|-5-2-0-4-0---0-----------------------------------------|
D|-----------3---2---0-3-2-----3-0---2-3-2-3---3-0---2---|
A|-----------------3-------3-1-----1---------1-----1-----|
E|-------------------------------------------------------|
|--Half time->
E|-----------------------------------------0---2---------------------|
B|-------------------------------------------3---3-1-3-0-----1-0-3-0-|
G|-2---0-----------2-0-4-0---0-----------0---------------0-2---------|
D|---3---2-3-0-2-----------3---2---0-3-2-----------------------------|
A|---------------3---------------3-----------------------------------|
E|-------------------------------------------------------------------|
|--Full Speed->

E|-----------------------------------------------------------------|
B|---2-------------------------------------------------------------|
G|-2---2-0-2-------0---2-0-------4-----2-------------0-----5-2-0---|
D|-----------4-0-2---4-----2-4-0---5-4---5-4-0-4-0-2---4-0---------|
A|-----------------------------------------------------------------|
E|-----------------------------------------------------------------|
E|-----------------------------------------------------------------|
B|---------------------------------2---------------4---------------|
G|-3-2-----4-5-2-0-4-0---0-----4-2---2---2-----6-4---4---4---------|
D|-----2-3-------------3---2-0---------5---4-2---------7---6-4-----|
A|-----------------------------------------------------------------|
E|-----------------------------------------------------------------|
E|----------------0---2--------------------------------------------|
B|-----5------------3---3-1-3-0-----1-----0------------------------|
G|-8-6--5---5-------------------0-2---2-0---0---0------------------|
D|--------8---7-5-----------------------------3---2---0-3-2--------|
A|--------------------------------------------------3--------------|
E|-----------------------------------------------------------------|
E
E|---------------------------------------------------------------0-|
B|---------------------------------------------------------------0-|
G|--------------------------------2---0--------------------------1-|
D|-----3-0---2-3-2-3---3-0---2------3---2-3-0-2---0--------------2-|
A|-3-1-----1---------1-----3--------------------3---2-3-0-2------2-|
E|----------------------------------------------------------3-0--0-|
Who Do? We Do!:

(2:21)

E|------------16----------------------------14-15-17-18-20--|
B|----14-15------14-12-------------14-16-17-----------------|
G|----------13---------13-----------------------------------|
D|-16---------------------14----16--------------------------|
A|---------------------------16-----------------------------|
E|----------------------------------------------------------|
Then this phrase seven times:
E|-21-19--------|
B|-------19-----|
G|----------18--|
D|--------------|
A|--------------|
E|--------------|
E|16----------------------------------------15----------14----------|
B|------------------------------------14-16----16-14-16----15-13-15-|
G|---13-12-------13-12----------12-14-------------------------------|
D|---------13-11-------13-11-13-------------------------------------|
A|------------------------------------------------------------------|
E|------------------------------------------------------------------|
/S
/S
/S
/S
/S
E|-14----------14----------------------------------------------------|
B|----15-13-15----15-13-------12-------13-------14-------15-------16-|
G|----------------------11-12----12-13----13-14----14-15----15-16----|
D|-------------------------------------------------------------------|
A|-------------------------------------------------------------------|
E|-------------------------------------------------------------------|
/S

/S

/S

/S

E|-----------------------------------------------------------------|
B|-------17-------18-------19-------20----------20-----------------|
G|-16-17----17-18----18-19----19-20----20-18-20----20-18-20-18-----|
D|-------------------------------------------------------------19--|
A|-----------------------------------------------------------------|
E|-----------------------------------------------------------------|
E|----------------------------------------------19-19-19-19--------|
B|-------------------19----------19--------------------------------|
G|----------------------19-17-19----19-17----18--------------------|
D|-17----------17-19----------------------19-----------------------|
A|----18-16-18-----------------------------------------------------|
E|-----------------------------------------------------------------|
Now these chords:
B
C#
C
D
E
F
E-7-7-7-7---9--9---8-|-10-10-10--12-12--13-13-13-|
B-7-7-7-7---9--9---8-|-10-10-10--12-12--13-13-13-|
G-8-8-8-8--10-10---9-|-11-11-11--13-13--14-14-14-|
D-9-9-9-9--11-11--10-|-12-12-12--14-14--15-15-15-|
A--------------------|---------------------------|
E--------------------|---------------------------|
F#m/C#?
E--14--14--14--14--14-|
B--14--14--14--14--14-|
G--14--14--14--14--14-|
D--15--15--15--15--15-|
A--16--16--16--16--16-|
E---------------------|

Hold one measure

4x
Em
F#m
G
A
E-------0--0-0-----2--2-2-----3--3-3---5-5--5-|
B----0--0--0-0-----2--2-2-----3--3-3---5-5--5-|
G----0--0--0-0-----2--2-2-----4--4-4---6-6--6-|
D----2--2--2-2-----4--4-4-----5--5-5---7-7--7-|
A----2--2--2-2-----4--4-4-----5--5-5---7-7--7-|
E--0----0--------2-2--2-2---3----3-3---5-5--5-|
7x
D
A
E C D
A
E C
Bb
C
E----||--5----------|-5----------6-6-6--8--8--8--8--8--|
G-7--||--5---9-5--7-|-5---9--5---6-6-6--8--8--8--8--8--|
B-7--||--6---9-5--7-|-6---9--5---7-7-7--9--9--9--9--9--|
D-7--||--7---9-5--7-|-7---9--5---8-8-8--10-10-10-10-10-|
A-5--||--7---7-3--5-|-7---7--3-------------------------|
E----||--5----------|-5--------------------------------|
Bb
C
D
Em
F#7?
E-6-6-6--8--8--8--8--8--|-10-10-10-10--12-12-12--14-14-|
G-6-6-6--8--8--8--8--8--|-10-10-10-10--12-12-12--14-14-|
B-7-7-7--9--9--9--9--9--|-11-11-11-11--12-12-12--15-15-|
D-8-8-8--10-10-10-10-10-|-12-12-12-12--14-14-14--14-14-|
A-----------------------|------------------------16-16-|
E-----------------------|------------------------14-14-|
B5
B
C#
C
D
E
F
E-------7-7-7-7---9--9---8--10-10-10--12-12--13-13-13-|
B-------7-7-7-7---9--9---8--10-10-10--12-12--13-13-13-|
G-------8-8-8-8--10-10---9--11-11-11--13-13--14-14-14-|
D--9-9--9-9-9-9--11-11--10--12-12-12--14-14--15-15-15-|
A--9-9------------------------------------------------|

E--7-7------------------------------------------------|
F#m/C#?
Gm/D?
G#m/D#?
Am/F? A#m/F? Bm/F#?
E-14-14-14-14-14--15-15-15-15--16-16-16--17-17--18--19-|
B-14-14-14-14-14--15-15-15-15--16-16-16--17-17--18--19-|
G-14-14-14-14-14--15-15-15-15--16-16-16--17-17--18--19-|
D-15-15-15-15-15--16-16-16-16--17-17-17--18-18--19--20-|
A-16-16-16-16-16--17-17-17-17--18-18-18--19-19--20--21-|
E------------------------------------------------------|
Clod
Music/Lyrics: Trey Anastasio
from Phish's "Junta"
Fluff's Travels - 4:12-7:21
{4:12}
Repeat 3 times:
*strum from top to bottom and slide barred finger midway thru
Bbm(13)*
A(b9)
Dm(9) [loop fx]
e----5----------------5--------------12-12-12----12-12-12----22\-B----8--------------5---5------------10-10-10----10-10-10--------G----5------------6-------6----------10-10-10----10-10-10--------D----7/8--------8-----------8--------10-10-10----10-10-10--------A----5/6------7---------------7----------------------------------E----5/6----6-------------------6--------------------------------{4:50}
Use these simple bar chords over the lyrics:
Dm
C
G
A
(x57765) (x35553) (355433) (577655)
Dm
Dm
C
Dm
Tipsy fuddled boozy groggy elevated prime did edit her
Dm Dm C
Dm
Hellborn elfchild roadhog mountain fortune hunter man beheaded her
G
A
Fat bulk expanse mass lump block clod
Dm
Dm
C
Dm
Tipsy fuddled boozy groggy elevated prime did edit her
{5:09}
This little jam consists of a measure in 4/4, two in 7/8, then another
in 4/4. There are some other weird things going on in with the rythym
but that count will get you through it.
Its over the following
chords, although Trey plays around with different voicings or trades
licks with Page.

Play this 3 times:

7bt measures
------- -----1-2-3-4-123456712345671-2-3-4Bbm(13) A(b9) Dm(2)
e----5------5-----5------------B----8------5-----6------------G----5------6-----7------------D----7/8----8-----7------------A----5/6----7-----5------------E----5/6----6------------------Then play the first two measures and on Dm go back to lyrics:
{5:34}
Dm Dm
C
Dm
Rabid victim martyr stranded level headed boy ya better bend
Dm
Dm
C
Dm
Soon your luscious honey sugar mellifluous life is gonna end
G A
Fat bulk expanse mass lump block clod
Dm Dm Dm
Rabid victim martyr stranded level headed boy ya better bend
{6:00}
Composed part:
Above each staff are the implied chords that I think Page plays as
well as the counts for each measure since the beat gets a little
screwy partway in there. What helps is that just about every note
here that Trey plays is a sixteenth note and so it keeps a steady
beat to play around.
1
1

2
1

3
1

4
1

2
3
Dm
C
e---------------------------------------------------------------B---------------------------------------------6-5---------------G---------------------------------5-7-5---7-------7-5-4---2-----D-----5---7---8-7-5---8---8---7-8-------5---5-----------5---3---A---5---5---5-------8---8---8---------------------------------3-E---------------------------------------------------------------5
6
^
^
1
2
3
4
1
2
3
4
->1
2
3
4
1
2
F
C
Eb
Bb
Am/C
e---------------------------------------------------------------B---------------------------------------------------------------G-----------2---3-2-----3---3---2-3-5-7---8-7-5-----5-7-8-7-5---D-------5-----------5-3---3---5---------7-------7-8-----------5-A---2/3---3---3-------------------------------------------------E---------------------------------------------------------------4

3
4
1
2
3
4
1
2
3
4
1
2
3
4
1
2
Am/C
Gm
Ab
e----------------------------------------------------------------B-------6-4------------------------------------------------------G---7-------7-5---------------3---5---7-5---------------7-8------D-----5---------7-8-7---5-7-5---5---------8-7-5---5-7-8-------8-6A---------------------8-------------------------5-----------6----E----------------------------------------------------------------3
4
1
2
3
4
1
2
3
4
Eb
Ab Db
e---------------------------------------------------------------B-------------------------xx8--xx--9-xx6------------------------G-------------------------xx8--xx--8-xx6------------------------D-----5-----------3---5---xx8--xx--10xx6------------------------A---8---6-8-4-3----------(6)------------------------------------E---------------4---6---8---------------------------------------[distortion on]
Eb
Ab
e-------------------------8---10--11----------------------13--15--16B-------------8---9---10----------------------13--14--16------------G-----8---10--------------------------13--15------------------------D---8---8---8---8---8---8---8---8---13--13--13--13--13--13--13--13--A-------------------------------------------------------------------E-------------------------------------------------------------------Gb B
e-----------------------11----------11--12--14--16B-----------11--12--14------12--14----------------G---11--13----------------11--11--11--11--11--11--D-11--11--11--11--11--11--------------------------A-------------------------------------------------E-------------------------------------------------C
Dm
e-----------12--13--15--16---------13------13--B---13--15---------------------15------15------G-12--12--12--12--12--12--12h14--14--14--14----D----------------------------------------------A----------------------------------------------E----------------------------------------------[distortion off]
*strum from top to bottom and slide barred finger midway thru
Bbm(13)*
e---5-------B---8-------G---5-------D---7/8-----A---5/6-----E---5/6------

{6:31}

Jam over chords:

(with various 7ths, 13ths and such)

Bbm A Dm Ddim G Cm Cdim F


Bbm(13)
This
just
some
know

(repeat once)

(as played before)

is my very
before the
folks with
is full of

quick attempt to fill in the missing bits of Fluffhead


"Bundle of Joy" section. Hopefully this will motivate
a better ear than I to correct my transcription Which I
mistakes. :)

-----------------------------------------------------------------------------------------------------------17---17-------17----------14--16----------------------14---14-----------14--16---------17--14----------------15---15---------------------------------------------------------------------------------------------Close as I could tell it is a Gdim chord moved up chromatically to Ddim.


Although this doesn't sound quite right.
-----------------------------------------12-13-14-15-14-13-12--------------------------------------------13-14-15-16----------------------16-15-14-13-----------------12-13-14-15-16----------------------------------------------16--13-14-15-16-----------------------------------------------------------------------------------------------------------------------------------------------------------------------------------------------------------------------------------12-13-14-15-16-15-14-13-12-------------------------13-14-15-16----------------------------16-15-14-13----------------------------------------------------------------16-15-14-13----------------------------------------------------------------------------------------------------------------------------------------------------------------------------------------------Next play these chords:
C

Dm

Dm

Adim

----------------------------------8----8------10----10--10---13---9----9------9-----10--10---12---10---10-----11----12--12---13------------------------------12----------------------------------------------------14--------------------------------------------------------------------------------------14---17-------17----14-----------------------15----------------------------15--------------------------------------------------------------------------------------------------------------This is as close as I could come to the chords played next. Listen for timing.
3x
25x
4X
--13---12----13-----12---10----12-----12---10----12----------------------------------------

...and into Bundle of Joy....


Bundle of Joy
E--------------------------------------|
B-5-----------7----5------5-3------3---|
G---5-5------------------------------5-|
D--------6\ 7----5---4\ 5-----4\ 5-----|
A--------------------------------------|
E--------------------------------------|
E--------------------------------------|
B-5-----------7----5------5-3------3---|
G---5-5------------------------------5-|
D--------6\ 7----5---4\ 5-----4\ 5-----|
A--------------------------------------|
E--------------------------------------|
E--------------------------------------|
B-6-----------7----6------6-4------4---|
G---6-6------------------------------6-|
D--------7\ 8----6---5\ 6-----5\ 6-----|
A--------------------------------------|
E--------------------------------------|
E--------------------------------------|
B-6-----------8----6------6-4------4---|
G---6-6------------------------------6-|
D--------7\ 8----6---5\ 6-----5\ 6-----|
A--------------------------------------|
E--------------------------------------|
E--------------------------------------|
B-5-----------7----5------5-3------3---|
G---5-5------------------------------5-|
D--------6\ 7----5---4\ 5-----4\ 5-----|
A--------------------------------------|
E--------------------------------------|
E--------------------------------------|
B-5-----------7----5------5-3------3---|
G---5-5------------------------------5-|
D--------6\ 7----5---4\ 5-----4\ 5-----|
A--------------------------------------|
E--------------------------------------|
E--------------------------------------|
B-5-----------7----5------5-3------3---|
G---5-5------------------------------5-|
D--------6\ 7----5---4\ 5-----4\ 5-----|
A--------------------------------------|
E--------------------------------------|
E--------------------------------------|
B-5-----------7----5------5-3------3---|
G---5-5------------------------------5-|
D--------6\ 7----5---4\ 5-----4\ 5-----|
A--------------------------------------|
E--------------------------------------|
Heavier: with the decending piano bassline

E--------------------------------------|
B-5-----------6----5------5-3------3---|
G---5-5------------------------------5-|
D--------6\ 7----5---4\ 5-----4\ 5-----|
A--------------------------------------|
E--------------------------------------|
E--------------------------------------|
B-5-----------6----5------5-3------3---|
G---5-5------------------------------5-|
D--------6\ 7----5---4\ 5-----4\ 5-----|
A--------------------------------------|
E--------------------------------------|
E--------------------------------------|
B-5-----------6----5------5-3------3---|
G---5-5------------------------------5-|
D--------6\ 7----5---4\ 5-----4\ 5-----|
A--------------------------------------|
E--------------------------------------|
E--------------------------------------|
B-5-----------6----5------5-3------3---|
G---5-5------------------------------5-|
D--------6\ 7----5---4\ 5-----4\ 5-----|
A--------------------------------------|
E--------------------------------------|
E-----------------------------------|
B-------12-------12-11-------11-10--|
G-----------------------------------|
D-4/-12----11\12-------10\11--------|
A-----------------------------------|
E-----------------------------------|
E-----------------------------------|
B-------15-------15-14-------14-13--|
G-----------------------------------|
D-9/-14----14/15-------13/14--------|
A-----------------------------------|
E-----------------------------------|
E---------------------------------------|
B--------18------18-17-------17-16-18~-|
G---------------------------------------|
D-12/-17---18/19-------17/18------------|
A---------------------------------------|
E---------------------------------------|
G
C
Fluff-Head

Am7 D
(repeat and fade)

Then play opening theme from Fluffhead.

Fly Famous Mockingbird


Song is either in 3/4 or 6/8
Intro. [Over "Colonel Forbin's Ascent" changes-- A C#m7 D D/C Bm7 E ]
H
P
H
P
H
P
E----------------------------------------------------------------B-------2-------------2------------2-----------------------------G---2-4---4-2-----2-4---4-2----2-4---4-2------repeat till cue----D-2-----------2-------------2------------2-----------------------A----------------------------------------------------------------E----------------------------------------------------------------Theme 1
Lead in A
Bm
E------|-----------------------------------------B------|--2-------------2---------2--3-2-------2-G-2-4--|----4-2---2-4-----4-3---4--------4---4---D------|--------2-------------4------------4-----A------|-----------------------------------------E------|-----------------------------------------E
A
E-----------------2-0-----------------------------2-5------------B-3-2----3-2-1-0------3-2-3-5-4-5-2---------2-3-5----------------G-----4-----------------------------4-1-2-4------------repeat----D----------------------------------------------------------------A----------------------------------------------------------------E----------------------------------------------------------------2nd Time [part2]
Dm D
C
Dm
E-5--------------------------------------------------B---6-3-------------------5-----------5--6---------6-G-------4-------5-----4-5---7-5---5-7--------5-6-7---D---------5-2-----5-7-----------7----------7---------A----------------------------------------------------E----------------------------------------------------G

F
Em
Dm
S/
S/
S/
S/
E----------------------------------------------------------------B-5--------------8------------6------------5------------3--------G---7-6-5--------------------------------------------------------D---------7-8--9----9-8-7-5-7----7-6-5-3-5----5-4-3-2-3----------A----------------------------------------------------------------E----------------------------------------------------------------G
E--3-2-1-0-B----------G----------D----------A----------E----------Then
Cm7 F[7]
E--3---1-B--4---1-G--3---2-D--5---3-A--3---3-E------1--

[Repeat part 2]

Chorus:
Bb Cm7
Fl---y,

Dm
Famous Mockingbird

Eb Dm7 Cm7 F
Fl------y [Repeat]

[Repeat Theme 1 again]


Middle section
\S
\S
E--24---------------22--------------------|-------B-----------------------------------------|-------G-----------------------------2-----repeat|-------D------------2----------2-3-5---5---------|-------A------2-3-5------------------------------|---[7]-E-----------------------------------------|-------Part B
E------------------------------------------------------B------------------------------------------------------G----4-5-4---------4-5-4------4-5-7-5-4----4-5-7-5-4---D--7-------7-5---7-------7-5------------7------------7-A------------------------------------------------------E------------------------------------------------------E--------------------------------------------------------------B-----5------------5-------------------------------------------G-4-5---7-5-4--4-5---7-5-4--4-5-7-5-4----4-5-7-5-4------repeat-D--------------------------------------7------------7----------A--------------------------------------------------------------E--------------------------------------------------------------Then SOLO CHORDS:
Fmaj7 Am Fmaj7 Am

[Second time repeat Part B]

Then, LINE CLICH:


Am Am[maj7] Am7 F

followed by Em Emaj

Then this little natural harmonics section


E-----------------------B-----------------------G-----------------------D-----3------------3----A--5-----3---5--3-----3-E-----------------------Followed by this chordal section which uses different degrees of Dynamics
B6 A6 E A6 E A6
B6 A6 A6 E A6 E
.[repeat]
B6 B A6 A A6 E A6 E
E--7--7--5--5--5--4--5--4-B--9--7--7--5--7--5--7--5-G--8--8--6--6--6--4--6--4-D--9--9--7--7--7--6--7--6-A-------------------------E-------------------------Then the build-up back to the final chorus:
D

Bb
Fl---y,

Dm
Famous Mockingbird

Eb Bb F
Fl------y [Repeat]

And Finally the Outro [Over Chorus changes]


E-----------------------------------------------8-------------8B--8-------------10-----------8-11------8-10-11------8-10-11---G---------7-8-10-------7-8-10------8-10-----------10-----------D----8-10-----------10-----------------------------------------A--------------------------------------------------------------E--------------------------------------------------------------E--10-------8-10-11-13-10----------------------------------------B-----10-11----------------11--10--8-----------------------------G-------------------------------------10--8--7----repeat till cueD----------------------------------------------------------------A----------------------------------------------------------------E----------------------------------------------------------------Note- The last time this riff is played, it is played at half-time.
The last time end on the starred note. [F] Page then hits that great
low Bb on the keys.

Free
Note: the album version is up a half step. The live version is in D. Because
of the open stringings, if you want to play it in Eb I suggest you use a capo :).
Build up to D9 ...
D9
E--0--B--3--G--2--D--0--A-----E-----p
h p
s
h p
E---------10----12-10--------8-10-8--------7----5----3-5-3-----------------B--------------------10-----8------8------8----7----3-----3----3---------3--G-slide>11---11--------11--9--------9--8>9----7----4-------4---2---------2--D------------------------------------------------------------0-----------0--A--------------------------------------------------------------------------E----------------------------------------------------------------1^(1/2)---(repeat)
E------------------------------------------B-------(1)------3-------1------3--------3-G--------0-----4---4---2---2----2--------2-D--------2---5-------3--------0----------0-A--0-2-3-3---------------------------------E---------------------------------1^(1/2)--(repeat)
E---------------------B------1-------3-----3G----2---2---4---4---2D--3-------5-------0--A---------------------E---------------------(repeat)
Those are the three components to the intro, listen to a recording
for the matching up. Below, you can substitute the C with a C9
Here is an alternative take on the intro.
P-O
P-O P-O
e----------12-10------------10-8---------7-----5--------5-3----------2-----B-------10-------10-------8------8-----8-----7--------3-----3------3---3---G----11-----------------9------------9-----7--------4------------2-------2-D-12-----------------10---------------------------5------------0-----------A--------------------------------------------------------------------------E--------------------------------------------------------------------------P-O
C D
e--------0--0----2----------------------------------------------------------B--------1--1----3----------------------------------------------------------G--------0--0----2----------------------------------------------------------D--------2--2----0----------------------------------------------------------A--------3--3--------------------------------------------------------------E-1-0----------------------------------------------------------------------C9
E--B-3G-0D-2A-3-

E--D9
C
(Third riff)
I'm floating in the blimp a lot
D9
C9
(Third riff)
I feel the feeling I forgot
(Third Riff)
Swimming weightless in the womb
(Third Riff)
Bouncing gently round the room
(etc...)
In a minute I'll be free
And we'll be splashing in the sea
I feel no curiosity
I see the path ahead of me
In a minute I'll be free
And we'll be splashing in the sea
We hear a tiny cry
As the ship goes sliding by
Free!
Free!
Free!
For this part, on the album version, use these strummings:
E-----------------------------------------------------------------B-----------------------------------------------------------------G--7-7-7-7-7-7-7-7-7-7-7-7-7-7-7-7-7-7-7-7------------------------D-----------------------------------------------------------------A--5-5-5-5-5-5-5-5-5-5-5-5-5-5-5-5-5-5-5-5------------------------E------------------------6-6-6-6-6-6-6-6-6------------------------I'm floating in the
I feel
I feel
[repeat signature riff]
Free!
Free!
Free!
Free!

blimp a lot
the feeling I forgot
free

Friday
------------D-------------------B
I crashed , I burned, but then I learned
B
to keep an eye on you
E-----------D---------------------B
You always say you'll lead the way
B
but then you never do
A------------B-------------------E
I slowed, I swerved, but lost my nerve
E
Then quickly looked away
A-------------B------------------E
When i looked back, the day was black
E
Then I heard you say ....
[mike]
D----------F#m
Why is the sun hot?
----G------------Em------G
and Why does it rain?
Em-----------C
Why is there danger? and
G--------------A
Why is there pain?
D-------------F#m
Why cant the burden,
----G--------Em-------G
we carry go away?
----Em----------C-----D
and why isnt if friday today?
[second verse, trey]
E-------------D--------------B
Your lack of trust is hardly just
B
so do as you've been told
E-------------D------------B
Please follow me, into the sea
B
Dont worry if its cold
A-------------B-------------E
I knew right then my chance again
E
Would quickly slip away

A----------B----------------E
I crash, I cry, I burn, but I
E
Still follow anyway
[page sings]
D----------F#m
Why is the sea cool ?
-----G--------Em-------G
and why is it blue?
Em-------C
Why do i stay here?
G---------A
Why is it you?
D-----------F#m
Notice the danger
------G-----------Em-----G
dont help in any way
----Em----------C------D
and why isnt it friday today?

Fuego
[Intro]
[A Riff]
[Am Riff x4]
I'm a sailor's girl, the best is yet to come
Rolling in my Fuego, I do my own stunts
I see guilty people, angels blowing horns
[Am Riff x4]
Some days it's just not worth gnawing through the straps
Freak out and throw stuff, World's Greatest Dad
I read a little book about Vlad the Impaler... Vlad the imapler... Vlad the Impaler
A
Whoa, oh
Whoa, oh
D (with piano walk up) > A riff x2 > F# (hang on)
F#m jam (with organ intro)
Piano break out of jam: B > Bb > A riff
A
Whoa, oh
Whoa, oh
Inside
Inside
Inside
Inside

your
your
your
your

Fuego,
Fuego,
Fuego,
Fuego,

we
we
we
we

keep
keep
keep
keep

it
it
it
it

rolling
rolling
rolling
rolling

D (with piano walk up)


I asked Diego if it was stolen
Inside your Fuego, we keep it rolling
(this part 4x)
A
Rolling (fuego) rolling (fuego), rolling (fuego)
(this part 2x)
A
Diego (stolen), Diego (stolen), Diego (stolen)
A
Rolling (fuego) rolling (fuego), rolling (fuego)
Outro jam: A riff

C > Bb > A

Rolling (fuego) rolling (fuego), rolling (fuego)


End: Piano outro (with guitar outro)

C > B > A

C > B > A

A
e
B
G
D
A
E

Riff:
--------------------------------------------------2-----2--------2---2--------2-------88--88-----2-----2--------2---2--------2------------------2-----2--------2---2--------2-------77--77-------2h5------2h5----------2h5-----------------------------------------------------------------

Am Riff:
e ------------------------B ------------------------G -----------5------------D ---(5h)7-5---------5----A ---------------7-5--5---E ---------------------5--Guitar outro:
e -------------------------B -------------------------G ---3b4^2--------23b4^2--D -----------3^4----------A -------------------------E --------------------------

(this page left intentionally blank)

Funky Bitch
11-bar blues in C
Chords:
| C7
| C7 | C7
| F7
| F7 | C7
| G7#9 | F7 | G7#9

| C7 |
| C7 |
|

G7#9
E----B-11-G-10-D--9-A-10-E----Intro:
E--------------------------|--b13-11-------------b13--b13--11-------------------------B--11-------11-------11-12-|-----------13-11-13--------------------13-11-----13-13----G-----12-12----12-12-------|----------------------------------------------12----------D--------------------------|----------------------------------------------------------A--------------------------|----------------------------------------------------------E--------------------------|----------------------------------------------------------P-O
E--------11-----------------------------11-b13-11----------b13-b13-11-----------------B--11-13----13--13-11-------13-13-11h13-----------13-11-13--11--------13-11----13-13--G----------------------12---------------------------------------------------12--------D-------------------------------------------------------------------------------------A-------------------------------------------------------------------------------------E-------------------------------------------------------------------------------------P-O
P-O
P-O
E--------11------------------------11-13-13-11----13-13---13-11-----------------------B--11-13----13-11----13-13---11h13-------------13---------------13-11----13-13--------G-----------------12--------------------------------------------------12--------------D-------------------------------------------------------------------------------------A-------------------------------------------------------------------------------------E-------------------------------------------------------------------------------------P-O
E-------------------------------------------------------B----11-------11-------11-12----------------------------G------12-12----12-12-----------------------------------D-------------------------------------------------------A-------------------------------------------------------E-------------------------------------------------------c7
every time i see her, she got new fancy clothes
f7
c7
every time i see her, she got new fancy clothes
g7#9
(walk up to)f7
she took up all my money, and threw poor me out the door

(intro riff)

Lord now standing there, ain't got nowhere to go


-repeat
i've been down in bad condition now boy, cause i'm alone down here
repeat second verse again
every time i see her shes gotten all the boys in town
-sometimes repeated(sometimes not because of the hold)
till she took up all our money, sure gonna put her down.

Ghost
Am7 Am6 D9 E7+9
E|----------(5)-----|
B|-10---10---5---8--|
G|-12---11---5---7--|
D|-10---10---4---6--|
A|-----------5---7--|
E|-12---12----------|
I find this fingering easier to use, though it's the
same thing essentially.
Am7 Am6
E|-5----5---|
B|-8----7---|
G|-5----5---|
D|-7----7---|
A|-0----0---|
E|----------|
Listen to a tape for the timing, its pretty simple but hard to describe here.
Also, Trey doesn't always play the Am6, leaving it to Page.
Am7
Am6
I feel I've never told
Am7
Am6
you the story of the
Am7
Am6
ghost who I once knew and
Am7
Am6
talked to of whom I'd never boast
D9
But this was my big secret
D9
How I get ahead
D9
And never have to worry
D9
E7+9
I'd call him instead
Am7
Am6
His answer came in action
Am7
Am6
He never spoke a word
Am7
Am6
Or maybe I lay down the
Am7
Am6
phone before he could be heard
D9
I somehow feel forsaken

D9
Like he had closed the door
D9
I guess I just stopped needing him
D9
Am7
I much as once before
Jam over 1 verse of chords; Am7 to Am6, then D9 part
Am7
Am6
But maybe he's still
Am7
Am6
with me the latch was left unhooked
Am7
Am6
He's waiting in the wind and rain
Am7
D9
I simply haven't looked
Am7
Am6
I feel I never told you
Am7 Am6
A7#9
the story of the ghost
Jam on Am7 Am6

(4x)

Glide
Theme 1 (2x) over G chord
S/

S/

HO-PO-3-3-3
E|----------------|--------------------|
B|----------------|--------------------|
G|--0---0---0---0-|3-----3-5-7---0-7-4-|
D|5---5---3---5---|----5---------------|
A|----------------|--------------------|
E|----------------|--------------------|
-PO P-O
Har.
E|----------------|--------------------|
B|----------------|--------------------|
G|0-5-4-----------|--------(5)---------|
D|------0-5-5-0-0-|5-0-5-5-(5)---------|
A|----------------|--------------------|
E|----------------|--------------------|
Theme 2 (2x)
H-O H-O
H-O H-O
3-3-3
3-3-3
E|--------------------|----------------|
B|----0-3-0---0-----0-|3-0---0---0---0-|
G|----------4---------|----4---2---4---|
D|0-5-----------0-5---|----------------|
A|--------------------|----------------|
E|--------------------|----------------|
H-O H-O
H-O H-O
HO-PO
3-3-3
3-3-3
3-3-3
E|--------------------|------------------|
B|----0-3-0---0-----0-|3-0---0-----------|
G|----------4---------|----4---0-2-0---0-|
D|0-5-----------0-5---|--------------5---|
A|--------------------|------------------|
E|--------------------|------------------|
Theme 3 (2x) over D chord
H-O HO-PO
P-O H-O
H-O
3-3-3
3-3-3 3-3-3 3-3-3
E|------------------|----------------------|
B|------------------|--3-0-----0-----0---0-|
G|----0-2-0---0-----|0-----0-4---0-4---4---|
D|0-4-------4-----0-|----------------------|
A|--------------5---|----------------------|
E|------------------|----------------------|
H-O HO-PO
H-O HO-PO
3-3-3
3-3-3
E|------------------|------------------|
B|------------------|------------------|
G|----0-2-0---0-----|----0-2-0---0---0-|
D|0-4-------4---0---|0-4-------4---5---|
A|----------------5-|------------------|
E|------------------|------------------|
Theme 4 (3x)
H-O
H-O
H-O
H-O
3-3-3 3-3-3 3-3-3
3-3-3
E|----------------------|------------------|
B|----5-----5-0-5-0-3-0-|----0-5-0-3-0---0-|
G|0-4---0-4-------------|0-4-----------4---|
D|----------------------|------------------|
A|----------------------|------------------|
E|----------------------|------------------|

Theme 4 variation (1x)


H-O
H-O
H-O
H-O
H-O
H-O
3-3-3 3-3-3 3-3-3
3-3-3 3-3-3 3-3-3
E|----------------------|----------------------|
B|----5-----5-0-5-0-3-0-|----0-----0-----0-----|
G|0-4---0-4-------------|0-3---0-3---0-3---0---|
D|----------------------|----------------------|
A|----------------------|----------------------|
E|----------------------|----------------------|
D
And we're glad
D
And we're glad
C
And we're glad
C
And we're glad
[repeat
[repeat
G -> C#
[repeat
[repeat
[repeat
[repeat

G
glad glad that you're alive
G
glad glad that you'll arrive
D
G
Em
glad glad glad glad glad glad
D
G
glad glad that you're a glide

themes]
verse - a capella]
(4x)
theme 1 over G -> C# -> G -> C#]
theme 2 over G -> D -> G -> C#]
themes 3 & 4 over D]
verse - a capella choral arrangement]

Acapella
(nc)
Bb
Am
Gm
And we're glad glad glad that you're alive
Cm
F
Bb
And we're glad glad glad glad glad glad
And we're

Bb
Am
glad glad glad that you're a

(x2)
Eb
glaaaaad..
G
gliiiiiiiiide.

Notation Key
S/
S\
3-3-3
H-O
P-O
HO-PO
Har.

= Slide up
= Slide down
= triplet notes
= Hammer-on
= Pull-off
= Hammer-on-pull-off combination
= Harmonic (pluck strings with finger lightly
touching strings directly over indicated fret)

Golden Age
Verse riff:
A|--3-1-3-1--3-1-3--1-1-1--|
Heartbeat sounding, Ricocheting in their cage
Thought I'd lose my balance, With the grounds bounce and sway
And all this violence, And all this goes away
And the vibes that rise like, Fireflies illuminate our play
Some light being, Pulled you up from night's party
Said clap your hands, If you think your soul is free
And the silence was astounding, 'cept some "Oh Lord!! Mercy Me's"
And oh you can't stop what's comin' up
You're never gonna stop gonna live it up
And oh it's gonna drop gonna fill your cup, And oh it's gonna drop gonna...
CHORUS:
C
The age of miracles
C
Well there's a Golden Age
Give it
What we
And its
Up your

Bb
The age of sound
Bb
Comin' round, comin' round, comin' round

up, 'stead of grabbing for decay


viewed as gold, I believe pollutes this space
grace ascending, like a snake up your tree
happy ending understanding, all your s'pposed to be

Let it move right in, Let it kiss your face


Let it sew your skin, In perpetual embrace
Like I said Love's Light is Laughter, Like the sun spitting happiness into the hereafter
Oh here it comes like a natural disaster
Oh blowing up like a ghetto blaster
Oh here it comes, bring it faster, Oh here it comes...
REPEAT CHORUS
BRIDGE:
C
F
Love, don't you falter
C
Burning hearts, dragged behind
F
The horses dancing on the altar
C
Hooves breaking Gods
F
To diamond dust and stars, and there you are...
Now we're all allowed to breathe,
Walls dissolve, With the hunger and the greed,
Move your body, You've got all you need
And your arms in the air stir a sea of stars, And oh here it comes and it's not so far
All light beings, Come on now make haste
Clap your hands, If you think you're in the right place
And the thunder all surrounding
Aw feel it quake with the joy resounding
Palm to the palm you can feel it pounding
Never give it up you can feel it mounting
Oh its gonna drop gonna fill your cup and, Oh its gonna drop gonna...
REPEAT CHORUS 2x
WHAMMY: C-F (4x)
C
F
Love, don't you falter

(repeat, jam)

Golgi Apparatus
->Opening Chord
The opening chord to the song has a higher note in it played by the piano. It's close to the same
chord played by the guitar, but an octave up.
This is the piano chord arranged for guitar.
E---18---B---19---G---19---D---20---A--------E---------

F#+

G
G
I look into the finance box just to check my status,
no chord
(status)

E------------------------|
B------------------------|
G---5-7-5---3-4----------|
D---------5-----5-3------|
A------------------------|
E----By: William Fort----|
-> Trey plays the above lick when they sing, (status)
G
G
G
G
I look into the microscope, See a Golgi Apparatus
G7#9 -> F#7#9 -> F7#9 -> E7#9 (SEE BELOW FOR CHORD FORMATIONS)
Eb
F
Bb
Golgi, oh, woe is me
Eb
F
Bb
You can't even see the sea
Eb
F
Bb
Golgi, olgi, ho ooo olgi
Golgi
C9 -> C#9 -> D9
G
G
G
G
They call him lysasome 'Cause he runs so fast

E--------------------------------------------4---4-8--|
B--------------------------------3---3-6p3h6---6------|
G--------------------------4---4---4------------------|
D--------------3---3-6p3h6---6------------------------|
A--------5---5---5-------------------------------------|
E--6p3h6---6------------By: Ryan Laughlin----------------|

Piano run over the


above riff arranged
for guitar

->

E------10-----------------10--10---------------10--8----|
B----------12------10--12--------12-----10--12----------|
G--------------10--------------------10-----------------|
D-------------------------------------------------------|
A-------------------------------------------------------|
E---------------------By: William Fort------------------|

-> Listen to the timing of the notes over the guitar riff. Trey plays about 3 notes to every note
Page hits.

C
Runs like a junkyard dog with a brain of brass
G7#9 -> F#7#9 -> F7#9 -> E7#9 (SEE BELOW FOR CHORD FORMATIONS)
Eb
F
Bb
Golgi, oh, woe is me
Eb
F
Bb
You can't even see the sea
Eb
F
Bb
Golgi, olgi, ho ooo olgi
Golgi
C9 -> C#9 -> D9
CHORUS:*
G
I saw you...
(x3)
C
With a ticket stub in your hand

G
G
I saw you....
F--->----->---------->------------>------- (pedal on E string)
Under the light, middle of the night, couldn't get it wrong...
(REPEAT CHORUS)
So I had to..... (and into Trey's most excellent solo.... tablature follow)
Chord Forms:
(intro) (See a Golgi Appa...) (Golgi woe) (before chorus)
F#+
G7#9 F#7#9 F7#9 E7#9
Eb F Bb
C9
C#9 D9
E--x-------x----x------x----x-------x--x---x---3----4----5
B--7-------11---10-----9----8-------4--6---3---3----4----5
G--7-------10---9------8----7-------3--5---3---3----4----5
D--8-------9----8------7----6-------1--3---3---2----3----4
A--9-------10---9------8----7-------x--x---x---3----4----5
E--x-------x----x------x----x-------3--5---3--------------

Good Times Bad Times


E5
[:
D
A
:]x5
e--------------------------------------------------------------------B--T--9-9-r---9-9-r---9-9-r---9-9-r---9-9-r---9-9\r-----7-7----------G--A--9-9-r---9-9-r---9-9-r---9-9-r---9-9-r---9-9\r-----7-7----------D--B--9-9-r---9-9-r---9-9-r---9-9-r---9-9-r---9-9\r----7-7-7-4-7-----A-----7-7-r---7-7-r---7-7-r---7-7-r---7-7-r---7-7\r--/5-----5---4--5-6
E-----0-0-r---0-0-r---0-0-r---0-0-r---0-0-r---0-0-r------------------x x
x x
e-----3/5--3---x-x------------------------------5-\-x-x------10-----------B--T--3/5--5---x-x-7/12-12-10---10-10-0-3/5-----5-\-x-x-7-12-12-----7-7-7-\
G--A--4/6--6---x-x-7/12-12-11---11-11-0-4/6-----6-\-x-x-7-12-12---7-7-7-7-\
D--B--5/7--7---x-x-7/12-12-12---12-12-0-5/7-7---7-\-x-x-7-12-12---7-7-7-7-\
A-----5/7--7---x-x-5/10-10-12---12-12-0-5/7-7---7-\-x-x-5-10-10---5-5-5-5-\
E-----3/5--5-------5/10-10-10---10-10---3/5-5---5-\-----5-10--------------e---------7-----------------------------------7-\-------------B--T------7---9/14---14-14---12-12-12---------7-\-------------G--A------8---9/14---14-14---13-13-13---------8-\-------------D--B------9---9/14---14-14---14-14-14---------9-\9-9-9-9-9---\r
A-----9-9-9---7/12---12-12---14-14-14---7/9-9-9-\9-9-9-9-9---\r
E-----7-7-----7/12---12-12---12-12-12---5/7-7----7-7-7-7-7---\r

("r" stands
for "rest")

Guitar I:
e-------------------------------------------------------------------------B--T-----2----------------------------------------------------------------G--A----------------------------------------------------------------------D--B--------------------2-2---2----7^5^7-----7-7-7-9-9-9-9-9-9-9-7/9-9-9-9A-----------------------0-0---0---0------0--------------------------------E-----4/5--------------0-------------------------5/7-7-7-7-7-7-7-5/7-7-7-7e------------------------B--T---------------------G--A-----------4\r------D--B--7/9-9-9-9----------A--------------2\r-------E-----5/7-7-7-7---------[:F#5
E5F#5
E5F#5 F#5
E5 F#5 E5F#5:]x3
e-----------------------------------------------------B--T--------------------------------------------------G--A----------11^9-11--4^2-4-x---------11^9-11-4^2-4^2D--B----------11-9-11--4-2-4-x---------11-9-11-4-2-4-2A-----4-4------------------------4--------------------E-----2-2----------------------2-2---------------------

between B Esus4 and E At "when my woman left home..." go to a C# on "woman", to


a B to an F#

SOLO ON FOLLOWING PAGES

Here's the solo:


e----------12-----12-12--12-----12------------------------------------------B--T-----12-----12-----12-----12--------------------------------------------G--A--14b----14b-----------14h----14b\14-12--14---12q-------12q--12-14-12-14h
D--B---------------------------------------14---------14-14----14-----------A---------------------------------------------------------------------------E---------------------------------------------------------------------------e-----------------------------------------------------------------------------B--T--15-----------------20bb------------17-17-17---20-17-20b-20-17----17-20^17
G--A-----14-12-14-12-0----------------------------------------------19--------D--B--------------------------------------------------------------------------A-----------------------------------------------------------------------------E-----------------------------------------------------------------------------e----------------------------------------------------------------------------B--T-----17----------------------------------------------------------12-15^12G--A--19----19-19b---x-x-x-------------------------12----12-14^12-14---------D--B-----------------x-x-x-------12----12-14-12-14-12-14---------------------A-------------------------/14-14----14---------------------------------------E----------------------------------------------------------------------------e--------12----12-15b----15-15q----------17h-17b-17h-17b-17h-17b-17b\17-15---B--T--15-12-15------------------17-15q-17----------------------------------17G--A-------------------------------------------------------------------------D--B-------------------------------------------------------------------------A----------------------------------------------------------------------------E----------------------------------------------------------------------------e-----15----15-17-17^16--17--16-17^16-17b-15h--------------------------------B--T-----17-----------------------------------17-17-17-17-15b-17bb-------15--G--A-------------------------------------------------------------------------D--B-------------------------------------------------------------------------A----------------------------------------------------------------------------E----------------------------------------------------------------------------e-----------------------------------------------------------------------------B--T--------------------------------------------------------------------------G--A--------------------------------2-2---2-2---4---4---4---4-4-4-4-4-4-4-4-4-4
D--B--7-7-7-7-----7-7^5-5^7-7-7-7---2-2---2-2-4-4---4---4---4-4-4-4-4-4-4-4-4-4
A---------------0-----------------0-------0-0-2-2-2-2---2---2-2-2-2-2-2-2-2-2-2
E-----------------------------------------------------------------------------e------------------------12--------------------------------------------------B--T------------------------15^12----12----12--------------------------------G--A--4-4-------------------------14----14----14-12^14^12----12--------------D--B--4-4-------------------------------------------------14----14^12-14^12--A-----2-2-------------------------------------------------------------------14
E----------------------------------------------------------------------------e-----------------------------------------------------------------------------B--T--------------------------------------------------------------------------G--A--------------------------------------------------------------------------D--B--12----------------------------------------------------------------------A--------14^12-14^12^10-12^10-------------------------------------------------E-----------------------------12-10------10-10------(10)/11/12----(12)\-------hold bend
e---------------------------------------------------0-----19bbb------20bb\20--B--T-------20b-20h-20b-20h-20b-20h-20b-20b-20-----0-------19bh--20bb---------17
G--A--------------------------------------------------------------------------D--B--------------------------------------------------------------------------A------------------------------------------------------------------------------

E-----------------------------------------------------------------------------e---------------------15b\15--15-15--15-15--15-15--(15)-(15)------------------B--T--(17)\-----------15--15b\15-15b\15-15b\15-15b\(15)-(15)------------------G--A--------------------------------------------------------------------------D--B--------------------------------------------------------------------------A-----------------------------------------------------------------------------E-----------------------------------------------------------------------------e-----(14)h\14-------------14h-14h-----14h\14---------------------------------B--T---14b--14----14-14----14----------14h\14--------------------14/b-15------G--A-----------14-------14-----------------------------------------------14^12D--B--------------------------------------------------------------------------A-----------------------------------------------------------------------------E-----------------------------------------------------------------------------e-----------------------------------------------------------------------------B--T--------------------------------------------------------------------------G--A--14-12-------14^12-------------------------------------------------------D--B--------14-12-------14^12-14^12----12-------------------------------------A-----------------------------------14----14^12\^10-12^10----10^12^10---------E---------------------------------------------------------12----------10---5h/5
e-----17b/17-17-^15----17-15-17-15-17---15-15/16---------------B--T----------------17-----------------------------------------G--A-----------------------------------------------------------D--B-----------------------------------------------------------A--------------------------------------------------------------E---------------------------------------------------------------

Gotta Jibboo
Heres the general theme, Trey changes it around a ton,
so play with it,......a lot.
E
D
E
D
.
. .
I-------------------I------------------------I
I---------5----3----I--------5-5---3---2h3---I
I---------4----2----I--------4-4---2---2h----I
I--2-/-6--6----4----I--4-/-6-6-5---4---2h4---I
I-------------------I------------------------I
I-------------------I------------------------I

--4-----------------2---------5-----------------3---------4-----------------2---------6-----------------4---------7-----------------5---------0-------(0)-------0-------let E ring

E->D Jam (32-64 measures)

E->D with lyrics: "Momma sing sing thatcha gotta jiboo.


Papa sing gotta jibboo"
X3
"Momma sing sing thatcha gotta jiboo.
Gotta jiboo and keep on drinking, too... (whoo)"
"Gotta Jiboo" X16
e----------0-------------------------------b---(3)/5----3h5p3p0-----------------------g--------------------4p0--0---0h1----------d---------------------------2-----2p0------a-------------------------------------2-0--e-----------------------------------------3E->D with lyrics: "Momma sing sing thatcha gotta jiboo.
Papa sing gotta jibboo"
X3
"Momma's been saying thatcha gotta jiboo.
Gotta jiboo and keep on drinking, too... (whoo)"

"Gotta Jiboo" X16

Rising Rift
E->F->G->A->B->C->D->

E->D Jam

Rising Rift
E->F->G->A->B->C->D->

E->D Jam

E->D with lyrics: "Momma sing sing thatcha gotta jiboo.


Papa sing gotta jibboo"
X3
"Momma sing sing thatcha gotta jiboo.
Gotta jiboo and keep on drinking, too... (whoo)"

"Gotta Jiboo" X16

E->D with lyrics: "Momma sing sing thatcha gotta jiboo.


Papa sing gotta jibboo"
X3
"Momma's been saying thatcha gotta jiboo.
Gotta jiboo and keep on drinking, too... (whoo)"

"Gotta Jiboo" X16

E-------------------------------------(16)*
B--2--3--5--7--8--10--12--14--15--------G--2--4--6--7--9--11--12--15--16--------D---------------------------------------A---------------------------------------E---------------------------------------*second time only
------------------------------------------------------------------------

(this page left intentionally blank)

Gumbo
Ebm7
Bb7
Ebm7
Db
Ebm7
e|--------6-----|-------------|----------------|----------------|----------------|----------------|
B|--------7-----|6------------|----------------|----------------|----------------|----------------|
G|--------6-----|-------------|----------------|--------8-------|x---8---6-6-7-8-|----------------|
D|--------8-----|6------------|----------------|8---8-----------|----------------|----------------|
A|6-------6-----|5------------|6-6---6-9---9-9-|----------------|----------------|----------------|
E|--------------|6-----9---9--|----------------|----------------|----------------|----------------|
This is the progression for the entire song except for the Organ Solo
|Ebm7 |Ab7
|Db7
|Ebm7 |
Verse 1:
There's a mouse starin' out of the window
His car is trapped in the snow
He's planning a family vacation
But he just can't go
Around the next corner's a red bird
His feathers are trapped in a sling
He's passed by some gun-slinging parrot
Who's jealous he ain't got no grin
Chorus:
There ain't no time to stash the gumbo
Or rattle around in a cage
The sacrificed child's made bubbles
And spittle is everywhere enraged
Ina hot sand or ina my feet
They're blistered and caked with debris
Chez rolez got in a toe port
While Angry piddles with glee
Verse 2:
There's a fool writing notes out on sandpaper
He's sending them off to himself
He gets them a couple days later
Who put them along his top shelf
If you get tired of shavings
And carve up a good hunk of wood
Remembering to check on the sausage
He's got cooking somewhere look good
[Chorus]
Organ Solo:
|Ebm7 |Ab
|Ebm7 |Ab

|Db
|Db

|Ebm7
|Bb

|
|

x2

[Chorus] (A-Capella)
[Chorus] (Instruments start up slowly)
Guitar Solo
Outro
(Same chords as verse/chorus)

Halleys Comet
Opening acapella bassline:
G-----------------------------------------------------------------|
D-----------------------------------------------------------------|
B---3--------3-3----3------------1--1--1-1--1-1-3---3--------3-3--|
E-1---1-1--1-----1----1-1--1-3-5------------------1---1-1--1------|
F
C
F
Halley's comet, I said uh/a Halley's comet
F
C
F
Halley's comet, I said uh/a Halley's comet
{Mike's A Capella bassline turns into single notes for this section}
------------------------------333------------------------------------111-----333------------------------------------111-F
Bb
Halley's comet

C
F
Halley's comet

------------------------------000--------------------------------------------333-------------------333--------------111-Dm
Gm
Halley's comet

C
F
Halley's comet

[Repeat]
(Here also, Mike uses the root notes of the chords, but does complicated things)
F
C
Bb
F
How could you know that I lived in a desperate world?
How could you dream that we were all made out of stone?
What is the truth, what is the faithful lasting proof?
What is the central theme to this everlasting spoof?
F
Eb
Knock on my windows, link up the chains
Bb
F
It's gotta be easy, no splinters no pain
F
Eb
It's Cadillac rainbows and lots of spaghetti
Bb
C
And I love meatballs so you better be ready
(Mike's bassline goes essentially back to the intro)
F
Bb
F
I'm going down to the central part of town

I'm going down to the central part of town


Central part of town, I'm going down
I'm going down to the central part of town
["Halley's Comet" over doo-wop, as in the first section]
F
Bb
F
What did I do? And don't be blamin' eat my cashew
F
For everything I do to get the story
Bb
F
And everything I do to pull me in
F
And everything I say to get the title
Bb
F
But when they use it on me I reject it
F
C
Bb
What would you do if you ate my daddy's shoes?
What would you say if it was naturally for you?
How would you feel if it rained on ???
How would you like to have your thick strawberry goo?
(Same as "Knock on my windows . . .)
I'm sinking down, it's a glorious feeling
To make a big difference, my body is reeling
Even Carl Sagan can't shine my shoes
`Cause I know deep inside he's got some mighty fine blues.
F
I'm
I'm
I'm
I'm

going
going
going
going

down
down
down
down

to
to
to
to

the
the
the
the

Bb
central
central
central
central

<Jam>
Jam modulates from:
Fm > Gm > Am > Bm > C#m

part
part
part
part

of
of
of
of

F
town
town
town
...

Harpua
"This next song is a story...and as with all good stories, this story
begins with an um-pa-pa"
- Trey, Molly's, Boston, 11-3-88
Um-pa-pa um-pa-pa um-pa-pa um-pa-paaaaa
Drums begin a heavy 7/4 beat - full band comes in after 4 bars
Bbm7
F#7
Bbm7
F#7
Bbm7
F#7
Bbm7
F#7
| / / / / / / / | / / / / / / / | / / / / / / / | / / / / / / / |
Verse:
Bbm7
| /
/
/
/
/
/
Fat sweaty bulldog
|

F7
/

F#7
/
/
/
/
/
Stood in the sun

/
/
/
/
/
/
Stone village swamp man

Bbm
/
/
/
/
Slow motion run

[same chord progression repeats]


Tender poled police walker | Precious birthday fudge
Swamp night and bull nail | Walker done done
Chorus: played twice
Bbm
F#7
| /
/
/
/
/
Me
and
Harpua

F
| /
/
/
/
/
/
It happens all the time

C#
A
/
/
/
/
/
/
/ |
We couldn't care few-a
.
.
Bbm
E
E
| /
/
/
/
/
/
/ |
We beat Okimo
^stacatto chords
|

[Repeat verse progression]


Hot liquor stone jack | Bitter toothless flesh
Shabby pimple chin-slime | Evil milky rash
Me and Harpua | Spastic dead-eyed hound
Oozing dreadlock skullcap | We're coming to your town
We'll help you party down
[Chorus - 2x, hold E for narrative]
Trey lick during narrative
e----------------------------------------------------------B-12--12-12-12---12--12-12-12---12--12-12-12---------------G-------------9--------------9--------------9--9-9-11-9-11-9
Narrative - in 4/4
E
D
A
| / / / / | / / / / | after the fight, hold the D
Look, the storm's gone...
D
C
| / / / / | / / / / |
Dad [Mike]:Jimmy...
Jimmy [Page]:Yes, Dad
D: Jimmy, I have some bad news...

J: What might that be...Dad?


D: It's about your cat, Poster...
J: You wouldn't be talking about Poster Nutbag now would you?
D
YOUR CAT DIED!
Poster is dead
Poster is dead
Poster's SO dead
How about a goldfish?
F
Eb
D
I don't want a goldfish
F
Eb
D
I don't want a goldfish
F
Eb
D
I don't want a goldfish
F
Eb
I want...
Gb-5 Ab9 Bb2
A dog
Gb-5 Ab9 Bb2 Csus4 C
A dog
C
G/B
There's a dog in the station
Bb
F/A
with an ugly mutation
Ab
C
D
G
and it needs lubrication each day
C
G/B
There's a dog in the station
Bb
F/A
Contemplating rotation
Ab
C
Gb Ab
as a form of recreation and play
Gb Ab Bb
A dog

Bb

[chords same as above]


There's a dog in the station
with a bad reputation
It's a sign of the nation's decay
But the dog in the station
doesn't need a vacation
As the people rush by dressed in gray
[Organ solo over verse changes]
D D/C Bm7 Bbmaj7 D/A
A DOG
A DOG
A DOG!!

Harry Hood
Intro:

Dm > Am (x4), F > Em (x4), C > Cmaj7b5!!

Dm
Am
F
Em
C
Cmaj7b5
E----5------5------8------7-------0------7---------------------------B----6------5------10-----8-------1------7---------------------------G----7------5------10-----9-------0------9---------------------------D----7------7------10-----9-------2-----10---------------------------A----5------7------8------7-------3----------------------------------E-----------5--------------------------------------------------------This repeats a couple of times; sometimes the band trades small solos.
Then:
Dm
Em Am
Harry! Harry! Where do you go when the lights go out? x3
Dm
Em Am
D
Harry! Harry! Where do you .... go?
Once the band hits "go?", Trey starts here (over a D chord) :
Most of these get hit on the upstroke
D
A
G
H-O
E-10--12--10---------9--10--9---7--8--7--7--10---------------------B-10--10--10--------10--10-10---8--8--8--8---8---------------------G-11--11--11---------9---9--9---7--7--7--7---7---------------------D-12--12--12--9-11--11--11-11---9--9--9--9---9---------------------A------------------------------------------------------------------E------------------------------------------------------------------Repeat once
Then:
G
Em
F#m
G
Em
F#m
A
E--7------7------9-------7------7------9------9--------------------B--8------8------10------8------8------10-----10-------------------G--7------9------11------7------9------11-----9--------------------D--9------9------11------9------7------11-----11-------------------A------------------------------------------------------------------E------------------------------------------------------------------Repeat both those again, the next time sliding down to:
open A break
A
E-0-B-0-G-6-D-7-A-0-E-0-Trey pulls a little fill like this in here:(Thanks to Steve Munno for this part)
E-----------------------0----------------------------------0---------B-----------------------0----------------------------------0---------G-9->-11-11-11-11->-9->-6----9->-11->-9->-13-13->-11->-9---6---------D-----------------------7----------------------------------0---------A-7->--9--9-9--9-->-7->-0----7->-9->--7->-11-11->-9-->-7---7---------E-----------------------0----------------------------------0----------

Then:(middle section)
G > F#m > Em > F#m

(Repeat)

G > F#m > Em > F#m > G > F#m > G > G# >
This part is "collectively" in 25/8.
A > D is in 5/4 and
E > D > E > D is in 15/8
The timing is as follows:
b = eighth note
* = dotted eighth note (held 1.5 times as long as an eighth note)
A
D
E
D
E
D
b b * * b b * * b b b * * * b b b * * *
Fish plays quarter notes through the first four repeats so the riff starts at a
different point in the drum beats each time. When you really see how simple
the rhythm pattern is, you will have a better feel on what you're doing.
He slides out of this with : D > C#m > Bm > A (open stringed)
middle section chords
e------------------------|-------------|--------------------|--0--0--0--0-|--0--------0B--3-----2-----0-----2---|---3-2~--0-2~|--3-2-0-2---3-2-3-4-|--5-10-12-10-|-10--9--7--0G---4-----2-----0-----2--|---4-2~--0-2~|--4-2-0-2---4-2-4-5-|--6-11-13-11-|-11--9--7--6D-5~~5--4~~4--2~~2--4~~4-|-5-5-4~2-2-4~|--5-4-2-4---5-4-5-6-|--7-12-14-12-|-12--11-9--7A------------------------|-------------|--------------------|--0-0-0-0--0-|-----------0E------------------------|-------------|-3-2-0-2---3-2-3-4--|-------------|-----------0repeat open "A" break
D > G > C > Am

(hit on Distortion at Am)

Riff fixed by DeadHead.


E|---------------------------|------------------------------------------------------------------|----------B|---------------------------|*----------------------------------------------------------------*|----------G|-----------------10-9------|-------------------------10-9--------------------10-9----10-9-----|----------D|----------10-9----------12-|-9h10h12-9h10h12-9h10h12------12-9h10h12-9h10h12------12------12--|-9-10----9A|----9-8--------------------|*----------------------------------------------------------------*|----------E|7--------------------------|------------------------------------------------------------------|-----------

Then notes that go:


G-10-9---D------12Are slightly faster then the surrounding notes.
[no chord]
Thank you Mr. Minor...
A > Bm (Loud!)
Then it moves up to C#m (just up two frets) .. I'm not going to write it
all out again though. Easy enough to just move up.
B > C#m
Then up again two frets to D#m.
E

A
E
A
E
A
Thank You Mr. Minor ... Thank You Mr. Minor ... Thank Your Mr. Minor...

A
Thank You Mr. Hood...
And then of course, comes the jam (who can forget it?) .. It's basically over
this progression:
D > A > G (two bars)
After Trey hits the high D note bent up to an E (I'm telling you, that 24th fret
is killer -- I recommend YOUR next guitar purchase includes two full octaves on
the fingerboard), he does this lick over the progression with lots of distortion
to signify the end of the jam:
D
A
G
|:
:| |:
:|
|:
:|
E-----17--------17-----------17------------------------------------B---15--------14-----------12--------------------------------------G-14--------14-----------12----------------------------------------D------------------------------------------------------------------A------------------------------------------------------------------E------------------------------------------------------------------and of course:
D
A
G
You can feel good, good, good about Hood .. (x3)
D
Harry Hood!

The Horse
E
B
G
D
A
E
E
B
G
D
A
E
E
B
G
D
A
E
E
B
G
D
A
E

Am(add9)
Fmaj7
+--------------0----------------0--------------------0-0-+
|------------0----------------0----------0-0-0-----1---3-|
|----------5----------------5-----------5--------2-----2-|
|--------7----------------7------------7--6-2--3-------3-|
|0-0-0-0----------0-0-0-0---------0-0-0------------------|
+--------------------------------------------------------+
Asus4/7
C
Am
Bb
+--------------------------------------0-----------------+
|3--3--3---1-3--5-6-5---5-6-5--3---1------3----3---3---3-|
|2--2--2---2-2--5-----7-5-7-5--4---2--2---3---3---3---3--|
|3--3--3---3-3--5----------------2-2-2----3--3---3---3---|
|-----------------------------------------1-1---1---1----|
+---------------8----------------------------------------+
Am(add9)
Fmaj7
Asus4/F
+--------------0----------------------0-0----------------+
|------------0------------0-0-0-----1---3--3--3--3--1-3--|
|----------5-------------5--------2-----2--2--2--2--2-2--|
|--------7--------------7--6-2--3-------3--3--3--3--3-3--|
|0-0-0-0---------0-0-0-0---------------------------------|
+--------------------------------------------------------+
C
Am
Bb
G
+----------------------0---------------------3-3--3-3-3-3+
|-5-6-5---5-6-5--3--------3----3---3---0-----0-0--0-0-0-0|
|-5-----7-5-7-5--4----2---3---3---3---3------0-0--0-0-0-0|
|-5----------------2-2----3--3---3---3-------0-0--0-0-0-0|
|-------------------------1-1---1---0--------2-2--2-2-2-2|
+-8--------------------------------------3---3-3--3-3-3-3+

So you strum that G for a little bit then you go into this
the basic outline of the next part, i just strum the regular open chords,
but the extra stuff he has could be right):
Am(barre)
Am(barre)
It's time I slink the
D
C(E on
Sink my toes into the

C(with G on top)
G
baskets off this silver burden horse
top)
F
E*
D
ground and set a different course
C(E on top)
Am
'Cause if I were here and you were there, I'd meet you in between
B
Em
C(E on top)
G
And not until my dying day confess what I had seen.
*that E is played something like this: [0221xx], and it's played for only
like one count and then you go right into the D.
That first Am(barre) could be a barre or not, the open one sounds just fine.
The last four chords are only strumed once, with the G going right into
'silent
in the morning'. For some of the parts in the intro, you could hear Trey
sliding
in between certain notes, and letting some notes ring, that's why some of the
them are tabbed up and down the neck and not just on one position.
Well that's about it, let me know if anything is wrong.
This leads into Silent in the Morning

I Am Hydrogen
|:
:|
G------------------------------------------------------------------------D------------------------------------------------------------------------A--12---12------------11----11-------------------------------------------E-----9----9--(7)--12----12----(12)--------------------------------------A kind of nicer way to play the chords leading up to it (or the chords
in the background, if you're playing with another guitar) that I've
found is as such:
E
A
E--0---0---B--0---0---G--4---6---D--6---7---A--7---4---E--0---0---Again, I don't think Trey uses those chords at all.
nice. The chords use the notes in the bassline.
(E)

But they sure sound


A

E--------------------------------------------------------------------------------B----12^(14)----12^(14)-12-------12-----------------12^(14)----12^(14)-12--------G--------------------------14-13-------14-13-11---------------------------14-13--D-14---------14--------------------(14)---------14----------14-----------------12A--------------------------------------------------------------------------------E--------------------------------------------------------------------------------E----------------------------------------12---------------12---------------------B----12^(14)----12^(14)-12---------12-------------12------------12^(14)---12^(14)G--------------------------14-13-------------------------------------------------D-14---------14-----------------14---(14)------14----(14)-----14-----------------A-----------------------------------------------------------------------14-------E--------------------------------------------------------------------------------E-------------B-12----------G----14-13----D----------12-A-------------E-------------E-------------------12-------12-14---12-14-16-14-16-17---16-17-18-----17-16------B-----12-14----12-14------14------------------------------------------------17---G-----------------------------------------------------------------------------16-D-(14)---------------------------------------------------------------------------A--------------------------------------------------------------------------------E--------------------------------------------------------------------------------E--------------------------------------------------------------------------------B----12^(14)----12^(14)-12-------12-----------------12^(14)----12^(14)-12--------G--------------------------14-13-------14-13-11---------------------------14-13--D-14---------14--------------------(14)---------14----------14-----------------12A--------------------------------------------------------------------------------E--------------------------------------------------------------------------------Repeat (muted)
|:
:|
E---------------12---------------------------------------------------------------B----------12----------12--------------------------------------------------------G--------------------------------------------------------------------------------D-(14)--------14---(14)----14----------------------------------------------------A---------------------------------------------------------------------------------

|:
E--------------------------------------------------------------------------------B-------------12-14-------14----12-----------------------------12-14-----14---12-G----11-13-14-------------------------14----13--------11-13-14-------------------D-14-------------------14----14----14----14--------14-----------------14----14---A--------------------------------------------------------------------------------E--------------------------------------------------------------------------------:| (Repeat Once, second time playing this)
E-----------------------------|------------12------12----12-----------------------B---------------------12-14---|-12-14-12-14------12----12----12--14----14-12------G----14-13---11-13-14---------|----------------------------------------------14-13D-14-------14-----------------|-------------------------------------14------------A-----------------------------|---------------------------------------------------E-----------------------------|---------------------------------------------------E---------------------------------------------------------------------------------Slide
E----------12-11-12--12>14-12-11------------------------12-11-12--12>14-12-11------B-12-----14----------------------14---------14-------14-----------------------14---G-----13----------------------------13---13-------13-------------------------------D----------------------------------------------------------------------------------A----------------------------------------------------------------------------------E----------------------------------------------------------------------------------E--------------------------------------------------------------------------------B--------------11---11-12---11-12-14---12-14-15--14-15-16------------------------G-13-11-----------9--------------------------------------------------------------D-------14--14-------------------------------------------------------------------A--------------------------------------------------------------------------------E--------------------------------------------------------------------------------x = page's note (i dont' know what he plays)
E-x-x-x-x-------7-8-x-x-x-x-9-10-11-12-x-x-x-x-9-10-11-13-14-x-x-x-x---14-15-16--B---------10-11------------------------------------------------------14----------G--------------------------------------------------------------------------------D--------------------------------------------------------------------------------A--------------------------------------------------------------------------------E--------------------------------------------------------------------------------Here goes (this is very approximate):
E-21-20-19-18-17-------------------------------------------------------------------B----------------21-20-19-18-17----------------------------------------------------G-------------------------------20-19-18-17-16-15-14-17-16-15-14-13-12--15-14-13-12D----------------------------------------------------------------------------------A----------------------------------------------------------------------------------E----------------------------------------------------------------------------------E--------------------------------------------------------------------------------B------------------------12^(14)----12^(14)-12-------------------------12^(14)---G------14-13-12--------------------------------14-13--14-13-11-------------------D-16-15---------16-15-14---------14---------------------------14-----14----------A---------------------------------------------------------------14---------------E--------------------------------------------------------------------------------The arpeggio is something to this effect:
Slide
E
E------------------------------------------------5---5-9-5-9-12>0-----0-----------B----12^(14)-12-14-13----------------4---4-7-4-7---7------------------0-----------G------------------------------6---6---6------------------------------1-----------D-14-------------------4-7-4-7---7------------------------------------2-----------A--------------------6------------------------------------------------2-----------E---------------------------------------------------------------------0------------

This leads into Weekapaug Groove

Icculus
Simple progression, simple shapes (open) - make up the words.
C > G > Am > G
then
C
G
Am
Written by the great and knowledgeable Icculus

C
G
A
Yeah! Our children are old enough to read Icculus...
C
G
C
( C
A cold and lonely night

C )

(no chord)
Runnin' the pace of her fright
Eclectic ascending bassline with strange guitar accompaniment
I haven't yet figured out
Am (strum)
Look at her face tonight!
Listen to a recording for strumming info.
Lyrics off Junta:
...We already played that
We're going to lighten it up a bit
We're going to lighten it up a bit
This really isn't a stupid song
This is a special song
This is an important song
This is a dance song
This is.. THIS IS RED ROCKS...THIS IS THE EDGE!!!
No really this is a song about...
We want to get serious now that we have your attention
We want to talk about..
We want to talk about an important man
(Diarrhea!-Mike)
Who could have an important effect
On everybody in this room's lives
If they were willing to take the chance
To let this person into their hearts and their views
Because this is a special man
And this man wrote a great book
For this is the author of the Helping Friendly Book
The book that could change your life, the way it changed ours
And I hope that someday
That you, you people will all have the chance
To read the Helping Friendly Book
And experience the wisdom
Of the great and knowledgeable
Man who wrote the Helping Friendly Book
Because he is, the great and knowledgeable
He is the one, the only
Author of the Helping Friendly Book
HE is, the man, the great man, the only
the special

His name is...


The Author of the Helping Friendly Book
He is the great, the knowledgeable
The one, the only
The great and knowledgeable
Person who wrote the Helping Friendly Book
His name could only be
The one, the only
The only, the special, the Author of the Helping Friendly Book
HE WROTE THE FUCKING BOOK OK!
HE WROTE THE BOOK
His name..
WAS..
ICCULUS!!!!!
Written by the great and knowledgeable Icculus
Ya! Our children are old enough
To read ICCULUS
A cold and lonely night
Running the pace of her fright
Look at her face tonight!

If I Could
Intro
Verse chords
D11*
| G B7 C
G
F C
D A C C/B Am G
e|------------|-------------------------------------------3--|
B|-----5--3---|--8---0--0---0--0--0--1--:--3--5--1--1--1--0--|
G|----0--0----|--0---8--9---4--4--2--0--:--0--6--0--0--2--0--|
D|---4--4-----|--9---7--10--5--5--3--2--:--4--7--2--0--2--0--|
A|--5---------|--10--9--10--5--5--3--3--:--5--0--3--2--0--2--|
E|------------|-use-*-pattern-basically-throughout--------3--|
Alternate Intro fretting:
e|-----0-------B|------3------G|----0--0-0--D|---4----4---A|--5----------E|-------------G
B7
C
G
G
Take me to another place she said,
F
C
D11*
take me to another time
G
B7
C
G
Run with me across the oceans,
F
C
D
A C C/B Am
float me on a silver cloud--------------.
(strum open chords)
G
C
If i could i would, but i don't know
G
C
if i could i would, but i don't know
Bm
C
If i could i would, and i'd take you

how,
how
D C
now

C/B

Am

D11, or a G9 arpeggio:
e|-------------B|-----10-8----G|----0----0-0-D|---9------9--A|-10----------E|-------------Stay with me till time turns over
I wanna feel me feet leave the ground
Take me where the whispering breezes can
lift me up and spin me around...
If i could i would, but i don't know how,
if i could i would, but i don't know how
Bm
C
D
If i could i would, and i'd take you now
D
A
C
G
Hear you laughing as we go...(i'd take you now )
D
A
C
G
Flipping backwards through the doors and through the windows(i'd take you now )
D
A
C C/B Am
I'm melting into nothing

Chorus 2x
Instrumental(cellos?) play progression 2x
G
4x C
4x G
4x C
4x Bm
4x C
4x C/B
4x Am
4x
e|---------|---------|---------|---------|---------|---------|---------|---------|
B|---------|---------|---------|---------|15p14----|13p12----|15p14----|13p12----|
G|---------|17p14----|---------|17p14----|----16p14|----14p12|----16p14|----14p12|
D|17p14----|----17p15|17p14----|----17p15|---------|---------|---------|---------|
A|----17p15|---------|----17p15|---------|---------|---------|---------|---------|
E|---------|---------|---------|---------|---------|---------|---------|---------|
{^improvement welcome. loisten to it live, it is like Bouning Aroundthe Room end^}
D
A
If i could i
D
A
If i could i
D
A
If i could i

C
G
would.....but i don't know how
C
G
would.....but i don't know how
C
G
would....but i don't know how

Am/B

Am

Its Ice
These are just the chords up to the jam after the second chorus.
Intro guitar part over Benny Hill bass line (it's in Bb):
P
P
E|-----------|---------4-|---------6-4---3-----------|
B|-------3-6-|-------3---|-------3-----5---6-4---3---|
G|-----5-----|-----5-----|-----5---------------6-----|
D|-3-6-------|-3-6-------|-3-6---------------------6-|
A|-----------|-----------|---------------------------|
E|-----------|-----------|---------------------------|
P
P
E|-----------|---------4-|---------6-4---3---------6-|
B|-------3-6-|-------3---|-------3-----5---6-4---3---|
G|-----5-----|-----5-----|-----5---------------6-----|
D|-3-6-------|-3-6-------|-3-6-----------------------|
A|-----------|-----------|---------------------------|
E|-----------|-----------|---------------------------|
Bb
F/A
Eb
I press on the elastic sheet, I'm breathing through a slice
G
Bb
Dd
B
'Are they worms or are the serpents?' bubbled through the ice
Ab/C
B
G/B
F
The source was quite invisible, the ever-present voice
A/E
E
B
Bb
While skating, both legs tracing different shapes, I made my choice
Next vers has the same chords, except that just before going to a
chorus, the last chord is an E instead of a Bb.
Chorus:
G
D
He's fallen on the ice it cracks
Dm7
C
Will he plunge in and join me here?
G
D
Meets my eyes to my suprise
F
D
Laughs the full light of my frown
My double wants to pull me down
E
That little chromatic riff goes like this:
E Eb
D
Db
Bb A
Ab
G
E|-----16-15--15-14--14-13-|-10--9---9--8---8--7-|
B|-----17-16--16-15--15-14-|-11-10--10--9---9--8-|
G|-----16-15--15-14--14-13-|-10--9---9--8---8--7-|
D|-------------------------|---------------------|
A|-------------------------|---------------------|
E|-------------------------|---------------------|
Bass:
E
Bb
The second time this happens it goes:
E Eb
D
Db
C B
Bb
A
E|-----16-15--15-14--14-13-|-12-11--11--10--10--9-|
B|-----17-16--16-15--15-14-|-13-12--12--11--11-10-|
G|-----16-15--15-14--14-13-|-12-11--11--10--10--9-|
D|-------------------------|----------------------|
A|-------------------------|----------------------|
E|-------------------------|----------------------|
Bass:
E
C

Izabella
by Jimi Hendrix
(as performed by Phish)
here's the main riff. i figured it out while i was jamming a while back.
B^1/2
|------------------------------------------|
|------------(3)^--------------------------|
|-------------3-^--------------------------|
|--5p3h5p3h5------5p3h5--------------------|
|-----------------------------3-4-5--------|
|-----------------------3--6---------------|
then later on it goes...
|-------------------------------------------------------|
|----------------------------------6---3----------------|
|-------------3----------5----------------5p3h5p3-------| repeat a
|--5p3h5p3h5------5p3h5-----5p3h5-----------------5p3---|
couple of
|-------------------------------------------------------|
times
|-------------------------------------------------------|

unison slides ..
|------------------------------------------|
|---6-->--5-->--6-->--(8)------------------|
|------------------------------------------|
|---3-->--2-->--3-->--(5)------------------|
|------------------------------------------|
|------------------------------------------|

Jesus Just Left Chicago


by ZZ Top
Transcribed by Eric Oberbroeckling
G
E
B
G
D
A
E

------------------------------|------------------------------------0----1----------------------|--5----6----------------------------*---------------------------|------------------------------------0----2----------------------|--5----7--------------------------------------------------------|----------------------------------------------------------------|----------------------------------* - let these ring (duh, listen to the CD)

=)

Turnaround P.S. Listen to the CD for timing, because the G/C, C/F part above is
standard es but then after the C/F section, the G/C riff is played only
three times insteaf 4
At the turnaround, after the G/C riff is played three times E
B
G
D
A
E

--------------------------------------------------------------------2--------1--------------------------------------------------------2--------0--------------------------------------------------------2--------2------------------5-----5------3-----3-----3---3--------0--------3------3p0-------------------/5---5-4---4-3---3------------------------------3----3-----3---------------------------6^--3-

^ - bend quarter/half, whichever makes you feel better.


or use this:
E
B
G
D
A
E

-------------------------------------------------------------------2--------5--------------------------------------------------------------------------------------------------------------------------2----/---5---------------5-----5------3-----3------3-----3-------------------------3^----------------/5---5-4---4-3-----3---------------------------------3-----3------------------------------6^---3-

That's the basics for the whole tune - now just get that G Blues scale
down pat and get ready to do some fancy blues pickin.

Joy
Gmaj7
E|-2-|
B|-3-|
G|-0-|
D|-0-|
A|-2-|
E|-3-|
D
Joy is over there in her incredible clothes
Gmaj7
She has silver silk shimmering down to her toes
D
I was doing the best that I can I suppose
Gmaj7
But that little girl dancer eventually grows
E
fill (b-c-d-c-b on A string)
Well she grows
G A
D
You cant imagine all the times that Ive tried
Gmaj7
To uncover the source of the tears that you cried
D
Lets throw it away and just go for a ride
Gmaj7
And you'd say okay but you'd keep it inside
E
fill
And I tried
G
I tried
E
fill
I tried
G
A
I tried
[Chorus]
G
D
We want you to be happy
A
G
Dont live inside the gloom
D
We want you to be happy
A
G
Come step outside your room
F#m
We want you to be happy
A
Cause this is your song too
D
I never thought I could have it so good
G
You were the song that my soul understood
D
But time is a river that flows through the woods
G
And it led us to places we both understood
E
Would be gone
G
Before too long
E
Would be gone
G
A
Before too long

D
When we were young we thought life was a game
G
But then somebody leaves you and youre never the same
D
All of the places that people belong
G
To the puzzle but one of the pieces is gone
E
And its you
G
Its you
E
Its you
G
A
Joy its you
[Chorus]
G
D
We want you to be happy
A
G
Dont live inside the gloom
D
We want you to be happy
A
G
Come step outside your room
F#m
We want you to be happy
A
Cause this is your song too
[Solo/Bridge]
Em
C
G
D
A
E|---12--------------------------------------------------------------|
B|------12----12-13----12--------------------------------------------|
G|---------12-------------12----14-11----14--------------------------|
D|---------------------------12-------12----14-11--------------------|
A|-------------------------------------------------------------------|
E|-------------------------------------------------------------------|
Em
C
G
D
A
E|---12-------12-15----15-------14-------17--------------------------|
B|------12----------------15-12----15--------------------------------|
G|---------12-------------------------14-----------------------------|
D|-------------------------------------------------------------------|
A|-------------------------------------------------------------------|
E|-------------------------------------------------------------------|
Em
C
G
In time well weather this storm
D
A
Inside together youll see the change
C
G
A
When the sun shines through
[Chorus]
G
D
A
We want you to be happy
G
Dont live inside the gloom
D
A
We want you to be happy
G
Come step outside your room
F#m
We want you to be happy
A
Cause this is your song too

[Outro jam (end on A)]


G
D
A
E|---15-------15-14-----------------------------------------|
B|------15-12-------15----15-14-------17--------------------|
G|---------------------14-------14--------------------------|
D|---------------------------------14-----------------------|
A|----------------------------------------------------------|
E|----------------------------------------------------------|
Aaaah aaaah, this is your song too

Julius
''intro & verse:''
---------------------:---2--0----------------------:---3--1-----2---0------------:---2--0---/2---0-------------:---0--2-----------3^-0-------:------3----------------3-----:--------===============================
intro 2x
verse 4x
Danger I've been told to expect it
I begin my descent Down the cold granite steps
4x
And who could have turned among those I confide in?
I think that I know what I haven't known yet
''chorus *D:''
* the upstrokes are muted so it would be played as a slide up to the D, a muted
upstroke very quickly on the D, then down stroke on the C. If that sounds complicated
listen to the timing on the song, it plays very naturally.
-------------------------------/7-x-5---------/7-x-5--------/7-x-5---------/7-x-5--------/7-x-5---------/7-x-5---------------8-5------------8-5-------------------------------===============================
*D 4x
Cause a week is a month and an hour a day
verse 4x
When your reaching just pushes it further away
''chorus *E''
----------------------------------/9-x-7-----------/9-x-7---------/9-x-7-----------/9-x-7---------/9-x-7-----------/9-x-7----------------10-7-------------10-7----------------------------------===============================
*E 2x
With your past and your future precisely divided
*D 3x
Am I at that moment?
I haven't decided
intro 1x w/DC
intro 1x w/DC (big ending)
repeat all intro>verse>chorus over:
And stretching out into the sea... Aquitana
Is that what the prophet told me he saw?
You gave it to me but I really don't want it
I came out on top by the luck of the draw
'Cause a week is a month and an hour a day
When your reaching just pushes it further away
And what's the return on the faith I've provided?

I think that I know now but I haven't decided


vocal
dont take another, dont take another
A
D7
C#9>D9 (slide into the D9)
Don't take another step
Don't blame it on yourself
If you lay it on your brother while your sleeping
A
D9 C#9 D9
When you wake up in the morning he'll be gone.
Then Mike walks up to D while Page wails on the organ. Mikes walk can be played like
this.
----------------------------------------------------------------------------------------------------------------------------------------------0-3-4-5--0-3-5--0-3-5--0-3-5----------------------------------------Trey plays this lick again over the D
-------------------------------/7-x-5---------/7-x-5--------/7-x-5---------/7-x-5--------/7-x-5---------/7-x-5------- 2X
---------8-5------------8-5-------------------------------Repeat intro lick 4X
Repeat walk to D on Page wail sesh. Then take the last walk up to an E7#9 that sorta
falls off as page descends down his organ.
Repeat intro lick 4X
Then back into the chorus.
Then the Oom pa part
The Oom pa pa chord and riff*
------------------------------------------8-8----8-8--------------5h7h8-10------7-7----7-7-------5-6-7----------------6-6----6-6----------------------------7-7----7-7--------------------------0------0----------------------------Straight back into chorus after Oom pa, then solo till the walls fall.
During the peak of the solo Trey usually throws in one of these.
Tremelo picking these chords and moving up very quickly. The whole band does this theme
continuously through the solo but Trey comes in with it to signify the upcoming chorus.
--2--4-5-6-7-8-9!---------------------------3--5-6-7-8-9-10!--------------------------2--4-5-6-7-8-9!-------------------------------------------------------------------------------------------------------------------------------------------------------Then back into chorus with solo continuing over it.
Then the oom pa lick
End on A.

Kill Devil Falls


Intro Riff:
E|-------15---------------11 ---------------8--------------|
B|-15/17----17/11---11/13----13/8----8/10-----10----------|
G|---------------------------------------------------------|
D|---------------------------------------------------------|
A|---------------------------------------------------------|
E|---------------------------------------------------------|
Eb
C
E|-------------|
B|---8--8---5--|
G|---8--8---5--|
D|---8--8---5--|
A|---6--6---3--|
E|-------------|
Main Riff in C:
E|------------------------------------------|
B|-----5---5--------------------------------|
G|-----5---5--------------------------------|
D|-----5---5--1-----------------------------|
A|--3--3---3----3-3-0-0-1-0-1/3-------------|
E|------------------------------------------|
Riff in G:
E|---3----------------------|
B|---3----------------------|
G|---4----------------------|
D|---5----------------------|
A|---5---1------------------|
E|3--3-----3-3-0-0-1-0-1/3--|
Intro
Main Riff in C 4x
C
G
G
C
Just got back from Kill Devil Falls, draped my waterlogged clothes in the hall
Main Riff in C 2x
C
G
G
C
Reached for a beer, glad that Im here when I realized that youre not around
Main Riff in C- 2x
Eb (2 quick hits)
Main Riff in C- 2x
C
G
G
C
Turned on some music, and then the tv, go through the pile of mail waiting for me
Main Riff C 2x
C
G
G
C (slide down)
Something I spied made me pull it aside, a letter from your hometown

Chorus:
F
C
How could you leave me, you heard what I said
G
C
Ill be at the waterfall clearing my head
F
C
Soaking up nature and thinking of you
G
G
F#
F
but leavin's the last thing I thought you would do
F
C
G
C
I didn't plan to stop at the bar, but Kill Devil Falls is really so far
F
C
Who knew a day could turn into a week
Riff In G x3
But I learned my lesson
And I can still remember the last one
This time will be different,
C (A shape 5th fret) slide down
until I do it again
Intro Riff
Main Riff in C- 2x
C
G
G
C
I stared at the ceiling for over a day, but none of my questions are answered this way
Main Riff in C 2x
C
G
G
C
(slide down)
I dont make any calls, Ill just bounce off the walls, till I go back to Kill Devil Falls
Chorus:
Riff in G 4x
But I learned my lesson
And I can remember the last one
This time will be different,
This time will be different
Bridge Chords:
F | C
| G
|
E|-----|--8---|------|
B|-10--|--8---|--12--|
G|-10--|--9---|--12--|
D|-10--|--10--|--12--|
A|--8--|--10--|--10--|
E|-----|--8---|------|
F
C
stand in the face of the mountain
G
page:(Dont follow me)
F
C
I step right up to the cliffside
G
page:(better learn how to lead)
F
C
I stare straight into the future
G
page:(tell me what do you see)
F
C

This time its gonna be different


noodle in Gm(bend 1st string 11th fret F to G and go from there) for 4 bars
F
Whooaaaah
F
Whooaaaah
F
Whooaaaah
F
Whooaaaah

C
G
whooaahhh whoooaahh Dont go back to Kill
C
whooaahhh whoooaahh Dont go back to Kill
C
whooaahhh whoooaahh Dont go back to Kill
C
whooaahhh

Riff in G 3x
I learned my lesson
And I can still remember the last one
This time will be different
e |--10^12-10^12^10--8-8----8/0--|
B |------------------------------|
G |------------------------------|
Main Riff in C>jam as needed

Devil Falls
G
Devil Falls
G
Devil Falls

Lawn Boy
Intro: Emaj7
Emaj7

C#7

F#m7

B13 Emaj7

Bm7 Emaj7 Bm7

C#7

F#m9 B13
Emaj7 Bm7
Emaj7 Bm7
P-O P-O
E--------------9----(9)-------------------(7)--9-7----------(7)--9-7-----B-----9--------9---- 9--9--------------9---7---7---------9---7---7-------G-----8-------10-----9--8--------------8---7---7---------8---7---7-------D-----9--------9-----7--7--------------9---7---7---------9---7---7-------A--7--7-------11-----9-----------7--7-----------------7------------------E-------7-8-9--9--------7---7--9----------(7)-------7-------(7)-(7)---7--Emaj7
Bm7
Throughout the night
Emaj7
Bm7
when there's no direct light
Emaj7
Bm7
and a thin veil of clouds
Bm7
(A#m7)
keeps the stars out of sight
A
C
D
I can smell the colors
Emaj7
C#7
outside on my lawn
F#m9
the moist green organic
B13
that my feet tread upon
Emaj7
Bm7
and the black oleander
Emaj7
Bm7
(A#m7) A
C D
surrounded by blues
Emaj7
C#7 F#m9
I get so overwhelmed
B13
Emaj7
by olfactory hues
Lawn Boy solo
e------------------------------------------------------------------b----------------------s14-12--------------------------------------g----------------------------13------------------------------------d------11h13-13-9-11-9----------14s13s14---------------------------a------------------------------------------------------------------E------------------------------------------------------------------e--------------------------------------7-10-7h9-7------------------b------------------------s14-12-------7----------7-----------------g------------------------------13----7------------7----------------d------11h13-11h13-9-11-9--------14----------------9s11------------a------------------------------------------------------------------E------------------------------------------------------------------e-----5-7-7h8-7-5--------------9---------------9--12-10h11----------b----5------------7s9------------12-9h10-----9------------12---9----g---5------------------------------------9-11-----------------9-11s13
d---------------------11-10-s11------------------------------9------a-------------------------------------------------------------------E--------------------------------------------------------------------

e-----------------------------------------14-12---------12---------b------------------------------s14-12-----------14-----------------g--------11h13-11h13-11-9-11-9-------13------------13h1414s13-----d--------------------------------------14---------------------14---a------14----------------------------------------------------------E------------------------------------------------------------------e--------------12--------------------------------------------------b----------------12-12h14-12--------------1412s14-9h10-----------g----------14----------------------------------------------------d------12-14----------------------11-10s11------------------------a-----------------------------------------------------------------E------------------------------------------------------------------== Alternate Solo Transcription ==


Here's my take on this solo. I use the lower frets for this transcription, since this was
originally played on an acoustic. Notes in parentheses are played very quietly.
e-------------------7h9-7-----------------b-7h9-9---7---------------9-7-------------g-------9---9-(9-9)-----------9p8h9-(s9-9)d-----------------------------------------a-----------------------------------------E-----------------------------------------e-------------------7h9-7-----7-10-8h9-7--------b-7h9-9---7---------------9--------------9------g-------9---9-(9-9)---------7--------------9-7-6d-----------------------------------------------a-----------------------------------------------E-----------------------------------------------<rake>
e-----5-7-7s8-7-5-------------9--------b---5---------------9-----------12-9h10g-6------------------------------------d---------------------9h10-11----------a--------------------------------------E--------------------------------------e---------9-12-10h11-7----------b------10--------------------7--g-9-11--------------------------d----------------------9-8-7---7a-------------------------------E-------------------------------e-------------------7h9-7-------13-10---------12-9h10(r9)---b-7h9-9---7---------------9-7---------12-10-9---------------g-------9---9-(9-9)-----------9--------------------------(9)d-----------------------------------------------------------a-----------------------------------------------------------E-----------------------------------------------------------e---------12-8--10------------9-----------b------10----------12-----------11h12-9h10g-9-11------------------------------------d---------------------9-10-11-------------a-----------------------------------------E------------------------------------------

Letters to Jimmy Page


A B D
E----------------------------------------------------------------B-2--4--7--------------------------5-------------------8b--8b--5-G-2--4--7------------4--7-------------7----------7---------------D-2--4--7-----5h6-6-----------5-6-----------5h6-----7------------A----------7---------------7-------------7-----------------------E----------------------------------------------------------------Then mix around these chords with tab below them
A D E
E-5--5--7
B-5--7--9
G-6--7--9
D-7--7--9
A-7--5--7
E-5--5--7

X4

or

A G E
E-5--3--0
B-5--3--0
G-6--4--2
D-7--5--3
A-7--5--3
E-5--3--0

X4

E---------------------------------------B-10--8--5--10--8--5---10--8--5--10--8--5
G---------------------------------------D---------------------------------------A---------------------------------------E---------------------------------------Then play these chords and mix them with the tab below them.
B E B B C#m D
E-7--7--7--7--9---10B-7--9--7--7--9---10G-8--9--8--8--9---11D-9--9--9--8- 11--12A-9--7--9--9--11--12E-7--7--7--9--9---10E-5-----5---------B----4-----4--6--7G-----------------D-----------------A-----------------E-----------------Then back to the top. Repeat it one more time, but change the
ending from B E B B C#m D to B E B B C#m D Eb->Alumni Blues Riff.

X2

Light Up Or Leave Me Alone


These are the three licks used in the song:
Lick #1
E------------------------------------B-10-9-8-----------------------------G---------9-8-7----------------------D----------------9-8-7---------------A------------------------------------E------------------------------------Lick #2
E
A
C#m
F#m
E------------------------------------B------10---------7------------------G---9--------6-----------------------D------------------------------------A------------------------------------E------------------------------------Lick #3
E------------------------------------B-------10----10----10-----10--------G-----8-----8-----8------8-----8-----D---9-----9-----9------9-----9---7---A------------------------------------E------------------------------------Lick #1
E
D
A
C
Sometimes I feel like I'm fading away
E
D
A
C
You're looking at me, I've got nothing to say
E
D
A
C
Don't make me angry with the games that you play
D
A
E
Either light up or leave me alone
Lick #1
E
D
A
C
You walk in my room, you lie in my bed
E
D
A C
You open your mouth, shoot someone dead
E
D
A
C
All of a sudden you're inside my head
D
A
E
Either light up or leave me alone
Lick#1
Lick#2 X3
Lick #3

JAM (E)
Lick #2 X3
Lick #3
E
D
A
C
Spending my bread like it grew on a tree
E
D
A
C
You're trying to tell me 'bout the birds and the bees
E
D
A
C
The skirt that you're wearing is way past your knees
D
A
E
Either light up or leave me alone
Lick #1
E
D
A
C
You're up all night preaching your mind
E
D
A
C
Come home in the morning with your latest find
E
D
A
C
I'm gonna have to lay it to you straight on the line
D (hold)
Either light up
A (hold)
or leave me
E
alone
JAM (E) or (E,G,A,B)

Light
Intro: B -> E
Chorus:
B
F#
C#m
E
I can't see the light between me and my mind
B
F#
A
E
I can feel the memories fall---- behind
B
E
And the light is growing brighter now
B
E
And the light is growing brighter now
Verse 1:
B
E
F#m
E
I see the future is less and less there
B
G#m
F#
and the past has vanished in the air
F#m
E
and I'm left in the now
F#m
E
with a wondrous glow
C#m
B
I think I'm still me
D
but how-----A
would you know-----Verse ending: E

Repeat Chorus
Verse 2:
B
E
F#m
E
It takes a few moments of whirling around
B
G#m
F#
'till your feet finally leave the ground
F#m
E
and fending off fears
F#m
E
and heeding the call
C#m
B
and finally waiting
D
for nothing------A
at all-------Verse ending: E

Repeat Chorus
Repeat:
B
E
And the light is growing brighter now...
The backup vocals are in 2 sections (below).
Fish sings #1, Mike/Page sing #2, while Trey sings the main vamp above.

The chords below are there to illustrate "where" the words fall in relation to the
chords above...hope it makes sense.
E
1:(Fantasies unfiltered)
E
1:(Obstacles are stepping stones)

B
2:(Purify our soul)
B
2:(Guide us to our goal)

Light/intro to solo:
e
B
G
D
A
E

------------------------------------------------------16-17-19---16-17-19---16-17-19---16-17-19--------------------------------------------------------------------------------------------------------------------------------------------------------------------------------------------------------------------

e
B
G
D
A
E

------------------------------------------------------16-17-19---16-17-19------------------------------------------------------18b2018b20---16--------------------------------------------------------------------------------------------------------------------------------------------------------------------

The trick to playing this in time is to do the first 4 pretty quickly


(almost without regard to the timing of the rest of the song),
wait a split second, then finish the last 2 and bend up to that Bb.

Limb By Limb
h p
E----------------------------------------------------------------------------B----------6--6-7-6--------8---------10---10-11---10-11---10-11---10---------G----------6--6-6-6--------8---------10---10-10---10-10---10-10---10---------D----------6--6-8-6--------8---------10---10-12---10-12---10-12---10---------A--8-8-8-8----------8>10--10--10>12--12-------------------------------12-----E----------------------------------------------------------------------------The shoulder that I leaned on was carved out of stone
But when I'm done freezing I want to be alone
----------------------------------------------x-x-x-10---x-x-x-10---x-x-x-11---x-x-x-11----x-x-x-10---x-x-x-10---x-x-x-10---x-x-x-10----x-x-x-10---x-x-x-10---x-x-x-12---x-x-x-12---- (through verse)
------------------------------------------------------------------------------------------Never want my hand cut off
Never want a hacking cough
Never need a cliffside push Never turn my brain to mush
Always give me what I lack Always take the best parts back
Always recognize your fate Always just a moment late
Left is where I always turn Left is how I'm forced to learn
Left the room my walking takes Left to alone with my mistakes
Up against a person who Up til now I never knew
Up from hell the answer blew Up and down it's up to you.
(1st part again)
Drop me off the chinese wall and peel my fingers off the rim
I come unglued while in mid-air and land to reform limb by limb
limb by limb by limb by limb (repeating throughout following verse)

Mike:

And I am taken far away....

Trey:
Lingering slowly and melting away
Tossed with the salad and baled with the hay
Pooling like water that drips from above
Trampled by lambs and pecked by the dove

Lizards
E
E|------0-------------0-------------0-------------0-------B|----5---5---------5---5---------5---5---------5---5-----G|--4---------4---4---------4---4---------4---4---------4-D|6---------6---6---------6---6---------6---6---------6---A|--------------------------------------------------------E|--------------------------------------------------------The picking pattern stays the same, but the chords change in this pattern:
E -> Em -> F#m7 -> F# -> B -> repeat
using these chord forms:
E Em F#m F# B
E|-0--0--0---0---0-B|-5--5--7---7---7-G|-4--4--6---6---8-D|-6--5--7---8---9-A|-----------------E|-----------------C (repeat)
E|------------|
B|------8-8---|
G|----------9-|
D|10-10-------|
A|------------|
E|------------|
E|----5-------|
B|------5-----|
G|--5---------|
D|4-------4---|
A|------------|
E|------------|

This picking pattern is the basis for the chords


with notes on the D, G, and B strings

This picking pattern is the basis for the chords


with notes on the D, G, B, and E strings

How to read:
--chord: what I believe the chord is, in guitar notation.
--bass: what I feel is the bass note. Note: this note may not
be in the chord! It may be a passing tone to another
chord. So C/B means a C chord with a B in the bass.
--strings: just about the whole song can be played on the
E, D, G, and B strings, so I have included the frets.
INTRO:
--chord:
--bass:
--E str:
B str:
G str:
D str:
VERSE:
C:
B:

C
C

C
C
8
9
10

pas...cam...lean..arm....He..way.king...
G Gm F Fm Fm C C-5 G/9 G9 G6/9 E7
B Bb A Ab Ab G Gb G
F
E
E

Es:
Bs: 8
Gs: 9
Ds: 10

8
7
9

8
7
8

6
5
7

6
5
6

6
5
6

5
5
5

5
5
5
4

5
3
4
5

5
3
4
3

| 1st ending
| 2nd ending
| Wil..Wil..Wil.....|
C:
Fdm Fdm Fdm Fdm| Edim Edim
B:
F
Ab
Cb
Cb | E
E
Es: 4
7
10
10 | 3
3
Bs: 3
6
9
9 | 2
2
Gs: 4
7
10
10 | 3
3
Ds: 3
6
9
9 | 2
2
VERSE:
C:
B:
Es:
Bs:
Gs:
Ds:
CHORUS:
dark
C: G

5
3
4
2

4
3
4
2
|
|
|
|
|
|
|
|

led....edge..wand...sprng.kni....sto...lift...turn....sing!
F F G G Am Am F F F Fm C C G/9 G9 G6/9 D6 C
F F# G G# A
A# A A A Ab G G G
F E
D C
5
5 5
5 0
1 1 3 3 5
5 6 6 6 6
5 5 3
3 3
3 1
2 2 4 4 5
5 5 5 5 5
5 5 4
4 4
4 0
3 4 5 6 7
8 7 7 7 6
5 5 5
3 2
0 2

doom
C

boon
C
G

tried
C
G

died
G
F

died
!
G
F C

Piano solo:
|1.-- |2.--C:
C C Dm Dm7 G7 G7|C C |G7 G7
B:
C C# D C
D D |E E |D D
Es:
|
|
Bs: 8 8 10 10 12 12 |13 13|12 12
Gs: 9 9 10 10 10 10 |12 12|10 10
Ds: 10 11 12 10 12 12 |14 14|12 12
Full lyrics:
Passing through the corridor I came upon an aging knight
Who leaned against the wall in gnarly armor
He was on his way to see the king
Wilson
Wilson
Wilson
He led me through the streets of Prussia talking
As he tried to crush a bug that scurried underneath his bootheel
He said there was a place where we should go
So he lead me through the forest to the edge of a lagoon by which
We wandered 'til we reached a bubbly spring
The knight grew very quiet as we stood there
Then he lifted up his visor and he turned to me and he began to sing
chorus:
He said I come from the land of darkness
I said I come from the land of doom
He said I come from the land of Gamehendge
From the land of the big baboon
But I'm never never going back there
And I couldn't if I tried
'Cause I come from the land of Lizards
And the Lizards they have died
And the Lizards they have died
And the Lizards they have died
And the Lizards they have ...
He told me that the Lizards were a race of people practically extinct
From doing things smart people don't do

He said that he was once a Lizard too


His name was Rutherford the Brave and he was on a quest to save
His people from the fate that lay before them.
Their clumsy end was perilously near
The Lizards would be saved, he said, if they could be enlightened
By the writings of the Helping Friendly Book
In all of Prussia only one existed
And Wilson had declared that any person who possessed it was a crook
[chorus]
The Helping Friendly Book, it seemed, possessed the ancient secrets
Of eternal joy and never-ending splendor
The trick was to surrender to the flow
We walked along beneath the moon
He lead us through the bush 'till soon
We saw before our eyes a raging river
He said that we could swim it if we tried
And saying this the knight dove in forgetting that his suit of arms
Would surely weigh him down and so he sunk
And as his body disappeared before me
I bowed my head in silence and remembered all thoughts that he had thunk
[chorus]
Repeat Verse and chorus twice more, ending the chorus the second time with the
following passage in place of the "died!" in the first
"and the lizards they have died!" lyric
CHORUS III: Whoa whoa whoa...
C:
G
F
G F G F...
Piano solo II: (this part comes after the chorus, but instead of playing that
final C, play the first chord of the part below and continue)
PIANO SOLO: WHOAAA
C: G F G
B: G F G

F
F

Abmaj7
Ab

Gm7
G

Bbmaj7
Bb

Am7
A

This is what Trey plays towards the last half of Page's piano solo, right into the
last "whoa, whoa, whoa, etc."
B
Sometimes he pulls off, and sometimes he doesn't
e---------------------------------------------------------------------b---------------------------------------------------------------------g---------8----11--8------------11--8---------11--8--------11--8------d------9---------------9---------------9-------------9------------9---a---------------------------------------------------------------------e---------------------------------------------------------------------A#m7
e---------------------------------------------------------------------b---------------------------------------------------------------------g---------10--13--10-----------13--10---------13--10--------13--10----d-----11--------------11---------------11-------------11------------11a---------------------------------------------------------------------e---------------------------------------------------------------------Amaj7
e---------------------------------------------------------------------b---------------------------------------------------------------------g---------9--13--9----------13--9----------13--9----------13--9-------d-----11------------11-------------11-------------11-------------11---a---------------------------------------------------------------------e----------------------------------------------------------------------

G#m7
e---------------------------------------------------------------------b---------------------------------------------------------------------g---------8----11--8------------11--8---------11--8--------11--8------d------9---------------9---------------9-------------9------------9---a---------------------------------------------------------------------e---------------------------------------------------------------------e------------------------------------------------b------------------------------------------------g----13--10----------13--10----------13--10------d------------11--------------11--------------11--a------------------------------------------------e------------------------------------------------e---------------------------------------------------------------------b---------------------------------------------------------------------g---14--11--------14--11-------------16--12---------16--12------------d-----------12------------12-----------------14-------------14--------a---------------------------------------------------------------------e---------------------------------------------------------------------Bmaj7
This phrase until the end is played fast!!
e---------------------------------------------------------------------b---------------------------------------------------------------------g---15-15--11-----------15-15--11----------15-15--11------------------d--------------13------------------13-----------------13--------------a---------------------------------------------------------------------e---------------------------------------------------------------------A#m7
e---------------------------------------------------------------------b---------------------------------------------------------------------g---17-17--13-----------17-17--13-----------17-17--13-----------------d--------------15------------------15------------------15-------------a---------------------------------------------------------------------e---------------------------------------------------------------------Amaj7
e---------------------------------------------------------------------b---------------------------------------------------------------------g---16-16--13-----------16-16--13-----------16-16--13-----------------d--------------14------------------14------------------14-------------a---------------------------------------------------------------------e---------------------------------------------------------------------e---------------------------------------------------------------------b---------------------------------------------------------------------g---17-17--14------------17-17--14------------18-18--15---------------d--------------15-------------------15-------------------16-----------a---------------------------------------------------------------------e---------------------------------------------------------------------e---------------------------------------------------------------------b----------------------------17-17--13------------18-18--14-----------g---20-20--16---------------------------14-------------------15-------d--------------18-----------------------------------------------------a---------------------------------------------------------------------e---------------------------------------------------------------------e---------------------b---19-19--17---------g--------------16------

d---------------------a---------------------e---------------------e---------------------------------------------------------------------b---20-20--16-----------20-20--16----------20-20--16------------------g--------------17------------------17-----------------17--------------d---------------------------------------------------------------------a-----------------------------repeat a couple of times and then>>>>---e---------------------------------------------------------------------WHOA, WHOA, WHOA, WHOA, WHOA!!!!


This part culminates by playing an Am instead of the Am7, then playing a D > Dsus4
chord figure 4 times, which leads back into the G F figure as in CHORUS III. End
the CHORUS III this time with the staccato C chord, followed by 16th-note bass C
notes until the guitar melody enters. The first time through up until the second
ending, only the bass notes of the indicated chords should be played.
Refer to the VERSE section above for the proper notes...
[oh, alright! here they are: C:
C G Gm F Fm Fm C C-5 G/9]
[
B:
C B Bb A Ab Ab G Gb G ]
OUTRO:
C:
|C
|G/B
|Gm/Bb
|F/A
*
H-O
E------------|--------|--------|--------------|---------B------------|8-------|8-----8-|10-8-----8-10-|8-6-5----G-------9-10-|------9-|--------|----10--------|------5-5D-10-10------|--------|--------|------10------|---------A------------|--------|--------|--------------|---------E------------|--------|--------|--------------|---------1.-------------|Fm/Ab
|Fm C C-5|G/9
|G/9
E-|----------|---------|--------|---------------B-|8---5-6---|6---5----|3-------|---------------- begin repeat
G-|--7-------|------5--|--------|-----------9-10- at the "*"
D-|--------5-|---------|--------|-----10-10------ above
A-|----------|---------|--------|---------------E-|----------|---------|--------|---------------2.--------|G/9
|Ebmaj7
|Dm7
|Abmaj7
E-|----------|------3-6-|--------|-------------B-|----------|3---3-----|6-----6-|4-----3-4---4G-|--------3-|--5-------|--------|----5--------D-|----------|----------|--------|-------------A-|----------|----------|--------|-------------E-|----------|----------|--------|-------------|Gm7
|F
|Em
|Dm7
G
E-|----------|5-------5-|7-----7-|5---5-------|---B-|3-6-----6-|----6-8---|--8-----|--6---8-----|---G-|----------|----------|--------|------------|---D-|----------|----------|--------|------------|5--A-|----------|----------|--------|------------|---E-|----------|----------|--------|------------|---then repeat the entire outro twice more. The second time the outro is repeated, raise
the guitar melody up one octave, and instead of
going to the 2nd ending of the repeat, go back into the G F figure as in CHORUS III.
End the CHORUS III this time with the staccato C
chord. That's it!

Llama
CHORD VOICINGS
Em7
Em7+9 A9
F#m7 Fmaj7 A7#9
E---12----14----12----14--------------------------------------------B---12----12----12----14----13-----13-------------------------------G---12----12----12----14----14-----12-------------------------------D---12----12----11----14----14-----11-------------------------------A---------------12-----------------12-------------------------------E---12----12----------14----13--------------------------------------RHYTHM
INTRO
Em7
| /

Em7+9
/
/

Em7
/

VERSE
Em7
Sunrise over the turquoise mountains
Messenger birds in sight
They came up through the valley
Both sides at a time
A9
Through the cold steady rain
Raid! I bend down
Em7
Poke a double decker on a llama Taboot Poke
F#m7
Llama, Taboot Taboot Trigger a blastoplast, ramshackle laker recedes
Fmaj7
A7#9
I start to run (re)cedes It was the loudest thing I'd ever heard
And I knew my time had come
To enter the delta
CHORUS
|

Em7
/
/
Leave
/
/
Llama

Em7
/
/
Leave

Fmaj7
/
/
Llama

/
/
Llama
A9
/
/
Leave
/
/
Llama
Em7
/
/
Leave

/
/
Leave

/
/
Llama

F#m7
/
/
Leave
/
/
Llama

The riff that goes by during the intro and returns again to finish the
song goes like this:
P-O
P-O
E-------------------------------------------|-----------------------B-------------------------------------------|-----------------------G---14---12---------------------------------|-----------------------D-------------14---13---12------------------|-----------------------A----------------------------15---14---13---|12---10---12---10------E-------------------------------------------|-----------------------*P-O means pull-off

Loving Cup
intro (if you are playing without the piano, i like to simulate the intro
like this:
-------- x3 ---------E--------------------------------|--------------------7----5---3------B----0--0--1------3>5>3--0-------|-----0--1--0------------------------G----0--0--0---------------2-0---|-----0--0--0----6>7----5----4-------D----0--0--2---------------------|-----0--2--0------------------------A--------------------------------|------------------------------------E--3-(let ring)------------------|-----3------------------------------D
C
G
I'm the man on the mountain, come on up
D
C
G
I'm the plowman in the valley with a face full of mud
C
G
Yes I am fumbling and I know my car won't start
C
G
Yes I am stumbling and I know I play a bad guitar
F
C
G
Give me little drink from your loving cup
F
C
G
Just one drink and I'll fall down drunk
[repeat previouss chord pattern]
I'm the man who walks the hillside in the sweet summer sun
I'm the man who brings you roses when you ain't got none
Well, I can run and jump and fish, but I won't fight
You if you want to push and pull with me all night
[repeat previous chord pattern]
Give me little drink from your loving cup
Just one drink and I'll fall down drunk
Em
Bm
C
G
I feel so humble with you tonight just sitting in front of the fire
Bb
See your face dancing in the flame, feel your mouth kissing me again
Bb
D
What a beautiful buzz, what a beautiful buzz
C
G
What a beautiful buzz, what a beautiful buzz
D
C
G
Ohhhhh, what a beautiful buzz, what a beautiful buzz
C
G
Yes, I am nitty gritty and my shirt's all torn
C
G
But I would love to spill the beans with you till dawn
[repeat previous chord pattern]
Give me little drink from your loving cup
Just one drink and I'll fall down drunk
G
Gimme little drink (repeat a few times...)
D
C
G
Ohhhhhh, what a beautiful buzz, what a beautiful buzz (repeat 2 or 3
times..)

Makisupa Policeman
(bassline:)
D----------------------G----------------4--7--B----4--7--(4)-5-------E--5-------------------A>D
A
D
----------------5------7------6------7------7------7------------------Eventually, after the lyrics the first time around and the "Key"word
it goes to
A
D
--------(10)----10------10------9------11-----11------12-----12------12-------------------the little breakdown section
e------------------------------B------------------------------G------------------------------D------------------------------A--0-0-0-----0-1-2-2------------E---------0------------0---0-2--

For the jam between verses, I like to throw on the digital delay and
the wa-wa.
Have fun with the song, it's really fun to play with two
guitars.

Then back to the top. Repeat it one more time, but change the
ending from B E B B C#m D to B E B B C#m D Eb->Alumni Blues Riff.

Maze
==Intro==
<#>=harmonic np=don't pick /=slide into h=hammer p=pull ~=vibrato
Intro: Really pinch the G on the high E string in the lick with the harmonics. Also pay
attention to the tricky timing with that same riff (offbeats).
Volume Swells:
E----------------------------------------------------15----------15---3--|
B--4--6--4--6---------------------------------------------------------3--|
G--5--7--5--7----14--7---14--7---15-14-13---<5>---<5>---<5>---<5>-----3--|
D--4--6--4--6----13--x---13--x---14-13-12------<5>---------<5>--------3--|
A----------------12--5---12--5---13-12-11-----------------------------5--|
E---------------------------------------------------------------------3--|
(Bass Sim.)
|:
:|
Trey's Harmonics (repeat)
E------------------------------------------------B------------------------------------------------G------------------------------(5)--or---(5)-(7)-D------------------------------(5)---------------A--------------1---------------------------------E--3--3-3-1--3------------------------------------

Gm7
C9
The overhead view is of me in a maze.
Gm7
And you see what I'm hunting a few steps away.
C9
But I take a wrong turn, and I'm on the wrong path.
Gm7
And the people all watching enjoy a good laugh.
D
C
Embarrassed with failure, I try to reverse
Bb
G#
Gm7
The course that my tread had already traversed.
[same chord progression]
So doing the trauma engulfing my dreams
Invaded through what was an unguarded seam.
The torrent of helplessness swept me away.
To the cavern of shame and the hall of dismay.
Inside me a voice was repeating the phrase:
"You've lost it. You'll never get out of this maze."
Bb
G
You'll never get out of this maze.
(jam)

x7

McGrupp and the Watchful Hosemasters


Intro:
Emaj7
Bm7
Bm9
|:
:|
E------------------7-----------------------9------B------9\8/9-------7---------9\8/9---------7------G------8\7/8-------7---------8\7/8---------7------D------9\8/9-------7---------9\8/9---------7------A------7\6/7-------x---------7\6/7---------x------E----0-------------7-------0---------------7------All upstrokes on these chords are played with a quick dead note (muted) down stroke
scrape across the strings between them.
up up up up up
down
E----7---9--7--9--9-----9-----9-----B----9---7--7--9--10----10h12---10--G----8---8--8--9--9-----9-----------D----9---9--9-----11----11----------A----7---7--7-----------------------E-----------------------------------^^^
this down stroke is played as an arpeggio
A Emaj7/G# F#m7 B
E-----------------------------B-----10---7-----5------7-----G----9----8-----6------8------D--11----9----7~----7/9-------A-----------------------------E-----------------------------Repeat intro, this time going straight into Trey's favorite
chord (he he)
A
E--0----B--0----G--6----D--7----A--0----E--0----The words are all wrong, I know.. someone mail them to me, but for the time being
this is what I've got:
A
Dmaj7
A
Dmaj7
I've alternated my meager flock to the shores of the Baltic Sea
A
C#
F#m
B
E
The teeth of time have stowed the rhyme of how things should(n't) be
F
E
Eb
Bb
My cave, my house, my turning wheel, my little docking pup
B
Ab
The march of Colonel Forbin, and his fleet hound called McGrupp
(Hit Trey's favorite chord)
The grime of countless workdogs has collected in my sink
I tie my nose with spandex hose before i get a drink
We lay on frozen warthogs, with its poison in our minds
While the ferns that spot our children are encased in orange rinds...
(Hit Trey's Favorite Chord )
F#m
E
D
C#
All times and seasons are the reasons people and their clans

F#m
E
D
C#
Have stowed the Famous Mockingbird with glue and rubber bands
D
E
F#m
G
They writhe and cry in agony, as Rutherford the Brave
F#m
E
D
E
Chokes Tela and the Unic Monster, managing to save...
[Same chords for next verses, I dont' have the words
A
C#
F#m
B
... I'd like to get his autograph, but he looks too
F
E
Eb
He looks too much like Dave, he looks too much like
Ab
Abm
Bb
He looks too much.... He looks too much... He looks

right now]
E
much like Dave
Bb
Dave,
to much ...

Abm
A
He looks too much.... He looks too much
Here's the chords for the next part, although Trey will sometimes use different
inversions
C#m
E
B
E--------4------------------------B--------5--------5----5----4-----G--------6--------4----4----4-----D--------6--------6----6----4-----A---4----4------------------------E----------------------------------

Play 4 times

Repeat Intro
The next section moves in 7/8 time. Here are the chords. Trey will play different
inversions as well as the octave
form of these chords. He also plays with the rhythm against the band. (Similar to what
he does in YEM)
C#m7
Amaj7
F#m7
G#m7
E-----4---4-------4---4--------------------2-----4--------B-----5---5-------5---5---------5---5------2-----4--------G-----4---4-------4---4---------6---6------2-----4--------- Play 8 times
D-----6---6-------6---6---------6---6------2-----4--------A--4--4---4---4---4---4---------x---x------x-----x--------E---------------------------5---5---5------2-----4--------After the hits on the F#m7 chord and the G#m7 chord, they go into the next section
which is a funky groove
based on E9. This section is also in 7. Listen to a recording for exact timing. The
hits at the end of the riff are tricky
to hear. I just play the E9 shape up an octave.
E--6-7--7---7----7---7---7----6-7----7-------19----19------------------------------B--6-7--7---7----7---7---7----6-7----7-------19----19------------------------------G--6-7--7---7----7---7---7----6-7----7-------19----19------------------------------D--5-6--6---6----6---6---6----5-6----6-------18----18------------------------------A--6/7--7---7----7---7---7----6/7----7-------19----19------------------------------E----------------------------------------------------------------------------------The riff then modulates up to F#9 (One whole step or two frets up)

Then the big descending riff-E


D
E
D
E
D A/C# D/B D A/C# D/B A
E--0---0---0---0---0-------------------|-------------------------------------------B--0---0---0---0---0-------------------|-------------------------------------------G-13--13--13--14--13---11----9---7-----|---9---7---6---4----7---6---4---2----------This gets played 4 times
D-14--14--14--14--14---11----9---7-----|---9---7---6---4----7---6---4---2----------A-14--14--14--14--14---12---11---9-----|--11---9---7---5----9---7---5---4----------E--0---0---0---0---0-------------------|-------------------------------------------Then the transition into the Keyboard solo--A/C# D/B A E/G# D/B A E
E--------------------------0--------------B--------------------------0--------------G--6---4---2---1---4---2---1--------------D--6---4---2---x---4---2---2--------------A--7---5---4---2---5---4---2--------------E--------------------------0--------------Keyboard Solo (E tonality)
E----------------------B----------------------G----------------------D----------------------A-----2-2--------2-2---E---0--------0-0--------

ETC....

Page then signals the end of the jam by playing Bb-E eight times
Then the Bb buildup-Bb
E---------------------------B---------------------------G---7--------7-8-9-10-------Play 2 times
D-----8---------------------A-------8-------------------E---------------------------Bb
E----------------------------------------------------------------15-16-17-18-------B---15-----------15-16-17-18---------15----------15-16-17-18-----------------------G------15-------------------------------15-----------------------------------------D---------15-------------------------------15--------------------------------------A----------------------------------------------------------------------------------E----------------------------------------------------------------------------------It then goes back to the big descending riff which gets played 4 times.
Then the transition to the outro-- (Watch the rhythm)
A/C# D/B A E/G# D/B A
E-------------------------------------------------B-------------------------------------------------G--6---4---2---1---4---2--------------------------D--x---x---x---x---x---x--------------------------A--7---5---4---2---5---4--------------------------E-------------------------------------------------Because of space, I'll just write Mike's bass note above the chords

(Same as above)

E
C# A#
B
E
C# A# B
B
A B A
B
A
D# C#
E-----------------|-------------------|-------------------|------------------------B-----------------|-------------------|-------------------|------------------------G--1---6---3---4--|----1---6---3---4--|----8---6---8---6--|---8---6---8---6--------D--x---x---x---x--|----x---x---x---x--|----9---7---9---7--|---9---7---9---7--------A--2---7---4---5--|----2---7---4---5--|----9---7---9---7--|---9---7---9---7--------E-----------------|-------------------|-------------------|------------------------D
E
D
E
D
E
D
E
E---0----0----0----0-------0----0----0----0----------------------------------------B---0----0----0----0-------0----0----0----0----------------------------------------G--11---13---11---13------11---13---11---13----------------------------------------D--12---14---12---14------12---14---12---14----------------------------------------A--12---14---12---14------12---14---12---14----------------------------------------E----------------------------------------------------------------------------------Then we have F#m--G--E/G# which slowly breaks down and slides up which then leads us back
to the intro for the
ending of the tune.

Meatstick
Main theme
It's played
This should
I like this

Over and over and over and over again


bouncy like Limb by Limb or NICU and isn't very strict
just kind of give you an idea, listen to a recording
voicing but you can use the C-shape "Trey" voicing as well

e----------------6-----6----6----6-----6-----------------6---6--6--6------b----------------4-----4----4----4-----4-----------------4---4--4--4------g----------------5-----5----5----5-----5-----------------5---5--5--5------d----------------6-----6----6----6-----6-----------------6---6--6--6------a---(4h6)-------------------------------------(4h6)-----------------------e-------------------------------------------------------------------------e----------4--4-4-4--4-------------------4-4-4-4-4-----------b----------2--2-2-2--2-------------------2-2-2-2-2-----------g----------3--3-3-3--3-------------------3-3-3-3-3-----------d----------4--4-4-4--4-------------------4-4-4-4-4-----------a-(2h4)-------------------------(2h4)------------------------e------------------------------------------------------------Time for the Meatstick


Bury the Meatstick
Take out the Meatstick
Time
Whooaa, shocks my brain
Whooaa, shocks my brain
The chorus type bit that appears in the improv/solo section
e-----14--14-14-14---14-----------------------------------------------------B---------------------------14-14---14-14---14------------------------------G/15----------------------------------------------15-15---15-15---15--------D-----------------------------------------------------------------------16--A---------------------------------------------------------------------------E---------------------------------------------------------------------------"Whooaaa, shocks my brain"

repeated twice

E------------------------------------------------------------B------------------------------------------------------------G----7(slide)9(slide)--------------------------------------D------------------------8--11--12 --------------------------A------------------------------------------------------------E------------------------------------------------------------== Alternate Transcription ==


It may sound wierd, but if you play it with any 1999 summer show it
sounds right.
E------------------------------------------------------------B--------11---11-11-11---------11-11-11-11-------------------G-------------11-11-11---------11-11-11-11-------------------D---9h11------11-11-11---8h10--11-11-11-11-------------------A------------------------------------------------------------E------------------------------------------------------------Repeat this over and over.

Then Trey starts noodling the theme which is:

E--16-16-16-16-16--------------------------------------------------B-----------------16-16-16-16-16---------------------------13-14-13G--------------------------------17-17-17-17-17------13-15---------D-----------------------------------------------18-----------------A------------------------------------------------------------------E------------------------------------------------------------------E------------------------------------------------------------------B---------14-13----------------------------------------------------G--15-13--------15-13----------------------------------------------D------------------------------------------------------------------A------------------------------------------------------------------E------------------------------------------------------------------Lyrics:
I'm trapped here as my senses bleed
I can't decide/describe which things I need
You show up late and stumble in
I'm sure if you I still care in
(?the one line i can't understand)
My captive gaze inside your eye
A pain I can't identify
Attempting to record this view
Reflections drive me out of you
(sing chorus 2x)
Time for the meatstick
Bury the meatstick
Take out the meatstick
Time (clap)
Wooah, shocks my brain
Wooah, shocks my brain
But long before this scene concludes
The end I'm seeking still eludes
My every effort to apply
My will to moments passing by
But every time you say goodbye
A pain I can't identify
Reveals to me the hidden door
That leads to several moments more
(sing chorus repeatedly, do the dance, jam, then sing it in Japanese and jam
some more)
Japenese chorus:
Meatosticku Jiuando
Meatosticku Kakushite
Meatosticku Toridashta
Jiuan (clap)
Do Do Atamaga Shock
Do Do Atamaga Shock
== Bass Tablature ==
Meatstick Bass Tab
I think this is exactly what mike plays, at least for the intro and verses
G--------------------------------------------------------------------------------------D---------6----------------------6--------------------------4---------------------4----A------------4h6-------------------4h6-----------------------2h4------------------2h4--E-----4-------------4---------4-------------4-----------2------------2--------2-------2-

Mikes Song
Intro riff: repeat through verse
C#m

D
A
*
S/
H-O
E|----9-------------------|------------------|
B|----9-------------------|10-------10--10~--|
G|----9-------------------|11--------9-------|
D|--------------------9-11|12-----9-11-------|
A|--------9---9-10-11-----|------------------|
E|9-9---------------------|------------------|
^Trey sometimes substitutes with a low E note on 12th fret
Alternate intro
HO
HO
E|----9-------------------|------------------|
B|----9-------------------|---------(10)-----|
G|----9-------------------|9>11------(9)-----|
D|--------------------9-11|0----9>11-11------|
A|--------9---9-10-11-----|-----0------------|
E|9-9---------------------|------------------|
[note: Words marked with an "*" are sung at the same time as the "E-A"
double stop in the intro riff]
* C#m
D
A
Trapped in time and I don't know what to do
C#m
*
D
A
These friends of mine, I can see right through.
C#m *
D
A
You don't gotta tell me and I don't gotta move
C#m
*
D
A
`Coz I'm sittin' back here sharin' the groove.
E
trill + 2 + 3 + 4 +
E|-------------------------|
B|-------------------------|
G|-------------------------|
D|-------------------------|
A|9-11^^^^^^^^^^^^^^^^^----|
E|---------------------12--|
1 +

2
+
3
+
4
+
H-O
P-O S\
H-O
H-O
P-O S\
H-O
E|------------------------------------|----------------------------|
B|9-9-9-10-10-9-9-7-----7------7------|9-9-9-10-10-9-9-7-7--7------|
G|9-9-9--9--9-9-9-7-----7------8------|9-9-9--9--9-9-9-7-7--8------|
D|9-9-9-11-11-9-9-7-----7------9------|9-9-9-11-11-9-9-7-7--9------|
A|-------------------------------9-11-|-----------------------9-11-|
E|------------------------------------|----------------------------|
[Trey] Me no are no nice guy
Me..nice
[Page] Me no are no nice guy
Me..nice

H-O
P-O S\
H-O
H-O
P-O S\
E|------------------------------------|-------------------7---8----|
B|9-9-9-10-10-9-9-7-----7------7------|9-9-9-10-10-9-9-7-x7-x-8----|
G|9-9-9--9--9-9-9-7-----7------8------|9-9-9--9--9-9-9-7-x8-x-9----|
D|9-9-9-11-11-9-9-7-----7------9------|9-9-9-11-11-9-9-7-x9-x10----|
A|-------------------------------9-11-|-------------------9--10----|
E|------------------------------------|-------------------7---8----|
[Trey] Me no are no nice guy
[Mike] I-i-i-...
[Page] Me no are no nice gui-hi
..walk through the hallways inside my mind
I chase the backbeat from behind
Big dude in the doorway was blockin' my way
He reached to grab me and this is what he said:
Me no are no nice guys

(X 3)

Then go stacatto between these two chord formations , 4 times the first
time, then 8, then 10:
E|-------|
B|---9-7-|
G|---9-7-|
D|---9-7-|
A|-------|
E|-------|
Then back to the "me no are no nice guys" riff, then back to the
stacatto chords, then switch over to the "trampoline jam" :
F#m7 --> B
back and forth for a LONG time, then D E F#m7 a couple of
times, back to F#m7 --> B then D E F#m7 twice, then the 12-tone
chromatic walk down from F#-G to |F#m7 A E F# :| repeated 8 times,
stopping on the E and letting it ring on the last time.

This usually leads into I Am Hydrogen

Moma Dance
Starts out on an Ebm7 funk jam (32m)
G#7 (1m) slide to G7 (hold 1m)
F#7 funk jam (16m)

Trey plays:

|-----------------------------------------|
|----------------11-----------------------|
|-----------9-------11(hold)--------------|
|------11---------------------------------|
|--9--------------------------------------|
|-----------------------------------------|
F#7 F7 E7 Eb7(Downbeats of 1m)

D7 (hold 2m)

C#7 (hold 3m) then come in on with a unison bend lick similar to:
P-O
P-O
P-O
Cm7 Funk beginning
|-------8---------------------------------------|---|-----8---11-8----8-----------------------------|---|--10^(12)-----10---10-8----8-10^(12)^10-8----8-|---- (This is from
|------------------------10----------------10---|10-7/19 Shoreline)
|-----------------------------------------------|---|-----------------------------------------------|---Cm7 Funk jam (through lyrics until noted)
After jam chill the improv and:
All throughout I gaze and glimpse you
Nothing ever did convince you
See you when you're all alone
It's not the person, I'm not known
The moment ends although I feel winds
Blowing differently then ever before
And they're pushing me further from shore
The moment ends though I feel winds
Cm7
The moment ends the moment ends
F9
The moment ends the moment ends

(4x Fish, 4x Fish + Trey)

(4x)

Cm7 Funk (8m, then 8m with Fish whispering something)


(Trey)
Up the rail, taking sail
Mind the skipper will not fail
He'll bring out wine it will be fine
Just heed the order, watch the sail
The moment ends though I feel winds

(2x, 2nd time 'rail' is


rigging)

(8x like above)

Cm7
The moment ends the moment ends
F9
The moment ends the moment ends

(4x)

Cm7 Funk jam w/ Trey singing solo (at least at first)


Solo
|--build-up------------|
* this is that 'soaring' bend note
E|---------------------------------------------------|
B|-------------------------8--10bb--10-8-10--8----8--|
G|---------------8----8h10---------------------10----|
D|--------8h9h10---10--------------------------------|
A|-8h9h10--------------------------------------------|
E|---------------------------------------------------|
E|--------------------------------------|
B|-8-x-8/6------8-----------------------|
G|---------8/10---10-8-10--8------------|
D|---------------------------10p8h10-10-|
A|--------------------------------------|
E|--------------------------------------|
also, experiment with moving it up a step or more, and
change around which note is the 'soaring bend.' 10th fret
on high E works well too.

F7 (1m) slide to E7 hold (1m)


Eb7 Funk (3m) Eb7 D7 C#7 C7
B7
That's it! I checked the lyrics with 7/17 so they're pretty close, if
you can help with the rigging/river thing or anything else e-mail me
== Bass Tablature ==
Moma Dance Bass :
Intro
G-----------------------------------------------------------------D-----------------------------------------------------------------A------------------4--h-6-------6--p--4---------------------------E-----------6----------------------------------6--p--4---3--------B----\4-----------------------------------------------------------It grooves off of this for a while then moves to the same pattern in F minor
(7th fret of b string) with variations
throughout, it breaks down into a little solo then moves into this same
pattern in C minor (13th fret of b string)
If you
don't have a 5-string then you'll have to stick to the album version which is
all in C minor. If you do have the 5 try keeping all of the positions on the
b-string for that extra fat bottom end

Monica
Chord voicings
E
D
G
A
e|-(0)----------------|
B|-(0)----------------|
G|--9----7----4----6--|
D|--9----7----5----7--|
A|--7----5----5----7--|
E|------------3----5--|
Intro:
E
D
e|----------------------------------------|
B|----------------------------------------|
G|-(9)(9)-------(7)-----------------------|
D|-(9)(9)-------(7)-----------------------|
A|--7--7----7/9--5---4-5-4-5-4-5-4-5-4\2--|
E|----------------------------------------|
E
D
e|--------------------------------------------|
B|--------------------------------------------|
G|-(9)(9)--------(7)--------------------9--9--|
D|-(9)(9)--------(7)--------------------9--9--|
A|--7--7----9/11--5--4-5-4-5-4-5-4-5/7--7--7--|
E|--------------------------------------------|
G|---------------|
D|------2-----2--|
A|--4h5---4h5----|
E|---------------|
E
You
D
you
E
But
D
Now

D
lift me up, you hired me
E
light my day, you fired me
D
then you stole the sun, delighted me
E
the day is gone, you knighted me

It's dawning on me how it starts


Your wisdom must be why it smarts
Some wholes sum as many parts
Sing Sing Monica Sing your song
can you admit that you were wrong?
Sing Sing Monica sing your song
go back home where you belong
Sing Monica, Sing Monica...
Sing Monica, Sing Monica...
You gave me one last taste, retreated me
Then cut me off at the knees, defeated me
From your ivory tower, inspired me
Then stole my manhood, desired me
It's setting in now how it ends

you may have one it all depends


have-nots have as many friends
Sing Sing Monica Sing your song...
it really didn't last too long
Sing Sing Monica sing your song
can you admit that you were wrong?
go back home where you belong
E
D
You charged me up, excited me
G
A
upended and re-righted me
E
D
then you hooked me up, you wired me
G
A
but when my tread was worn, retired me
C
D
e|--8----10--|
B|--8----10--|
G|--9----11--|
D|--10---12--|
A|--10---12--|
E|--8----10--|
C
I'm saying all this stuff because
D
it's finally dawning on me how it was
Sing Monica, Sing Monica...
These voicings are for the second time G and D are played in the outro loop:
G
D
e|----------|
B|--8----7--|
G|--7----7--|
D|--9----7--|
A|--10---9--|
E|----------|
Loop through outro:
E D G A C G D

(this page left intentionally blank)

Mound
Dm

Dm

Em

Em

Bb

Dm A7+9

E|-10--10---15--15---13--13---12--12--||-----------------(10)-----B|-10--10---15--15---13--13---12--12-*||--11---10---13----10----13G|-10--10---16--16---14--14---12--12--||--10---10---12----10----12D|-12--12---17--17---15--15---14--14--||--12---10---14----12----11A|-----------------------------------*||--13---12---15---(12)---12E|------------------------------------||-----------------(10)-----[Dm G F Em progression under lyrics - upstrokes]

The old man knows very well


Going down round the snowbank, there's a mound
A mound that an old man knows good
Look who raises his shoe all over this mound
Right over the world that's another rewind
Bb
F
And it's time, time, time for the last rewind
C
F
For a broken old man and a world unkind
Bb
F
He buried all his memories of home
C
Dm
In an icy clump that lies beneath the ground

A7+9

[Dm G F Em progression w/ Jam]


No one knows how far he traveled
Oh! I heard he walked miles from the little mound
Can he find some shelter?
He doesn't know to behold what the cold frost can do
And at last till he realized he'd circled back around
Round a back circle, round a back realized
chorus
Ice is all he was made of
The bitter blue, and frozen through
He went over to the mound
Reclining down his final thoughts
Were drifting to the time this life had shined

Mountains in the Mist


intro(guitar)
C
G [C
G(these 2 are piano)
E----------3---3------3---0---0---------------B--------1-----1------0---1---1p0------------G------2-------0------0---0---0--------------D--2/3---------2------0---2---2--------------A--------------3------2---3---3-------------E--------------0------3---0---0--------------lyrics come in on the first G chord whenever ready.
G
C
G
Bb
C
several times un-consciously I've stumbled on the path
Amin
G
D
Bb
C
F
and seen a mountain in the mist
G
C
G
Bb
C
As rain falls on my shoulders, sun rises in the east
Amin
G
I'm worn and bruised, but
Csus2
D
G Bb Amin C
Eb
Bb
I am
here at
least
then back to.....(2X)
C
G [C
G(these 2 are piano)
E----------3---0------3----------------------B--------1-----1------3---5---3--------------G------0-------0------4---5---4--------------D--2/3---------2------5---5---5--------------A--------------3------5----------------------E--------------0------3----------------------G
C
G
Bb
C
I guess I'm just an obstacle
a thing to overcome
Amin
G
If I can sneak around myself and
D
D/C
D/B
D/A
again, I'll know I've won
G
C
The moment seems to hang and float
G
Bb
C
before me with no end
Amin
G
til I'm realeased, awake in peace(awakened beast???)
Csus2
D
G Bb
Amin C Eb
Bb
I'm on the road again
Eb
Bb
But now I'm soaring f-a-r too high
Bbm
F
A fleck of dust up in the sky where
Dmin
C
tiny clouds go
sailing by
Bb
Csus2(**)
Pull me down
today
** - little riff after vocals
Csus2(today...)

E-0-----------10-----10------8----------B-1-------------------------------------G-0-------8/11---8/11---8/11-----11-----D-0-------------------------------------A-3-------------------------------------E-0-------------------------------------Bb
Csus2(let ring)
E------8-----6--------------------------B-------------------8-------8-----------G----9---6/9----6/9-----9-----9-------(half rest)
D-------------------------------10------A---------------------------------------E---------------------------------------then back to.....(4X)
C
G [C
G(these 2 are piano)
E----------3---0------3----------------------B--------1-----1------3---5---3--------------G------0-------0------4---5---4--------------D--2/3---------2------5---5---5--------------A--------------3------5----------------------E--------------0------3----------------------G
C
G
Bb
C
woven in the fairytales we fabricate each day
Amin
G
are little golden strands of truth that
D
D/C
D/B
D/A (bass does a walk down from D>C>B>A>....
glimmer in the light
G
C
G
Bb
C
the colorful material we hold a certain way
Amin
G
to keep us from the cold and help to
Csus2
D
G Bb Amin C
Eb Bb
get us through the night
But now I'm soaring far too high
a fleck of dust up in the sky
where tiny clouds go sailing by
Pull me down today
Bb
Csus2
Pull me down today
Bb
Pull me down today
Bb
Pull me down.......
jam "trippilly"(with lots of swells) over the psychedelic Bb to Csus2
progression and have a blast!!!!

My Friend, My Friend
= INTRO =
Count 1-2-3, each "1" is indicated by a dot above the corresponding note.
Start by hitting the open D string for about 15 counts of 1-2-3, then:
(Part 1:)
. . . . .
.
.
. . . .
.
. .
E-|-10--7--5--3--2-2-2-3-2-0---------------------------------|
B-|-10--8--7--3--3-3-3-3-3-0-5-h3p2----3--5---10--8---7--5---|
G-|-11--9--7--4--2-2-2-2-2-0-2-----h4--2-(6)-(9)-(7)--6--6---|
D-|--------------0-0-0-0-0-0-2---------4--5---11--9---7--5---|
A-|-------------------------------------------12--11---------|
E-|----------------------------------------------------------|
.
.
. . . . . . . .
E-|-2---------2------------------------|
B-|-3--h2-3-5---5--5--5--5--5----------|
G-|-4-4--------(6)-4--2--2--2----------|
D-|-4----------(7)-5--4--3--2----------|
A-|-2----------------------------------|
E-|------------------------------------|
(^ Note 1)
.
.
.
. .
.
.
. .
.
.
. .
.
. . . .
E-|---------------------------------------------------5-6---3-4-------------------|
B-|-5-----2-3-5-5--------------5-7-5---5--6-----5-6-8-6---6-4---4--6--8--8--8--8--|
G-|-2-2h4-------4---4--7-4-6-7-----5------5-5-7-------6-----4---------7--7--5--5--|
D-|-2-----------6-6----5-----------5-5----6---------------------------9--8--7--6--|
A-|-------------------------------------------------------------------------------|
E-|-------------------------------------------------------------------------------|
(the following is very similar to the previous line, up 3 frets)
.
.
.
.
.
.
.
. .
.
.
. .
.
.
.
E-|--------------------------------------------------------8-9---10-11-------10-----10-----|
B-|-8-----5-6-8-8----------------8-10-8---8--9------8-9-10-9---9-11----11-13-10-----10-----|
G-|-5-5h7-------7---7--10-7-9-10------8------8-8-10--------9-----11----------11-----11-----|
D-|-5-----------9-9-----8-------------8-8----9----------------------------------0-0----0-0-|
A-|----------------------------------------------------------------------------------------|
E-|----------------------------------------------------------------------------------------|
(Part 2, starts like part 1:)
. . . . .
.
.
. . . .
.
. .
E-|-10--7--5--3--2-2-2-3-2-0---------------------------------|
B-|-10--8--7--3--3-3-3-3-3-0-5-h3p2----3--5---10--8---7--5---|
G-|-11--9--7--4--2-2-2-2-2-0-2-----h4--2-(6)-(9)-(7)--6--6---|
D-|--------------0-0-0-0-0-0-2---------4--5---11--9---7--5---|
A-|-------------------------------------------12--11---------|
E-|----------------------------------------------------------|
.
.
. . . .
E-|-2---------2-------------|
B-|-3--h2-3-5---5--5--5--5--|
G-|-4-4--------(6)-4--2--2--|
D-|-4----------(7)-5--4--3--|
A-|-2-----------------------|
E-|-------------------------|
.
.
.
. .
.
. . . . .
.
.
.
.
.
E-|-------------2---------------------2---------0---0---0---0---0-|
B-|-5-----2-3-5-3------3---5-3---0-2-0---------------------------|
G-|-2-2h4-------4---4--2-2-----2---2--2-1-2-4---------------------|
D-|-2-----------4-4----3-----------2--1-2-2-6---------------------|
A-|-------------2---------------------2-2-4-7-7---7---7---7---7---|
E-|-------------------------------------0-------------------------|
(^ Note 2)
.
.
.
. .
.
.
. .
.
.
.
E-|-----------------------------------------------------------------9--|
B-|-5-----5-6-8-8-----8---9p8-9--------9------9-10-12-10----9-10-12----|
G-|-5-5-7-------8---8-8-------10----10-9-9-11---------9--11------------|
D-|-6-----------9-9---8-8-----11-11----9--------------10---------------|
A-|--------------------------------------------------------------------|
E-|--------------------------------------------------------------------|
.

E-|-11--9--11--9--11--9--11----------------------------------------------------12--|
B-|-12--10-12--10-12--10-12----12-------12-13-15-13-------13----15-13-------12-10--|
G-|-11--9--11--9--11--9--11----12-12-14----------14----14-12----------12-14-12-12--|
D-|----------------------------12----------------14-14----13-13-------------12-----|
A-|--------------------------------------------------------------------------------|
E-|--------------------------------------------------------------------------------|
. . . . . . . .
E-|-10-8-10-8-10----------|
B-|-10-8-10-8-10----------|
G-|-11-9-11-9-11----------|
D-|-----------------------|
A-|-----------------------|
E-|-----------------------|
(Part 3, mostly cut and pasted from previous parts:)
. . . . .
.
.
. . . .
.
. .
E-|-10--7--5--3--2-2-2-3-2-0---------------------------------|
B-|-10--8--7--3--3-3-3-3-3-0-5-h3p2----3--5---10--8---7--5---|
G-|-11--9--7--4--2-2-2-2-2-0-2-----h4--2-(6)-(9)-(7)--6--6---|
D-|--------------0-0-0-0-0-0-2---------4--5---11--9---7--5---|
A-|-------------------------------------------12--11---------|
E-|----------------------------------------------------------|
.
.
. . . .
E-|-2---------2-------------|
B-|-3--h2-3-5---5--5--5--5--|
G-|-4-4--------(6)-4--2--2--|
D-|-4----------(7)-5--4--3--|
A-|-2-----------------------|
E-|-------------------------|
.
.
.
. .
.
. . . . .
.
.
.
.
.
E-|-------------2---------------------2---------0---0---0---0---0-|
B-|-5-----2-3-5-3------3---5-3---0-2-0---------------------------|
G-|-2-2h4-------4---4--2-2-----2---2--2-1-2-4---------------------|
D-|-2-----------4-4----3-----------2--1-2-2-6---------------------|
A-|-------------2---------------------2-2-4-7-7---7---7---7---7---|
E-|-------------------------------------0-------------------------|
.
.
.
. .
.
.
. .
.
. . . .
E-|--------------------------------5-6---3-4-------------------|
B-|---------5-7-5---5--6-----5-6-8-6---6-4---4--6--8--8--8--8--|
G-|-7-4-6-7-----5------5-5-7-------6-----4---------7--7--5--5--|
D-|-5-----------5-5----6---------------------------9--8--7--6--|
A-|------------------------------------------------------------|
E-|------------------------------------------------------------|
(^ Note 3)
.
.
.
.
.
.
.
. .
.
.
. .
.
.
E-|--------------------------------------------------------8-9---10-11----13-12-12-12-12..(fast tremolo picking)..--|
B-|-8-----5-6-8-8----------------8-10-8---8--9------8-9-10-9---9-11----11-------------------------------------------|
G-|-5-5h7-------7---7--10-7-9-10------8------8-8-10--------9-----11-------------------------------------------------|
D-|-5-----------9-9-----8-------------8-8----9----------------------------------------------------------------------|
A-|-----------------------------------------------------------------------------------------------------------------|
E-|-----------------------------------------------------------------------------------------------------------------|

Note 1: You may find it easier to play these notes as follows:


E-|-------0-2--|
B-|-0-2-3------|
G-|------------|
D-|------------|
A-|------------|
E-|------------|
Note 2: This chord and its trailing notes have been tabbed elsewhere as follows, it can sound nicer when playing
alone:
.
.
.
.
.
.
E-|-0---0---0---0---0---0-|
B-|-0---------------------|
G-|-1---------------------|
D-|-0-0---0---0---0---0---|
A-|-2---------------------|
E-|-0---------------------|
Note 3: On the album version there are two extra measures here, during which Trey plays fret 8 on the B string.
Intro Chords:
-------------

Main theme:
|: D G/D D G/D D A (Bm7/A->A7) A G/A F#m/A A7 Bm7 A (falling chords: G6b5, F#m7, Fmaj7#5, A)
This then leads into one of the 3 endings below:
1: A E G C Fm Bbm Abm G (falling single note Bb->A->Ab) C G Bb Eb Abm Dbm Ebm D :|
2: A Bm Dm A B7 E (A/E->E7) E+5 AbmMaj7 Eb Db E Am B A/B B A/B B A/B B G Am Cm G A D :|
3: A Bm Dm A B7 E (A/E->E7) G C Fm Bbm Abm G (w/falling note) C G Bb Eb Abm Dbm Ebm
= VERSE =
Chords:
The following chords sound fine to my ears:
Fm7 F#13
Bbm C#
C
E-|-13---------13-------15--|
B-|-13---16----14--14---17--|
G-|-13---15----15--13---17--|
D-|-13---14----15--15---17--|
A-|------------13--16---15--|
E-|-13---14-----------------|
However, Trey plays somewhat different chords as clearly seen in the video:
Fm7 F#13
Bb7#9 C#
C7
E-|-13------------------------|
B-|-13---16----14----14---17--|
G-|-13---15----13----13---15--|
D-|-13---14----12----15---17--|
A-|------------13----16---15--|
E-|-13---14-------------------|
The former set of chords are used henceforth - substitute the latter if you wish.
The rhythm for the chords in the verse is more-or-less bass note on the first beat of the measure,
then the rest of the chord on the third beat.
Fm7
F#13
My friend, my friend he's got a knife
Fm7
F#13
A statement from his former life
Bbm
C#
When he was easy but alone
Bbm
C#
Beside him was an empty throne
Fm7
F#13
But what of silver silken blade
Fm7
F#13
Affix his gaze, his features staid
Bbm
C#
Grasps the handle, clips the cable
Bbm
C#
One steps up, sits at his table
C
My friend, my friend, he's got a knife
Fm7
F#13
My friend, my friend, he's got a wife
(same chords as previous verse)
My friend, my friend, the clever ruse
Persuasion through his thoughts peruse
A hidden relic from his past
That wasn't there when he looked last
He feels it ticking like a bomb
Feeding fear, assaulting calm
Takes the object, starts the game
Moves it closer to the flame
My friend, my friend, the clever ruse
My friend, my friend, he lights the fuse
At this point, if you have Jedi powers, activate various distortion and feedback effects and hold your guitar
against a microphone stand such that it covers the first fret. Gradually slide the fretboard so that the tone
rises, while the following progression plays 4 times:
Fm7 F#dim7 Gdim Ab Adim Bbm Bdim C7

The rest of us mere mortals can simply play the following line 4 times:
Fm F#6 Gdim G# Adim Bbm Bdim C
E-|-------------------------------B-|-1--4---2----4--4----6---6----8G-|-1--3---3----5--5----6---7----9D-|-3--4---5----6--7----8---9---10A-|-------------------------------E-|-------------------------------(The above two chord progressions are different because they come from different sources. Anyone wishing
to fix this may do so.)
C
My friend, my friend, he's got a knife
My friend, my friend, he's got a knife

My Soul
It's your basic 12-bar blues with a nice little bassline-type thing in the
beginning:
Progression I
Progression II
Progression III
*****************
*****************
************
E---------------------------------------------------------------------B---------------------------------------------------------------------G-----------------------------------2-2-0-0-------------4-4-2-2-------D--------------2-2-0-0----------------------0-1-2---------------5-----A----------------------0-1-2----0-0------------------2-2--------------E-12>Slide>0-0--------------------------------------------------------[I]
Why do I
sit and cry
without a reason
I don't know why
[II]
It's my soul
It's my soul
[III]
[II]
[I]
It's my soul, people
it's my soul
If I should come up and run
without a reason ??????
It's my soul it's my soul
It's my soul, people
it's my soul
M-m-m-m-m-m-m-m-m-m-my soul, it's my soul (you get the idea)
Then Jam over a basic 12-bar blues:
E for Four bars, A for Two, E for Two, B for One, A for One, E for Two
== Bass Tablature ==
My Soul
Blues Progression
G---------------------------------------------------------------D---14--12-----14-12----14-12----14-12--------------------------A---------14--------14-------14-------14------------------------E-12---------12-------12-------12------------------------------G---------------------------------11-9--------------------------D--7-5--7-5----14-12----14-12---------11--9-7-------------------A-----7----7--------14-------14--9-----------9------------------E-5----5-----12-------12-----------------7----------------------Then just go back to the E on fret 12 and repeat

NICU
NICU stands
for Neonatal Intensive Care Unit .
Eb
Db
E|--11---11---11--------9/---|
B|--11---11---11--------9/---|
G|--12---12---12--------10/--|
D|--13---13---13---11---11/--|
A|-----------------11--------|
E|-----------------9---------|
Eb
Db
Eb [repeat]
Appendages flailing, you're running at me
Ferocious, tenaciously clawing at me
The devious gelatin holding me fast
Miraculous now you let me ooze past.
Over the wall rushing rivers of sleaze
The tip of stalactites incising my knees
A slipper, a sand-dollar day at the shore
Nice evening at home that I dread even more
Ab
Db
Would you please make clear to me
Ab
Eb
Ab
I'm peering out through your opacity
Ab
Db
Though you rehearse tomorrow's verse
Ab
Eb
Ab
Forgive me if I donUt sing in your key.
Look back on those days when my life was a haze
The gelatin lay on a truncated slate
Copernicus drank from a vessel that stank
The freemasons crank to the overflow tank
Bane of the weasel, fur biting is fun
Jump on the turnstile and watch me go round
Swim with the cactus and float with the stone
I try to convey what you strive to condone
Would you please make clear to me
I'm peering out through your opacity
Though you rehearse tomorrow's verse
Forgive me if I don't sing in your key.
Would you please
[no left turn unstoned]
make clear to me
[_ when you see me]
Then you will be the nothing left for me
[??? (possibly "Don't go")]
Guitar riff
E|-------------6--9--9--9--9--8--6-----6--8--6------|
B|----------8-----------------------9---------------|
G|--8----8------------------------------------------|
D|--------------------------------------------------|
A|--------------------------------------------------|
E|--------------------------------------------------|
E|--6--------------6-------------------------|
B|-----9--8--7--9-----9------9--7-----8------|
G|---------------------------------9---------|
D|-------------------------------------------|
A|-------------------------------------------|
E|-------------------------------------------|
E|-------------------------------------------------------------------|
B|-----------9--8--6--9--8--9-----------------/6-/6-/6--9--8---------|
G|-----5--6--------------------5---------5--6-----------------8------|
D|--8-----------------------------8----8-----------------------------|
A|-------------------------------------------------------------------|
E|-------------------------------------------------------------------|

No Quarter
Originally by Led Zeppelin
Intro: watery keys, then into Pre-Chorus chords (Aadd9 + Dsus4), and into Chorus
VERSE 1:
C#m
Close the door, put out the light
The snow falls hard and don't you know?

You know they won't be home tonight.


The winds of Thor are blowing cold.
A(add9)
A
A(add9)
They're wearing steel that's bright and true
Dsus4
They carry news that must get through.
CHORUS:
C#m
F#7
They choose the path where no-one goes.
C#m7
C#m
F#7 C#m7
They hold no quarter.
SOLO (Repeat watery Keys Intro with Piano, then into Guitar Solonot sure over what?)
VERSE 2:
C#m
Walking side by side with death
The devil mocks their every step
The snow drives back the foot that's slow The dogs of doom are howling more
A(add9)
A
A(add9)
They carry news that must get through,
Dsus4
To build a dream for me and you
CHORUS:
C#m
F#7
They choose the path where no-one goes.
C#m7
C#m
F#7 C#m7
They hold no quarter.
C#m7
C#m
F#7 C#m7
They ask no quarter.
C#m7
C#m
F#7 C#m7
The pain, the pain without quarter.
C#m7
C#m
F#7 C#m7
They ask no quarter.
C#m7
C#m
F#7 C#m7
The dogs of doom are howling more!
Pre-Chorus Chords: both are strummed out sort of slowly
e-------------------------------------------------------------------b--4----------------9-----------------------------------------------g--6---------------11-----------------------------------------------d--7---------------12-----------------------------------------------a--7---------------12-----------------------------------------------E-------------------------------------------------------------------CHORUS: (The last bend is for the end of the chorus)
e-------------------------------------------------------------------b-------------------------------------------------------------------g-------------------------------------------------------------------d-----6-6-6------6-6-6------6------------------------2--------------a-2/4-4-4-4--2/4-4-4-4--2/4-4-4-----4-4-4-2------2-----4----(2^4)---E-------------------------------0/2-2-2-2-0--0-4---4----------------SOLO: The solo has two guitars on it, one clean, and one with fuzz.
Here is the clean guitar solo:
e-------------------------------------------------------------------b-------------------------------------------------------------------g--------------------------4-6/8-6-4-6/8-64-6----------------8-11p8d-9p6---9p6---6p4--------6---------------------------9-8----9-------a-----9-----7-----7--4-7---------------------------------11---------E--------------------------------------------------------------------

e-------------------------------------------------------------------b-------------------------------------------------------------------g--11p8---8-11p8-11p8---8-------------------------------------------d-------9-------------9---9-8----8-9---8----------------------------a-----------------------------11----------11-11-11------------------E-------------------------------------------------------------------e--------------------------------------------14p11----14p11---------b-------------------------------------11-12--------12-------12-16p12g-----------9---------9-11-11---11h13-------------------------------d----8-9-11---11p9-11-----------------------------------------------a-11----------------------------------------------------------------E-------------------------------------------------------------------e-------------------------------------------------------------------b--11-12p11----11--------------------9------------------------------g-----------13----13-11-9----9-11-12--------12-11-9-8--9p8----8-9p8-d--------------------------11------------------------------11-------a-------------------------------------------------------------------E-------------------------------------------------------------------e-------------------------------------------------------------------b-------------------------------------------------------------------g----9--------------------------------------------4---6---8-----8---d-11---11-9---9-11------9-------------------------------------------a-----------11---------------7-6----6-7-6---------2---4---6-----6---E---------------------------------9-------9-------------------------e-------------------------------------------------------------------b-------------------------------------------------------------------g-11--13----1312--1312---1312--12/13-----------------------------d----------------------------------------9--------------------------a--9--11----1110--1110---1110--10/11-----------------------------E-------------------------------------------------------------------Here's the solo parts for the fuzzed guitar.


e-------------------------------------------------------------------b-------------------------------------------------------------------g-------6/8-6p4-6---------------------------------9-11-9-8----------d-----6------------------------------9-8-------------------11-------a-6-7------------------------------------11-11-11-------------------E-------------------------------------------------------------------(This is during the octave part)
e-------------------------------------------------11-11h12p11-11-12-b-9-11--11^12---12p11-12p11-12p11^12---14^16------------------------g-------------------------------------------------------------------d-------------------------------------------------------------------a-------------------------------------------------------------------E-------------------------------------------------------------------e-11h12p11---------------------------------------------------16-----b-----------14-12--11h12p11----11-12-14-16^17^16-14-16-16^17--------g---------------------------13--------------------------------------d-------------------------------------------------------------------a-------------------------------------------------------------------E-------------------------------------------------------------------e-------------------------------------------------------------------b-16^17--16-14-16-14--12^14^12----11-12-11----11-12-11-12-----------g------------------------------------------13-------------13-11--11-d-------------------------------------------------------------------a-------------------------------------------------------------------E-------------------------------------------------------------------e-------------------------------------------------------------------b-------------------------------------------------------------------g--13^15-----11-9----9-8---8h9p8------------------------------------d-----------------11-----9--------11--------------------------------a-------------------------------------------------------------------E--------------------------------------------------------------------

(this page left intentionally blank)

Nothing
intro starts out w/ them playing right away......everyone's in E to start
B E F#
B E F# B
F# G#m- F# - E
B
Nothing's ensconced
Nothing's entrenched
E --------------------------- F#
Nothing's entangled or twisted or wrenched
B ---------------------------------------------------- E
Everything smoothly flows right through my head
F#---------------------------------------------- B
What I hoped might linger is swept off instead
B
Tunnels and channels and chasms and rifts
E ---------------------------------- F#
shiny smooth streams and unclimbable cliffs
B -------------------------------------------------------- E
I see you there ever so slowly being drawn to the sea
F# -------------------------------------------- B
As if by some signal that's unheard by me
F#
I stand on a featureless sheet of blue stone
B
And then for one instant I'm not quite alone
F#
Your hand is extended but then you rescind
G#m -------------------------------------- F# --------- E
And you like my thoughts are borne off by the wind
B
Nothing's ensconced
B
Nothing's entrenched
E ---------------------------- F#
Nothing's entangled or twisted or wrenched
B ---------------------------------------------------- E
Everything smoothly flows right through my head
F# ------------------------------------------------ B
What I hoped might linger is swept off instead
piano solo
F# B
F# G#m F# - E
B
Nothing's ensconced
Nothing's entrenched
E ----------------------------F#
Nothing's entangled or twisted or wrenched
B ---------------------------------------------------- E
Everything smoothly flows right through my head
F# ---------------------------------------------- B
What I hoped might linger is swept off instead
F# ----------------------------------------------- B
What I hoped might linger is swept off instead
F# ---------------------------------------------- G#m - F# - E
What I hoped might linger is swept off instead
B E F#
B E
F# B
F# B
F# G#m - F# - E
Guitar solo (fades out)
E--9-h11---9----------------------------------------------------|
B--------------12----------------------------9------------------|
G------------------11^(13)-11-------8-11--11---11~-11-p8--------|
D------------------------------9-9------------------------9~~---|
A---------------------------------------------------------------|
E---------------------------------------------------------------|

Ocelot
The intro is almost all B chord with the below thrown in. If you know the song you'll
know how it sounds and where it's played.
B
E|---------------------------------------------------------------|
B|-----9---------------------------------------------------------|
G|-----9--7H8----------------------------------------------------|
D|-----9---------------------------------------------------------|
A|---------------------------------------------------------------|
E|---------------------------------------------------------------|
B
E
Ocelot Ocelot where have you gone
A
B
Morning is over and (noon slouches on)
parentheses

<-- I'm not 100% on these lyrics in

B
E
your stripes would all fade in the poisonous day
A
B
when you see the sunlight move out of the way
F#
you prance with the beast who parade every
F#
and silently slouch through the forrest by

B
night
B
light

B
E
Don't be the only one left on the block
A
E
B
come hide in the herd and float with the flock
Beginning B-part x 4
B
E
Ocelot Ocelot where are you now?
A
B
you never listened to me anyhow
B
E
you wandered and ambled you walked now you run
A
B
knowing you'll bake like a snake in the sun
F#
you prance with the beast who parade every
F#
and silently slouch through the forrest by

B
night
B
light

B
E
Don't be the only one left on the block
A
E
B
come hide in the herd and float with the flock

(chords leading up to solo)


C# D
E F# G A
solo
E|---------------------------------------------------------------|
B|--17b19b17-16---17b19b17-16---17b19b17-16----------------------|
G|-----------------------------------------16---19p18p16---16----|
D|-------------------------------------------------------18------|
A|---------------------------------------------------------------|
E|---------------------------------------------------------------|
E|---------------------------------------------------------------|
B|---------------------------------------------------------------|
G|-----16-----18-18---20b18-16----b20-b20------------------------|
D|--18----18-------------------18--------------------------------|
A|---------------------------------------------------------------|
E|---------------------------------------------------------------|
E|---------------------------------------------------------------|
B|--17b19b17-16---17b19b17-16---17b19b17-16----------------------|
G|-----------------------------------------16---19p18p16---16----|
D|-------------------------------------------------------18------|
A|---------------------------------------------------------------|
E|---------------------------------------------------------------|
E|---------------------------------------------------------------|
B|---------------------------------------------------------------|
G|-----16-----18-18---20b18-16----18--16------------------------|
D|--18----18-------------------18--------------------------------|
A|---------------------------------------------------------------|
E|---------------------------------------------------------------|
F#
you prance with the beast who parade every
F#
and silently slouch through the forrest by

B
night
B
light

B
E
Don't be the only one left on the block
A
E
B
come hide in the herd and float with the flock
B
Ocelot Ocelot where are you now?...(Won't you come out to play)
(continues on like that till Trey solos like nasty and ends)

Peaches In Regalia
Originally by Frank Zappa
Intro:
Bm A/B
Bm F#m/B Bm
E/F#
Bm A/B
Bm F#m/B Bm
E/F#
E---------------------------------------------------------------B----7----5----3----2----3----0-------7----5----3----2----3----0G----7----6----4----2----4----1-------7----6----4----2----4----1D----9----7----4----4----4----2-------9----7----4----4----4----2A---------------------------------------------------------------E----------------------------------------------------------------

REPEAT ONCE

MAIN TUNE :
-----------Bm
A
Csus2
Dsus2
A
F#m
E--------------------------------------------------------------B----------------------5-------------5-------------------------G----4----4-4-4--6--7----6-----7---7---7p5p4--5-4--------------D--------------------------7-------------------------7-5-------- REPEAT ONCE
A---------------------------------------------------------5-7--E-------------------------------------------------------------SAXES :
------Bm
A/C#
Dm
E--2-2-2---2-2--------------------------5-5-5---5-5--------------B--3-3-3---3-3--------------------------6-6-6---6-6--------------G--4-4-4---4-4---4-4--4--------2--4--6--7-7-7---7-7---7-7--7-----D----------------4-4--4------2------------------------7-7--7-----A----------------2-2--2---/4--------------------------5-5--5-----E-----------------------------------------------------------------C/E
Fm
Eb/G
E-----------------8--8--8----8--8---------------------------------B-----------------9--9--9----9--9-------------------------------8-G-------5--7--9--10-10-10---10-10---10--10----10----------8--10---D-----5-----------------------------10--10----10--------8---------A--/7-------------------------------8---8-----8-----/10-----------E---------------------------------------------------------------Db
*************************
E---------------------------------------------------------B-9-9-9-9-9p7-7p6-6---------------------------------------G-------------------8-8-6-6-6-6-6h8p6h8/10-----6h8p6/4/6--D---------------------------------------------------------A---------------------------------------------------------E---------------------------------------------------------*************************
(play the asterisked section twice)
B
E------------------------------------------------------------------------B---------4-4-4--5-5--7-7--7---7/9/7p5p4----------------------------------G--4--4-4--------------------------------6p4----4-------------------------D--------------------------------------------------7-6--6-4----------------A--------------------------------------------------------------------------E--------------------------------------------------------------0-----------^^^^^^^^^^^^^^^^
There are quite a few phrases like these with lots of notes slurred together
into a run. It's probably a lot easier to do this on a sax (as it's played on
the original) than a guitar, but you can get close on a guitar with a bit of
practice.

LEAD GUITAR AND FLUTE BIT :


----------------------------E
F#m
E--9-------------9---------------------------------------------------------B-----12-----------12-9-----------------------------12---------------------G--------11b13----------11b13r11--9--11--11-9-11b13------------------------D------------------------------------------------------------------------A--------------------------------------------------------------------------E-------------------------------------------------------------------------E
F#m
E--9-------------------9----------------------------------------------------B----12--9---------------12--9---------------------12---12-------------------G----------11b13r11-9----------11b13r11-9--11-11/13---13---13/11-11-11p9-11-9D------------------------------------------------------------------------A--------------------------------------------------------------------------E-------------------------------------------------------------------------E
F#m
E--9----------------------------------------------------------------------B----12-9-------------------------------------------------------------------G---------11b13r11-9----9-9-11-9-11-11-9-11-13/11p9h11----11-11-11-9-9-9-9/6-D--------------------11----------------------------------------------------A--------------------------------------------------------------------------E-------------------------------------------------------------------------E
F#m
E------------------------------------------------------------------------B------------------------------------------------------------------------G---6-6-6/9/6--6p4h6-6-9/6p4h6-4h6-6-6--9-9-9-9-9--9-6-9/11-9-9-6-9------D------------------------------------------------------------------------A------------------------------------------------------------------------E------------------------------------------------------------------------A
A

G#m7
G#m7

Bb

A
A

G#m7
G#m7
Eb

Ab

F/G

(Multiple saxes come in at this point)


F
F
F
F

C
C
C
C

C/Bb
C/Bb
C/Bb
C/Bb

Bb
Bb
Bb
Bb

THE FAST BIT :


--------------All notes are quavers (8th notes)
A
B
G
E-------------------------------------7-----------7------------B-------------------------------4-7-5---7-------7--------------G----2----------------------4-------------7-6-7----------------D--2---2-------2--------4-----4--------------------------------A--------5-4-----4--6-----6------------------------------------E------------5--------7-----------------------------------------

C
F
D
E
E-----------------8-------------------------------------------B------5--------8----------------5-6-5------------------5-----G--7-----5--4-5------4---5-4-7-5--------7---7--4---7----------D----7-----------------7------------------7------4---7--------A-------------------------------------------------------------E-------------------------------------------------------------E
E------------------------------------------------------------B--5--5--5--5--5--5--5--5-------------------------------------G-------------------------------------------------------------D-------------------------------------------------------------A-------------------------------------------------------------E-------------------------------------------------------------ORGAN PART :
-----------These are just the intro chords again, but using different inversions
for a bit of variety.
Again - bass notes are indicated by the chord names (A/B is A triad with
B bass) - but you can't easily play triads and bass notes together on one
guitar.
Bm
A/B Bm A/B Bm E/B
Bm/E A/E
Bm/E A/E Bm/E E
E---10---9----7---5---7---4--------10----9-----7----5----7----4B---12---10---7---5---7---5--------12----10----7----5----7----5G---11---9----7---6---7---4--------11----9-----7----6----7----4D-------------------------------------------------------------A-------------------------------------------------------------E-------------------------------------------------------------Bm/E A/E Bm/E A/E Bm/E E
Bm/E A/E
Bm/E A/E Bm/E E
E---10---9----7---5---7---4--------10----9-----7----5----7----4------B---12---10---7---5---7---5--------12----10----7----5----7----5------G---11---9----7---6---7---4--------11----9-----7----6----7----4------D-------------------------------------------------------------A-------------------------------------------------------------E-------------------------------------------------------------OUTTRO:
------Bm
Aadd9
Csus2
Dsus2
A
F#m
E--------------------------------------------------------------B----------------------5---------------------------------------G----4----4-4-4--6--7----6-----7---7--9--7--5-4--5-4-----------D--------------------------7-------------------------7-5-------- FADE
A---------------------------------------------------------5-7--E---------------------------------------------------------------

Pebbles and Marbles


E
B
G
D
A
E

:-----0---3^-0-0--|----------------|
:0-h3---0-------3-|2---------------|
:---------------4-|2---------------|
:-----------------|----------------|
:-----------------|----------------|
:-----------------|----------------|

E
B
G
D
A
E

:-----------------|-------------------|-------------------|
:0-5-9---9---7--5-|0---0---0-5-9---9--|7-5-0-------0-5-12-|
:----------9------|------------------9|-------------------|
:2-6-9-9-----7--6-|2-2---2-2-6-9-9----|7-6-2---2---2-6-12-|
:-----------------|-------------------|-------------------|
:0-0-0-------0--0-|0-------0-0-0------|0-0-0-0---0-0-0--0-|

E
B
G
D
A
E

:--------------------------------|---------------------|
:---12----12-10----10----10-13-12|-10-12-9-7---7---7---|
:--------------------------------|---------------------|
:12----12----11-11----11----14-12|-11-10-9-7-7---7-----|
:--------------------------------|---------------------|
:-------------0--------------0--0|--0--0-0-7-----------|

Em-----------------------G
She started a blaze from one tiny spark
C--------------------(opening riff)
I didn't even detect
Em-----------------------D
She loved the light, was dismayed by the dark
G---------------------------------A
The stars though she seemed to respect
----A----------------------------Em
The faint light that flutters at night to the earth
G----------------------------D
Would land in her eyes and collect
A------------------------Em
Luminous creatures she'd find in the surf
G--------------------D
I never thought to inspect
A--------------------------Em
Pebbles and marbles like things on my mind
G---------------------D
Seem to get lost and harder to find
A----------------Em
When I am alone I am inclined
G---------------------D
If I find a pebble in sand
Cmaj7 (x32000)--------------------(opening riff)
To think that it fell from my hand

She gave me ideas


Planted the seed
But she never stopped to reflect
The course that she?s on, wherever it leads
I never would redirect
Pebbles and marbles like words from a friend
Make us hold tight but are lost in the end
When we're alone we all seem to tend
If we find a marble in dust
To wish someone left it for us
== Live Acoustic Intro ==
As heard on 12/03/2005 - The Warfield, San Francisco, CA
F#/C#
|

C#m
|

B/F#

F#
|

E/F#
|

B
|

E|-9-----9-----9----9----|---------9---7---|-6---6---4---4---|-----2---2-----|
B|-11----11----9----9----|---------7---7---|-7---7---5---5---|-----4---4-----|
G|-11----11----9----9----|-----8---8---8---|-6-5-6-5-4-3-4-3-|---4-----4-----|
D|----11----11---11---11-|---9---9---------|-----------------|-4-----4-------|
A|-----------------------|-9---------9---9-|-9---------------|---------------|
E|-----------------------|-----------------|-----------------|---------------|
F

Am G

B/F#

CMaj7#11

E|-2--2--0----|-------------|-0-------------0-------------0-------------0-------------|
B|-2--3--1--4-|-1--0--4-----|---------0-------------0-------------0-------------0-----|
G|-3--2--0--4-|-2--0--4-----|-----0-------0-----0-------0-----0-------0-----0-------0-|
D|-4--0-----4-|-2--0--4-----|---4-------4-----4-------4-----4-------4-----4-------4---|
A|-------3--2-|-0-----------|-3-----3-------3-----3-------3-----3-------3-----3-------|
E|------------|----3--2-----|---------------------------------------------------------|
Then that goes right into the main theme.

Piper
Here is the beginning building up part:

Repeat as necessary.

EI----------------------------------------------------------------------------------I
BI-------12-----13--------13-----------13-------------10-------------8---------10---I
GI---12----12-----12-------------12-------12------10----10-----9---------10---------I
DI12-------------------12-----14-----------------10--------------9-------10---------I
AI----------------------------------------------------------------------------------I
EI----------------------------------------------------------------------------------I

The chords are fairly simple.


G Am C F Em F

It's:

That last chord might also be a C.


(G Am C F Em C)
They just progress until you reach a state of mind alteration,
then you just sing the lyrics over the melody.
The song starts nice and slow with some finger picking then
moves pretty damn quick, so it takes some practice to get the lyrics
in time with the melody and rhythm. (I haven't even gotten it yet).
I definatly recomend listening to it a few times, besides the fact
that it is an awsome song, but to get the timing and the lyrics correct:
Lyrics:
Piper, Piper the red red worm
awoke last night to the sound of the storm
the words are the words I sailed upon.
Ending lick
EI---------------------------------------------------------I
BI------6------7-------7-7-6-4------2-------4---------6----I
GI----------------------------6----------------------------I
DI----6--6->-8--8---8------------3---3->-4---4->--6--------I
AI----------------9----------------------------------------I
EI---------------------------------------------------------I

G
C A Em
F
/---10----------------/----x---------------------/----7--------8-------/
/---12----12-H-13-----/----13----13--12----------/----8--------10------/
/---12----12----------/----0--------------14-----/----9--------10------/
/---12----12-H-14-----/----14--------------------/----9--------10------/
/---10----12----------/----15--------------------/----7--------8-------/
/---10----------------/----x---------------------/----7--------8-------/

/
/
/
/
/
/

Possum
H-O
H-O
H-O
H-O
H-O
H-O
E-----0-0-------0-0-------0-0-----0-0-----0-0------0-0----------------------B-----0-0---2---0-0---2---0-0-----0-0--2--0-0--2---0-0----------------------G-----0-1---2---0-4---2----------------2-------2---0-1----------------------D-----2-2---2---5-5---2---5-6-----5-6--2--5-6--2---2-2----------------------A-----2-2------------------------------------------2-2----------------------E---0-----------7-7-------7-7---7-7-7-----7-7------0-0----------------------Alternate transcription of intro based on the 4-29-1990
(Woodbury Ski and Racquet Club, Woodbury CT) video.
(*)
E------------------------------------------------B------------------------------------------------G----0h1--2--0~~--2--0h1-----0h1--2--0h1--2--0h1-D----0~~--0--0h6--0--0~~-----0~~--0--0~~--0--0~~-A----2~~--4--0~~--4--2~~-----2~~--4--2~~--4--2~~-E--0---------7~~-----------0---------------------(*) this chord slightly delayed and played harder
__
The Em7 is played for about 8th-note duration; the overall chord is an E7 and
the G (open G string) of the Em7 and the sus4 are nothing more than passing
tones.
Trey does some other stuff here, mostly noodling around on these chords,
that I'm not going to write out, but listen to any recording and he'll do
something different yet interesting; I'll just show the underlying chords
below.
Also, during the first A Chord, Trey used to pull one of these instead of
playing an A chord:
|
|
|
|
|
|
/S
/S
/S
/S
/S
E|----------------------------------|--------------------------------|
B|---2-----3---5-----7-----8----9---|----10-10-------10----12----10--|
G|----------------------------------|--------------------------------|
D|-2---2-4---5---5-7---7-9---10---10|-11-------10-11----12----11---12|
A|----------------------------------|--------------------------------|
E|----------------------------------|--------------------------------|
\---/
\---/ \---/
E7 riff
I come from atop the mountain baby
Where the people come to pray
A7
I come from atop the mountain baby
E7
Where the people come to pray
B
There ain't no truth in action
G
A7
E7
'Less you believe it anyway
(Same chords)
I was riding down the
-Someone hit a possum
I was riding down the
--

road one day


E7+9 (one octave up, slide down!!)
road one day
E7+9 (one octave up, slide down!!)

Someone hit a possum


The road was his end
His end was that road
So they say
E7+9
E----B--20G--19D--18A--19E----Chorus:
E7 (hold 4 bars) E7 (riff)
Whoa possum...
possum
A7 (hold 4 bars) E7 (riff)
Whoa possum...
possum
B
Whoa possum
G
A7
E7
Your end is the road
I was riding down the road one day
Someone hit a possum
I was riding down the road one day
Someone hit a possum
The road was his end
His end was that road
So they say
chorus:
E7 (hold 8 bars)
Whoa possum...
A7 (hold 8 bars)
Whoa possum...
B
G
A7
Whoa possum your end
B
G
A7
Whoa possum your end

E7 (riff)
possum
E7 (riff)
possum
E7
is the road
E7
is the road

(this page left intentionally blank)

Prince Caspian
Intro:
s
p
|:
:| |:
:|
E----------------------------7-----7-----8-----8-----------------------------B--3-----3-----5-----5-------8-----8-----8-----8------3-----3----1-----1-----G--0-----0-----0-----0-------0--0--0--0--0--0--0--0---0-----0----0-----0-----D--5--5--5--5--5--5--5--5-----------------------------5--5--5--5>2--2--2--2-0A----------------------------------------------------------------------------E----------------------------------------------------------------------------G
C
D5
E--3--------------(0)--B--0-------1-------3---G--0-------0-------2---D--0-------2-------0---A----------3-------0---E--3-------------------G > C

(x4)

[Some people like to play a C9 chord rather than a C]


G
C
G
Ohhhhhhhhh to be prince caspian

G
C G C
Afloat upon the waves

C
G
D5
G
With nothing to return to but the demons in their cave
C G D5
G
And the children in the fields are sowing seed and chaffing wheat
C G
D5
G
Oh to be prince caspian with stumps instead of feet
(repeat chorus)

Punch You In The Eye


|:
repeat
:|
E--------------------------------|--------------------|
B-------------------(0)----------|--------------------|
G-----------------6/-7~~~~~------|-7--4-6~~~~---------|
D-5h-7--7-7-7-(5)-5--5-----------|-5--5-7-------------|
A-0-(0)-0-0-0----------0-0-0-0-0-|--------0-0-0-0-0-0-|
E--------------------------------|--------------------|
E----------------------------------|----Harmonics-------|
B----------------------------------|-----<5>------------|
G--9--6--4-----------4/7--6~~~~~---|--------<5>---------|
D-11--7--5-----------5-5--7--------|--<5>------<5>------|
A---------0-0-0-0-0-0--------------|-0------------<5>---|
E----------------------------------|--------------------|
E------------------|R|--------|-----------------|
B-5\-1/-5\-1/-5\-1-|e|-heavy--|-----------------|
G-6\-2/-6\-2/-6\-2-|p|-drone--|-----------------|
D-7\-3/-7\-3/-7\-3-|e|--on----|-----------------|
A------------------|a|---E----|-----------------|
E------------------|t|-string-|-0-0-0-0-0-0-0-0-|
Repeat those as many times as needed (listen to the song for exact
timing / number of times)..Until:HEAVY DRUMMING ON E STRING!!
E-----------------------------------------------------------B-----------------------------------------------------------G-----------------------------------------------------------D-----------------------------5-4-5-4-----------------------A-------------5>7-7-7-7-7-7-7-7-5-7-5-----------------------E-0-0-0-0-0-0-----------------------------------------------Page and the boys build it up at this point through some sort of scale
( I think it goes (these are single notes) E F# G A B C# D D#)
Heavy drumming on Open A String here:
(Stacatto)
(Hey!)
E-----------------------------------------------------------B-------------------------------------------------------7--5G--------------------5--4--5-4------------------5-4--5--7--5D----5>7-7-7-7-7-7-7-7--5--7-5---5>7-7-7-7-5-7--7-5--7--7--5A-0-(let ring)~~~---------------------------------------0--0E-----------------------------------------------------------Repeat until last time, ending with a Big "Hey" and an E7+9:
E--B-8G-7D-6A-7E-0Hit an Am briefly, then:
[No Chord]
I come from the land where the oceans freeze,
spent three long months on the open seas.

Am7
Em7
Paddled 'til it seemed I could take no more,
Am7
when my ship hit aground on Prussia's shore.
Am7
Em7
How was I to know that day
Am7
that the winds had swept me Wilson's way?
Am7
Em7
When soon towards me from the East,
Am7
came Wilson and his men on multi-beasts.
[Repeat Lick from before]
[Same Chords]
Well it seems that he didn't like my face
and I quickly learned that Prussia was an evil place.
They tied me to a chair with a giant clip
And they held a piece of paper to my tender nip(ple).
Then they tossed the chair in a tiny shack
and told me not to worry 'cause they'd soon be back.
I loosened up my bonds where my hands were lashed
and ran towards the cove where my boat was stashed.
Dm7 Am7
Em7
Am7
Singin: Oh wilson, someday Ill kill you 'til you die,
Dm7 Am7
E7+9
oh, Wilson...
Punch you in the eye
[Repeat Lick from Before]
If Wilson knew that I was loose
I'd surely be subjected to some real abuse.
Maybe end up hangin' from the nearest tree,
so angrily I paddled to the open sea.
But the sea was eager to beat me back
and the wave grew huge and deadly black,
and the grey clouds rumbled over my head
And I feared in my heart that I'd soon be dead.
[Segue into Landlady]
When the morning came and the storm had passed
And the dismal fog began at last.
To open up before my eyes
when suddenly to my surprise,
Chains and specks of islands curved
Where palm trees dipped and seagulls swerved,
I parked my kayak on a stone
And yelled across the ocean to his evil throne
I said: Oh, Wilson, someday I'll kill you 'til you die,
oh, wilson, punch you in...

Quinn the Eskimo


intro

E
A
E
A
Ev'rybody's building the big ships and the boats,
E
A
Some are building monuments,
E
A
Others are jotting down notes,
E
A
Ev'rybody's in despair,
E
A
Ev'ry girl and boy
E
B
But when Quinn the Eskimo gets here,
A
E
Ev'rybody's [gonna] jump for joy.
E
B
E
Come all without, come all within,
E
B
A
E
You'll not see nothing like the mighty Quinn.
Now, I likes to do just like the rest, I likes my sugar sweet,
But guarding fumes and making haste, *)
It ain't my cup of meat.
Ev'rybody's just standin' round 'neath the trees,
Feeding pigeons on a limb
But when Quinn the Eskimo gets here,
them pigeons'll go to him.
Come all without, come all within,
You'll not see nothing like the mighty Quinn.
A lamp gate, a gunny dew, I can't recite them all **)
Just tell me where it hurts ***)
And I'll tell you who to call
Nobody can get no sleep,
There's someone on ev'ryone's toes
But when Quinn the Eskimo gets here,
Ev'rybody's gonna doze.
Come all without, come all within,
You'll not see nothing like the mighty Quinn.
trey lick
e------------------------B------------------------G------------------------D------------------------A-7-7-7h9-7--------------E--------------9-7-5-5-5--

Reba
Start with F Octaves (repeat 8x):
E|-----|B|-----|G|-----|D|---3-|A|-----|E|-1---|Eb
Bb
Reba sinka boulder in the water
Eb
Bb
Reba tiea cable to a tree
Eb
Bb
Db
Reba stuck in a game of lipstick perfume flypaper
Ab
B
Gb
A
Reba pressa razor to a slide cross a needle
Bb
Bbsus4 Bb
with a prune
The above is played as follows:
Eb Bb Eb Bb Eb Bb Db Ab B Gb A Bb Bbsus4 Bb
E|-6--6--6--6--6--6--4--4--2-2----------------B|-8--6--8--6--8--6--6--4--4-2--2-3--4------3-G|-8--7--8--7--8--7--6--5--4-3--2-3--3------3-D|-8--8--8--8--8--8--6--6--4-4--2-3--3------3-A|-6--8--6--8--6--8--4--6--2-4--4-5--5------5-E|----6-----6-----6-----4----2----------------Eb
Bb
Knee deep in the motel tub
Db
Ab*
Reba dangle ladle form her lip
G*
dip
Gb*
sip
* Hit bass note then hit the rest of the chord.
B
E
Reba babble to the nag with the lipstick perfume
D
A
mutter to a farmer in a truck
D
Take a peek at the cheetah, Reba
E
Eb
cheetah on the prowl in a cage
Bb
sinka boulder in the water
Eb
Bb
tiea cable to a tree
Eb
Mutter "nature" to the nag
Bb
with the lipstick perfume
Db
Ab
Reba flush a fleshfarm leftover
B

thunder in a circle
F#
down the pipes
The above is played as follows:
Eb Bb Db Ab G Gb B E D A D E Eb Bb Eb Bb Eb Bb Db Ab B F#
E|-6--6--4--4--3-2----7-5-5-5-7-6--6--6--6--6--6--4--4--2-2-B|-8--6--6--4--3-2--4-9-7-5-7-9-8--6--8--6--8--6--6--4--4-2-G|-8--7--6--5--4-3--4-9-7-6-7-9-8--7--8--7--8--7--6--5--4-3-D|-8--8--6--6--5-4--4-9-7-7-7-9-8--8--8--8--8--8--6--6--4-4-A|-6--8--4--6--5-4--2-7-5-7-5-7-6--8--6--8--6--8--4--6--2-4-E|----6-----6--3-2--------5--------6-----6-----6-----4----2-<Chorus 4x>
B
Bag it
F#
Tag it
C#
F#
Sell it to the butcher in the store
The chords are played like this:
B F# C# F#
E|---2--4--2-B|-4-2--6--2-G|-4-3--6--3-D|-4-4--6--4-A|-2-4--4--4-E|---2-----2-To end the chorus, repeat the F# and B as follows, while
the bass walks down F# D# C# B A# G# F# twice:
|: F# B (3x) :| F# |: F# B (3x) :| F#
E|-|--2--2-------|-2---|-------------|----B|-|--2--4-------|-2---|--14-16------|-14-G|-|--3--4-------|-3---|--15-16------|-15-D|-|--4--4-------|-4---|--16-16------|-16-A|-|--4--2-------|-4---|-------------|----E|-|--2----------|-2---|-------------|----Interlude:
F#
B
Reba put a stopper in the bottom of the tub
C#
picked up a jar unscrewed the top
F#
and watched it drop into the water
A little scoop of plaster mix
B
some coffee ground and mud
C#
and then she stirred it with the ladle
F#
that her Grandmother had bought her
Here's how it's played (repeat 2x):
F# F#/F D#m C# B B/A# B B/C C#
F#
E|-------------------------------------------B|-7--7----7---6--4-4----4-4---6-----------7--

G|-6--6----8---6--4-4----4-4---6-----------6-D|-8--x----8---6--4-4----4-4---6-----------8-A|-9--8----6---4--2-1----2-3---4-----6-8-9-9-E|---------------------------------9---------B
threw in a pot of melted wax
F#
a forefoot and a hoof
B
apple core, worms galore
C#
F#
and a can of some corrosive
B
coconuts and chloroform
F#
some wicker and some cork
B
Toxic waste, some purple paste
C#
F#
she hoped was not explosive
This is played the same as the first part of the interlude,
except that there is a B chord in the beginning, and the
second C# chord is played very briefly. (Just listen to the song..)
The B chord is played like this:
B
E|--B|-7G|-8D|-9A|--E|--And once again the first part of the interlude is played:
F#
B
Reba dip a ladle for a taste of her creation
C#
and she knew that what she made
F#
would be the finest in the nation
Play the Chorus again, 4 times:
B F# C# F#
E|---2--4--2-B|-4-2--6--2-G|-4-3--6--3-D|-4-4--6--4-A|-2-4--4--4-E|---2-----2-Stop in the middle of the 4th time to play this rising riff:
C# C#sus4 C#b5 C#
E|--------------------B|-6--7-------8-----9-G|-6--6-------6-----6-D|-6--6-------6-----6-A|--------------------E|--------------------After this riff, the chorus chords are played a bit higher:
B F# C# F#

E|-7----4----B|-4-7--6--7-G|-4-6--6--6-D|-4----6----A|-6-4--4--4-E|---6-----6-Chorus is played like this 8 more times, stopping in the middle of the 4th
and 8th times to play the rising riff again. After that play:
|: 3x
:| |: 3x
:| |: 5x
:|
E|-|-------------|-|-------------|-|-------------|B|-|-10-11-12-13-|-|-14-15-16-17-|-|-17-18-19-20-|G|-|-------------|-|-------------|-|-------------|D|-|-------------|-|-------------|-|-------------|A|-|-------------|-|-------------|-|-------------|E|-|-------------|-|-------------|-|-------------|-

Composed Instrumental Section


<> = Harmonic
h = Hammer-on
p = Pull-off
/ = Slide Up
\ = Slide Down
2:41
e-|--------|------85|6-4-----|---------|-----/5-|3-------|------3-|---10--3-|
b-|-3h4-6-6|-6--56--|6--64---|-----4-5-|-4-3----|-64-----|--6---4-|---11--4-|
g-|-0---0-4|-5------|6----6-7|/6---4-5-|-4-3----|---67--8|--5---4-|---11--4-|
d-|-5h5-5--|---7----|-------6|/5---6-6-|-6-6----|----7--6|--------|---------|
a-|--------|--------|-------7|/6-------|--------|--------|--------|---------|
E-|--------|--------|--------|---------|--------|--------|--------|---------|
e-|--10--9-----|-------------|----------|-----------|-------12-11|-----/10-8-|
b-|--11---10---|-/13-11------|----7--8--|-9--10--11-|12-----13---|12---------|
g-|--11-----10-|---------/11-|10987--8--|-9--10--11-|10-----13---|--12-------|
d-|------------|-------------|-------11-|-10-9---8--|x------12---|-----------|
a-|------------|-------------|----------|-----------|------------|-----------|
E-|------------|-------------|----------|-----------|------------|-----------|
3:01
e-|--------------|---------|--------------------|17----------------|--------------|
b-|9101112-------|---<7>---|--------17------1717|----------15------|9101112-------|
g-|-------/9-11--|---<7>---|15h16-16--15-h16----|--13h14-14--13-h14|-------/9-11--|
d-|------------12|---------|--------------------|------------------|------------12|
a-|--------------|---------|--------------------|------------------|--------------|
E-|--------------|---------|--------------------|------------------|--------------|
e-|---------|--------------------|17--------------------|15------------|---------------------|
b-|---<7>---|--------17------1717|----------15------1515|--11-10-9-----|---------15------1515|
g-|---<7>---|15h16-16--15-h16----|--13h14-14--13-h14----|--10-9--8-----|-13h14-14--13-h14----|
d-|---------|--------------------|----------------------|--10-9--8-----|---------------------|
a-|---------|--------------------|----------------------|--------------|---------------------|
E-|---------|--------------------|----------------------|--------------|---------------------|
3:12
e-|15--------|---------|---------|---------|--------|----6-9-|--------|--------|
b-|-----10-9-|8---8--6-|6---8--6-|---8--9--|4---6---|7---6---|7---9---|11--11--|
g-|-----10-9-|8--------|7--------|5--------|4---4---|4---6---|6---8---|10--9---|
d-|-----10-9-|8--8--8--|8--8--8--|6--------|4---4---|4---8---|8---9---|12--11--|
a-|----------|---------|---------|---------|6---6---|6-------|--------|--------|
E-|----------|---------|---------|---------|--------|--------|--------|--------|
3:23
e-|--------|-----------|----------|--------7|8----8--|-8---8--|---5----|
b-|11--10--|/9-87----11|----------|-----68--|----6---|6---6---|--5-----|
g-|8---8---|-10--107---|-7--/8-10-|8---7----|---7---7|---7---7|-7--765-|
d-|10--10--|-----------|----------|--69-----|--5---5-|--5---5-|8------6|
a-|--------|-----------|----------|---------|--------|--------|--------|
E-|--------|-----------|----------|---------|--------|--------|--------|
3:31
e-|:---------------|------------|---------------|-----------:|

b-|:------5-------4|----5----4--|------5-------4|-----------:|
g-|:----5-------4--|------------|----5-------4--|-----------:|
d-|:--6-------6----|--6---------|--6-------6----|-----------:|
a-|:8-------8------|8-----8-----|8-------8------|-----------:|
E-|:---------------|------------|---------------|4-3-2-1----:|
e-|:-----------------|------------|-----------------|-----------:|
b-|:-------7--------6|-----7-----6|-------7--------6|-----------:|
g-|:-----7--------6--|------------|-----7--------6--|-----------:|
d-|:---8--------8----|---8--------|---8--------8----|-----------:|
a-|:10-------10------|10-----10---|10-------10------|-----------:|
E-|:-----------------|------------|-----------------|6-5-4-3----:|
3:50
e-|--------|/3--------|-----------|---------6|
b-|------3-|/3--6--3--|3h4-4--43--|3h4-4---4-|
g-|----3---|/3--------|3--3--5----|3--3---5--|
d-|--4-----|----------|6----6-----|6-----6---|
a-|5-------|----------|-----------|----------|
E-|--------|----------|-----------|----------|
e-|---4----|--------|/3-------|:-----------|-----------|---------6|---4----|
b-|--4-----|-------3|/3--6--3-|:3h4-4--43--|3h4-4--43--|3h4-4---4-|--4-----|
g-|-5------|------3-|/3-------|:3--3--5----|3--3--5----|3--3---5--|-5------|
d-|--------|-----4--|---------|:6----6-----|6----6-----|6-----6---|--------|
a-|--------|----5---|---------|:-----------|-----------|----------|--------|
E-|--------|6543----|---------|:-----------|-----------|----------|--------|
rake
rake
rake
e-|5--------5---|---------|5-----------|---------------:|-----------|-----------|
b-|----56-------|56---5-6-|----56---5/6|\5/6\5/6\5/6\5-:|3h4-4--43--|3h4-4--43--|
g-|---5---7----5|---7-4-5-|---5---7-4/5|\4/5\4/5\4/5\4-:|3--3--5----|3--3--5----|
d-|--7--------7-|---------|--7---------|---------------:|6----6-----|6----6-----|
a-|-------------|---------|------------|---------------:|-----------|-----------|
E-|-------------|---------|------------|---------------:|-----------|-----------|
4:25
e-|---------6|---4----|4-------|6-6-----|---------|---------|---------|--------|
b-|3h4-4---4-|--4-----|4-------|6-6-----|8---8--6-|6---8--6-|---8--9--|4---6---|
g-|3--3---5--|-5------|4-------|6-6-----|8--------|7--------|5--------|4---4---|
d-|6-----6---|--------|4-------|8-8-----|8--8--8--|8--8--8--|6--------|4---4---|
a-|----------|--------|6-------|--------|---------|---------|---------|6---6---|
E-|----------|--------|--------|--------|---------|---------|---------|--------|
4:41
e-|----6-9-|--------|--------|--------|--------|--------|:----------|---------|
b-|7---6---|7---9---|11------|11------|11------|10------|:9-12--9-12|-12-99-12|
g-|4---6---|6---8---|10------|9-------|8-------|8-------|:7-10--7-10|-10-77-10|
d-|4---8---|8---9---|12------|11------|10------|10------|:9-12--9-12|-12-99-12|
a-|6-------|--------|--------|--------|--------|--------|:----------|---------|
E-|--------|--------|--------|--------|--------|--------|:----------|---------|
e-|------------|-----------:|:------------|-----------|------------|-----------:|
b-|11-14--11-14|-14-1111-14:|:13-16--13-16|-16-1313-16|15-16--15-18|-18-1515-18:|
g-|9--12--9--12|-12-9-9--12:|:11-14--11-14|-14-1111-14|13-16--13-16|-16-1313-16:|
d-|11-14--11-14|-14-1111-14:|:13-16--13-16|-16-1313-16|15-18--15-18|-18-1515-18:|
a-|------------|-----------:|:------------|-----------|------------|-----------:|
E-|------------|-----------:|:------------|-----------|------------|-----------:|
e-|:15--14--|13--12--:|:15-14-13-12-:|17-16-15-14-|13-12--18!-|
b-|:14--13--|12--11--:|:14-13-12-11-:|16-15-14-13-|12-11------|
g-|:15--14--|13--12--:|:15-14-13-12-:|17-16-15-14-|13-12------|
d-|:--------|--------:|:------------:|------------|-----------|
a-|:--------|--------:|:------------:|------------|-----------|
E-|:--------|--------:|:------------:|------------|-----------|
The following section is played twice, first in unison with the piano then half a
step late. The second time, stop and hold at the note marked with (*).
5:13
e-|---------|--------|--------------|-------------|--------------|----------------|
b-|---------|--------|------------11|10-----1213--|--------------|--------------13|
g-|---------|9-------|--------1012--|-------------|-1112-------11|--------11--14--|
d-|----7-710|--------|--121012------|-----------14|----------12--|1213--13--15----|
a-|---9-8---|--------|--------------|-------------|-----14-14----|----14----------|
E-|10-------|--------|--------------|-------------|--------------|----------------|
e-|--1114131211----|--12111614----12|11-----------|--14------------|--------1314----|
b-|12--------------|----------1314--|------1412---|----12--12------|----1215----1612|
g-|------------1112|13--------------|--1311-------|11----11--10----|--13------------|
d-|----------------|----------------|-------------|--------------12|15--------------|
a-|----------------|----------------|-------------|------------14--|----------------|
E-|----------------|----------------|-------------|----------------|----------------|

e-|--------------|---------------|-----------------|-------14-14----|--------------|
b-|--------------|-------14------|---15--15--15--15|------------1612|--------------|
g-|14---1314---13|14-----------18|/19--18--17--16--|1513h14---------|14---1314---13|
d-|--------------|---------------|-----------------|----------------|--------------|
a-|--------------|--15/16--------|-----------------|----------------|--------------|
E-|--------------|---------------|-----------------|----------------|--------------|
e-|---------------|-----------------|-----------------|---------------|----------------|
b-|-------14------|---15--15--15--15|-------15--1513--|---------------|------1513------|
g-|14-----------18|/19--18--17--16--|1513h14--14----14|15-----121514--|-13h14----1415--|
d-|---------------|-----------------|-----------------|--13-13------12|--------------13|
a-|--15/16--------|-----------------|-----------------|---------------|----------------|
E-|---------------|-----------------|-----------------|---------------|----------------|
e-|----------------|--------------|----------------|----------------|-----------------|
b-|------1513------|--------------|--1014131211----|----------------|-----------------|
g-|-13h14----1415--|---121514-----|11----------1411|----------------|---------------11|
d-|--------------13|-13------12-12|----------------|1412------------|-------10-13-12--|
a-|----------------|--------------|----------------|----12-9-------9|-12-11-----------|
E-|----------------|--------------|----------------|---------12-10--|-----------------|
*
e-|-------------1718p17p15|----------|
b-|------1615h19----------|16--------|
g-|141317-----------------|--1518----|
d-|-----------------------|----------|
a-|-----------------------|----------|
E-|-----------------------|----------|
The accompanying chords for the brief drum solo as well as the rest of the jam are:
Eb

(The Eb could also be a Ebmaj7 ?)


The guitar solo is played in the C dorian scale. For beginners note that this is basically
the same as the Bb major scale, but with greater emphasis on the C notes.
End the jam on Eb. Whistle over the Interlude progression, then play the chorus twice.
Ending riff:
C#
F
A
C#
F#maj7
E-----------------------------------------------------B--6-7-8-9-10-11-12-13-14-15-16-17-18-19-20-21--------G--6-6-6-6-10-10-10-10-14-14-14-14-18-18-18-18--------D--6-6-6-6-10-10-10-10-14-14-14-14-18-18-18-18--------A-----------------------------------------------------E-------------------------------------------------2----

Rift
Intro riff (repeat a lot and throughout the song where there are G chords)
/S
/S
E|-----------------------------------------------|
B|-----------------------------------------------|
G|------0-0-0-0-0-0----------0-0----0-0----------|
D|-4-5-----------------4-5-----------------------|
A|-----------------------------------------------|
E|-----------------------------------------------|
Some
Eb/G
---4-3-5-----

useful chords
F/A C
E
D
--- --- --- ---6- -5- -9- -7-5- -5- -9- -7-7- -5- -9- -7--- --- --- ----- --- --- ---

G9->F#9/G->G9
Last night,

G
---3-4-5-----

F
---1-2-3-----

C#
---6-6-6-----

Eb/G
in the moments my thoughts were adrift
G
And coasting a terrace, approaching a rift
Eb/G
Through which I could spy several glimpses beneath
F/A
Of a darkness the light from above could not reach
Eb/G
I spied wings of reason, herself taking flight
F/A
And upon yonder precipice saw her alight
Eb/G
And glared back at me one last look of dismay
G
As if she were the last one she thought I'd betray
(Second verse same chords as the first)
So much the better I said to myself
And drawing quite close to the top of the shelf
I struggled with destiny upon the ledge
And gasped when defeated he slipped off the edge
And silence contagious in moments like these
Consume me and strengthen my will to appease
The passion that sparked me one terrible night
And shocked and persuaded my soul to ignite
Chords for guitar solo 1:
G Eb/G G Eb/G F/A Eb/G F/A Bb Eb Bb Eb Ab
G Eb/G Em7 Eb/G F/A Eb/G F/A Bb Eb Bb Eb Ab

(this page left intentionally blank)

Rock and Roll


Originally by The Velvet Underground
riff:
D
Am
|------|--------------------|----------------------|
|------|----------7\--------|----------5\----------|
|------|-------4--7\--------|-------2--5\----------|
|------|-------4--7\--------|-------2--5\----------|
|-(17)\|-5--7---------------|-3--5-----------------|
|------|--------------------|----------------------|
4
1 & 2 & 3
4
1 & 2 &
3
4
G
D
|---------------------|----------------------|
|---------------------|----------7\----------| B=bend
|---------------------|-------4--7\----------| R=release
|-----------2-B3---R2-|-------4--7\----------| \=slide down
|-----2--5------------|-5--7-----------------|
|--3------------------|----------------------|
1 & 2 & 3
4
1 & 2 &
3
4
riff 2x guitar and cowbell
riff 2x

whole band play chords indicated above(D C G D)

D
Am
Jenny said when she was just five years old you know there's
G
D
nothing goin' down at all.
D
Am
G
D
She turned on that radio and there was nothin' happening at all.
D
Am
G
She turned on that L.A. station couldn't believe what she heard
D
at all.
D
Am
She started dancin' to that fine fine music
G
D
Her life was saved by rock and roll.
E
chorus:

G
Despite all the complications they could just

A
G
dance to that rock and roll station
D
G
And it was alright(it's alright)
D
G
It was alright(it's alright)
D
G
It was alright(it's alright)

D
It was alright.
riff 2x
Jenny said when
parents will be
Two TV sets and
mean nothin' at

she was five years old you know her


the death of us all.
two Cadillac cars well they don't
all, not at all.

She turned on that L.A. station couldn't believe what she


heard at all.
She started dancin' to that fine fine music, her life was
saved by rock and roll.
chorus
solo over verse chords
chorus
1st verse
chorus-end on last "alright"

== Alternate Transcription ==
Intro/Verse
C
Bb6 (something, Emil help me out on this one)
e||-----8---8----8-----------------------------b||-----8---8----8------8---8--8-------6---6--6g||-----9---9----9------7---7--7-------5---5--5d||----10--10---10------8---8--8-------7---7--7a||---------------------x---x--x---7-8---------e||--8------------------6---6--6---------------F
slide to
G then back F
back to C
e--------\-------------\------------------||
b----10--\------12-----\----10------------||
d----10--\------12-----\----10------------||
d----10--\------12-----\----10------------||
a-----8--\-------------\------------------||
e-----------------------------------------||
Chorus
Despite all the complications....
chord progression is D F G F
Treys break after the 1st chorus:
(edited by Saint 3/30/08)
E --------------------------------------------------B --------------------------------------------------G ----------------7-^9-7-7----7-9-10~--^12-10-9----D ---10-10~--9^10--------------------------------8--A --------------------------------------------------E ---------------------------------------------------

Mike hits these notes in progression..


C C F hammered G C C
transcribed to guitar (if you're into comping)
e------------------------b------------------------g------------------------d----------------10---10-a----------8h10----------e---8---8----------------at this point.. they sing
C
Bb6
"and it was alright... (its alright)"
time to jam
repeat a bunch
B R
B R
|:
:|
E--(15)^17-15--12---------------------------17----------------------B------------------(15)^17-15-13-15-(15)^17-----(15)^17-15-13----13-G-------------------------------------------------------------14----D-------------------------------------------------------------------A-------------------------------------------------------------------E--------------------------------------------------------------------

Roggae
Intro:
s
E----------------------------------------------B----8--8-10-----------------------------------G----9--9-11-----------------------------------D-10-------------------------------------------A----------------------------------------------E----------------------------------------------The circus is the place for me with bears and clowns and noise
I love the shiny music that descends from overhead
Gordon knew the moment when the stars all turned around
But from that vantage point I frowned
If life were easy and not so fast
I wouldn't think about the past.
I can't forget to turn the earth so both sides get their share of
darkness and of light
D Bm
G
Ahhhhhhhhhhhhh

(x2)-

So now I wander over grounds of light and heat and sound and mist
provoking dreams that don't exist
A circus of light where dreams can take flight
In the peacefulness dreaming dreams bring.
If life were easy and not so fast
I wouldn't think about the past
D
C
F
G
F
D
E---------------------------------------------------------------B-------------1---3---1-----------------------------------------G--7-----5----2---4---2---7-------------------------------------D--7-----5----3---5---3---7-------------------------------------A--5-----3----3---5---3---5-------------------------------------E-------------1---3---1------------------------------------------

If
Life
Were
Easy.......
E----------------12--------10------------------------------------B------------10---------10---------12--------10----12--------10--G-------11-----------11-------- 11--------11---------------11----D---12----------------------- 12--------12-------12---- 12-------A----------------------------------------------------------------E----------------------------------------------------------------[repeat and fade]

Roses Are Free


by Ween
intro : palm mute & mesh in
Bb
Fm
Eb
Eb
e|-----------------------B|--3-x---1-x---4-x---4-xG|--3-x---1-x---3-x---3-xD|--3-x---3-x---1-x---1-xA|-(1)x---3-------x------E|--------1----------------

v.theme from solo


|verse
|----------------|--3---4---4---4---|--3---5---3---3---|--3---6---5---5---|-(5)-------------|------------------

Bb
Fm
Take a piece of tinsel and put it on
Cut a slab of melon and pretend that
Carve out a pumpkin and rely on your
Get in your car and cruise the land

Eb
the tree
you still love me
destiny
of the brave and the free

F Gm
G#
A
But don't forget to understand exactly what you put on the tree
Don't believe the florist when he tells you that the roses are free
Take a wrinkled raisan and do with it what you will
Push it into third if you know you're gonna climb a hill
Eat plenty of lasagna 'til you know that you've had your fill
Resist all the urges that make you wanna go out and kill
But don't forget to understand exactly what you put on the tree
Don't believe the florist when he tells you that the roses are free
solo
E|-----------------------------6-5---------------5-6-------------------|
B|---------5h8p6---8--6--5h8p6-----8-6-8-6----------5-6----------------|
G|-----6h7----------------------------------8-7----------6-7-----------|
D|-7h8--------------------------------------------------------7-8------|
A|---------------------------------------------------------------------|
E|---------------------------------------------------------------------|
: v.theme, repeats 4x & used in intro & last verse:
E|5h6-------------------:--------------------------------------------------|
B|---5h6----------------:--------------------------------------------------|
G|------6h7-------------5b7-7r5-3--3-5--3-5--3------3-----3--5b7-7-7-7-5-3-|
D|---------7h8----------:-----------5----5----5--3h5-5-3h5-5------------5--|
A|------------7h8p7-----:--------------------------------------------------|
E|-----------------8/9\8:--------------------------------------------------|
:*can play up on 15-17 fret during solo & last verse
E|-------------------------------------^1---3---4---5---6-6-66666----------|
B|--6---8---9---10--11-11-1111111111---^1---3---4---5---6-6-66666----------|
G|--5---7---8---9---10-10-1010101010---^2---3---5---6---7-7-77777----------|
D|-------------------------------------^3---5---6---7---8-8-88888----------|
A|-------------------------------------^3---5---6---7---8-8-88888----------|
E|-------------------------------------^1---3---4---5---6-6-66666----------|
^distortion
Throw that pumpkin at the tree
Unless you think that pumpkin holds your destiny
Cast it off into the sea,
bake that pie and eat it with me

A#

Round Room
E---------------------------------------------------B---------------------------------------------------G-7-7---------------7----6-9-7-----------------------D------7----------9----7--------7--------------------A--------9----10-----------------9------------------E---------10-----------------------10------------------Play that riff over the lyrics, it keeps repeating so listen to the song for the time.
~Alternate version~
E---------------------------------B-----------------------5---------G--7-7----------4-7---6---7-------D-------7-4---5-----7-------7-4---A-----------5-------------------5-E---------------------------------Verse:
D
G
A
D
My room is round when I lay down when I wake up it's square
D
G
A
D
When I go outside it's on a spiral set of stairs
D
G
A
D
People that surround my are waiting out there
D
G
A
D
In a round room they can't find me anywhe-e-e-e-ere
Right angle rooms drive me crazier each day
Put me in a box I know I'm never going to play
Put me in a square room and I won't know what to say
I want a round room at the end of the day
I had an
Couldn't
I want a
I want a

apartment, four corners on the walls


eat, couldn't sleep there at all
curve to the place where I stay
round room at the end of the day

If I pass out take me to the Round Church


Where echoes resound
And my spirit is found
And when I float high
Take my arm and I'll fly you by
The outskirts of town, to a garden that's round
I went to the lighthouse and I liked the view
I looked out the window and I could see you
Put me in a square house and I won't have a clue
I want a round room just to be with you.

Run Like An Antelope


Introduction:
These are the chord shapes -- listen to a recording for
timing and strumming information.
D
D
A
H-O
H-O
E-----------------------------------B-------------------10---7---5------G---------------7---7----7---6---7--D----------7-9------7----7---7---7--A-----7-9------------------------9--E--10--------------------------------

Repeat as necessary for intro.


Then
A

(x4)

Then repeat Introductory sequence...

Back to A D, until this part (again, listen to a recording


for timing information and when it comes:
E----------------------B--10--9--10--9--10--9-G---7--7---7--7---7--7-D---7--7---7--7---7--7-A----------------------E----------------------- then noodle on D...
E-----------------------B--10--9--10--11--10--9-G---7--7---7--12---7--7-D---7--7---7--13---7--7-A-----------------------E-----------------------Repeat twice...
Then back to the main lick, then A > D, the last time ending with
a D chord on the second fret (basic D chord).
Then comes the distortion, and the progression changes to a
D C D C G > F one (See below)... listen to the recording for timing.
This is the solo Trey does on Lawn Boy.. every time I think he
noodles around with it a little.
~~~~~ ~~~~~
~~
E---------------------------5-4-3----------------------B------------------------(3)------3---3-5-3-5^(7)------G----------------------(2)----------4------------------D------------------------------------------------------A---5------3-------5-----------------------------------E------------------------------------------------------Palm muting...
E------------------------------------------------------B--5^(7)-5-3-------------------------------5^(7)-5-3---G-------------2-2-2-2-2-2-2-2-2-2-2--------------------D-----------------------------------4------------------A------------------------------------------------------E-------------------------------------------------------

E----------------5^(7)---------------------------------B-----------------------------------5^(7)-5-3----------G--2-2-2-2-2-2-2-------2-2-2-2-...2------------2-------D------------------------------------------------------A------------------------------------------------------E------------------------------------------------------E--------------------------5^(7)----5^(7)-5-2----------B---------3-5-5-5-3---3-----------------------5-3--3---G----2-4------------4----------------------------4-----D--4---------------------------------------------------A------------------------------------------------------E------------------------------------------------------E--------------B-15^(17)-15---G------------14D--------------A--------------E---------------

Then:
Rake
Fast!!! ....................
E---15---15--------15--14--13--12--7--6--5--4--3---0-----B--13-------13---15--14--13--12--7--6--5--4--3--2--0-----G-14-----------------------------------------------0-----D--------------------------------------------------2-----A--------------------------------------------------2-----E--------------------------------------------------0------

..Into the JAM!!


Em > D
Here's a little lick that Trey did at Shoreline in 1995 at the start:
(Thanks to Mike Flouton)
E------------------------------------------------------B-12h13-11h12------10----------------------------------G-------------9h11----12-11-10-9-8-7-----7-9-----------D------------------------------------8h9-----9p8p7-----A--------------------------------------------------9p8p7
E------------------------------------------------------After the Climax of the jam, it cools down but maintains the same
Em > D progression. Trey might noodle over it a little, then goes
into the words :
Rai rai Rocko (?)
Marco Esquandolas (?)
Been you to have any spice/spike mon?

(?)

A heavy C chord makes for the transition to the next part:


D

G > F (loud!)

I like to play the G > F chords as such:


G
F
E-------------B-----8-----6-G-----7-----5-D-----9-----7-A----10-----8-E-------------Though I'm sure most people will stick with the barre chord shapes.
For this part, I can't decide which one sounds better / works better - the
C chord or the Am or the Am7 chord. They're all very closely related, Am
being the sixth of C. Play it however you like, I suppose
D
/
Am7
Run Run Run Run Run Run Run Run/Run Run Run Run Run Run Run Run
D
/
Am7
Run Run Run Run Run Run Run Run/Run Run Run Run Run Run Run Run
(with "Run run run" chant over)
"Set the gearshift for the high gear of your soul . . .
you've got to run like an antelope . . . out of control..."
Eventually they slow this chord progression down, ending on the D chord.
Trey will sometimes bend the fifth fret on the B string up a whole step
and hold it while the band does their grand finale, and he sometimes does his
"Thanks a lot, we'll be back in fifteen minutes" routine (yeah, right).
E--------B--5^(7)-G--------D--------A--------E--------Run Like an Antelope solo|Solo transcription
[http://www.emilstabs.org/media/Antelope.ptb Power tab file]
== Loops ==
Sampled:
<gflash>100 40 /vb5/phish/antelope.swf</gflash>

Runaway Jim
Intro: D-C-G (4/4 time)
verse: D
Had a dog.....
C
Runaway

G
D
Runaway Runaway

C G/B Am
Whoaaaaaaah

F
oh

D
Runaway jim

H-O H-O P-O P-O H-O


E--------------------------B--------------------------G--------------------------D-------0--2--0----------0-A--0--2---------2--0--2----E--------------------------Solo:
|:
:|
E--------------------------------------------------B--------------------------------------------------G----------------------------------------12-9------D----12--12-12-12----------9-------------------12--A--12-------------12-12-12---12-10--10-10----------E--------------------------------------------------H-O P-O
|:
:|
E--------------------------------------------------B--------------------------------------------------G----12--11--9-------------------------------------D--9-----------10--10-12-10----12------------------A---------------------------12---------------------E--------------------------------------------------|:
:|
E-10-10-10-101010101010--8-8-8--10-----------------B--------------------------------------------------G--7-7--7--7-7-7-7-7-7->-5-5-5->7------------------D--------------------------------------------------A--------------------------------------------------E--------------------------------------------------|:
:|
E-----------------------------(10)-----------------B----8-----8-----8------------(10)-----------------G----7^(9)-7^(9)-7^(9)---------10>11---------------D--------------------------------------------------A--------------------------------------------------E--------------------------------------------------Here's a nice way to play that solo if you are playing solo acoustic..
at the *'s, switch the rest of your fingers to the corresponding open
chord - so you are playing the lead over the chords in the background.
To accentuate the switch, you can even do a quick light rake over the
chord from the bass strings at these points, making the last string
played the one with the lead on it. It's hard to explain. But during
the "rest" section (between repeats, etc.), I like to keep the open D
string going.
D
C
G
D
*
*
* P-O *
E-(2)-------------------------------------3-0-----B-(3)-----3--3-3-3---------------1--1-1--------2--G-(2)---2----------2-2-2->-4->-2------------------D--0~(Let ring throughout)------------------------A-------------------------------------------------E-------------------------------------------------[ Repeat once ]

G
*

C
*

D
*

H-OP-O
E----3---2---0------------------------------------B--0------------1---1-3-1-----3-------------------G--------------------------2----------------------D--0~(Let ring throughout)------------------------A-------------------------------------------------E-------------------------------------------------For this part, obviously repeat the individual parts as many is
necessary (I'm not going to write the same fingering six times.. listen
to a recording to hear how it should be played)
E--5-5-5--3--5--------10-10-10--8-10---B--7-7-7--5--7---------7--7--7--5--7---G--7-7-7--5--7---------7--7--7--5--7---D--7-7-7--5--7---------7--7--7--5--7---A--------------------------------------E--------------------------------------[ repeat ]
E-8-8-8--10------------------------------B-8-8-8--10------------------------------G-9-9-9--11------------------------------D-0~~(Let Ring)~~~~~~~~~~~~~~~~~~~~~~~~~~~
A----------------------------------------E----------------------------------------You can even use your ring finger during that last formation (d chord)
to hammer on the B and E notes on the 12th fret of the 5/6th strings sounds a lot like the way Trey played it occasionally on Solo Tour
Full Lyrics
I had a dog. His name was Jim
(Runaway, runaway, runaway)
Took all of my old clothes with him.
(Runaway, runaway, runaway)
Whoa-ooooooooooooooo oh Runaway Jim
Whoa-ooooooooooooooo oh Runaway Jim
He was twelve years old when his trip began,
(Runaway, runaway, runaway)
Hauling down the highway in my old sedan.
(Runaway, runaway, runaway.)
Now I wish someone'd tell me where old Jim went,
(Runaway, runaway, runaway)
'Cause he took all the money that I saved for rent.
(Runaway, runaway, runaway)
By the time he came home he was seventeen.
(Runaway, runaway, runaway)
That's a hundred nineteen to you and me.
(Runaway, runaway, runaway)
Now I'm gonna go up to the mountain.
(Runaway, runaway, runaway)
Singing for Jim who's swimming in the fountain.
(Runaway, runaway, runaway)

Sample in a Jar
Trey starts the song with:
A

Em

D
* - toggle your selector switch back

and forth :)
|----------------------------------------------|
|-10---8---8---7--------------5---5---5----3---|
|--9---9---7---7--------------6---4---4----2---|
|-11--10---9---7-----7---7----7---6---5----4---|
|----------------7-9---9-----------------------|
|----------------------------------------------|
This is done twice as an intro, then there's a drum break, and then this
same progression is used for the verses. it's played two more
times as a verse.
The chorus goes like this:
A D E D

played 4X

Then play the verse progression once (w. distortion), then 2 more times as
the second verse. then there's another chorus.
The break is:
C

(let the E chord hang for a while)

During that hanging E, trey does a little fill like this:


H P H P H P H P H P H
|--------------------------|
|-8-9-8-9-8-9-8-9-8-9-8-9--|
|-7-9-7-9-7-9-7-9-7-9-7-9--|
|--------------------------|
|--------------------------|
|--------------------------|
It's hidden far away
But someday I may tell
The tale of metal tangle
When into your world I fell
Without you now I wander soaking
Secretly afraid
'Cause in your grasp the fears don't last
(And some of them have stayed)
I wheeled around because I
Didn't hear what you had said
And saw you dancing with Elihu
Up on Leemor's bed
And I was foggy rather groggy, you helped me to my car
The binding belt enclosing me, a Sample in a Jar
And on the market stands unfolding
With all their willies and their wares
I shuffle by alert but numb
To all the glances and the glares
And I think of you unheeding
All the times I raise my cup
It's now I know that you knew that
I'd soon end up end up
You tricked me like the others
And now I don't belong
The simple smiles and good times seem all wrong

Then the chorus part is played two more times.


progression. The studio solo is described here:

There's a solo over the verse

|-------------------------------------------------------------------------------|
|----12^14--10h12p10\8--10^12-10^12-10^12-8h10p8\7--------5----------5-7^9v7^9--|
|--------------------------------------------------7--------6-------------------|
|-----------------------------------------------------2/7-----7--5/6------------|
|-------------------------------------------------------------------------------|
|------------By: Ryan Laughlin--------------------------------------------------|
|--------------------------------------------------------15--|
|----7-5h7p5h7p5\3--5^7v5p3-5p3--------14-------13-------12--|
|--------------------------------16^18-------------14^16-----|
|-----------------------------------------13/14--------------|
|------------------------------------------------------------|
|------------------------------------------------------------|
|------------------------------------------------------------------------------------------------|
|----------15----15/14--17-------------------17-19p17----17--19^20-19\0-------19----18----17-----|
|--------------------------16^18v16p14----------------18-----------------0/18----18----18----18--|
|----14/16----16-----------------------16/18-----------------------------------------------------|
|------------------------------------------------------------------------------------------------|
|------------------------------------------------------------------------------------------------|
|------------------------------------------------------------------------------------------|
|----20^22v20^22--22v20-----20----0h19h20----19-----17----19-----20^22--20^22v20p17-19-17--|
|------------------------------------------------18----18----18----------------------------|
|------------------------17----17---------17-----------------------------------------------|
|------------------------------------------------------------------------------------------|
|------------------------------------------------------------------------------------------|
|-----------------------------------------------17----17-----------------------------------|
|-------17----19-19^20-19^20v19p17-19-----20^22----20----19----17-19-19^20v19p17-19^20v19--|
|-------------------------------------19--------------------18-----------------------------|
|----18----18------------------------------------------------------------------------------|
|------------------------------------------------------------------------------------------|
|------------------------------------------------------------------------------------------|
|-----------------------------|
|----17-------17-17-----------|
|----------14----16^18-14-----|
|-------14----------------14--|
|-----------------------------|
|-----------------------------|
|-------------------------------------------------11-12-13-14-15-16-17-18--20\0--|
|-------------------------------------12-13-14-15--------------------------------|
|----------------------11-12-13-14-15--------------------------------------------|
|----12-11-12-13-14-15-----------------------------------------------------------|
|--------------------------------------------------------------------------------|
|--------------------------------------------------------------------------------|
|----12-----15-----10-----5----12------------------12-----15-----10-----5----12-----7-----------------------||
|----12^14--15^17--10^12--5^7--12^14--5^6--6^7-----12^14--15^17--10^12--5^7--12^14--7^9--7^8v7^8v7-5h7p5\3--||
|----------------------------------------------3/-----------------------------------------------------------||
|-----------------------------------------------------------------------------------------------------------||
|-----------------------------------------------------------------------------------------------------------||
|-----------------------------------------------------------------------------------------------------------||

or another way it shows up a lot live


e-15-------------------------------------b-18b(20)-20------15-------10------17----g---------19b(21)-14b(16)--9b(11)--16b(18)
d----------------------------------------a----------------------------------------e-----------------------------------------

(this page left intentionally blank)

Sand
h
/
~

= hammer-on
= slide up/down
= vibrato

Funk Intro
Main Riff
E|-5-x-x-x--x-||-5-x---------|-5-x---------|-5-x---------|
B|-5-x-x-x-10\||-5-x---------|-5-x---------|-5-x---------|
G|-6-x-x-x--9\||-6-x-5~------|-6-x-5~------|-6-x-5~------|
D|-7-x-x-x-11\||-7-x---5-5h7-|-7-x---5-5h7-|-7-x---5-5h7-|
A|----------x-||-------------|-------------|-------------|
E|----------x-||-------------|-------------|-------------|
Let Ring
E|-------------------||-0/5------------5---||--------B|-------------------||-----5--------5---5-||--------G|-------xxx-5-------||--------------------||--------D|5-55-5555x---7-----||--------------------||--------A|-------------------||--------------------||--------E|-------------------||--------------------||--------As far as the solo goes, just keep up the funk in A
Lyrics:
If you can heal the symptoms
but not affect the cause
it's quite a bit like trying to heal
the gunshot would with gauze
if you instead attempt to rest
the pistol from the hand
then I would not be able to
equate my life with sand
Flowing through the hourglass
pushing through the funnel
turn once more and racing
all your siblings for the tunnel
slide like the silicone
embrace you as you fall
then bounce around
and let your brothers
crush you to the wall
I would choose my own religion
worship my own spirit
but if he ever preached to me
I wouldn't want to hear it
I'd drop him a forgotten god
languishing in shame
and then if I hit stormy seas
I'd have myself to blame
If you can heal the symptoms,
but not affect the cause
you can't heal the symptoms

Sanity
A
E
Sanity never came my way.
A
E
Sanity never came my way.
A
E
I don't know what I'll do today.
A
E
'Cause sanity never came my way.

(Came his way)


(His way)
(Way)

A
E
Lost my mind just a couple of times.
A
E
Lost my mind just a couple of times.
A
E
You can spend your nickels, you can spend your dimes.
A
Em7 (dirty)
Bm7
But I lost my mind just a couple of times.
Em7

Bm7

Em7

Bm7

Em7

F#

Then the little single-note phrase:


E-----------------------------B--12-11-10-------------------G----------12-13-9------9-8-9-D------------------11-9-------A-----------------------------E-----------------------------The same pattern continues for the other verses...
Sanity never came my way.
(Came his way)
Sanity never came my way.
(His way)
I don't know what I'll do today.
(Way)
'Cause sanity never came my way.
Lost my mind just a couple of times.
(Lost his mind)
Lost my mind just a couple of times.
(His mind)
You can spend your nickels, you can spend your dimes.
(Mind)

(Lost his mind)


(His mind)
(Mind)

But I lost my mind just a couple of times.


You can trespass anywhere.
(A-ny-where)
You can trespass anywhere.
(Ny-where)
Where you go, you'd better beware
(Be-ware)
You can trespass anywhere.

I forgot the rules, I forgot my pride.


('Got his pride)
I forgot the rules, I forgot my pride.
(His pride)
I don't need a place to hide.
(Hide)
I forgot the rules, I forgot my pride, but I don't need a place to hide!
The stars in the sky are very bright.
(Stars are bright)
The stars in the sky are very bright.
(Are bright)
The stars they really suck tonight!
(stars suck)
The stars in the sky are very bright.
And I don't care if the world explodes.
(world ex-plodes)
No, I don't care if the world explodes.
(Ex-plodes!)
You can save the whales, you can save the toads.
(Toads)
But I don't care if the world explodes.

Seven Below
E
B
G
D
A
E

:-----------------|-----------------|-----------------|
:-----------------|-----------------|-----------------|
:---------5---3---|---------5---3---|---------5---3---|
:-------5---0-----|-------5---0-----|-------5---0-----|
:3--3-6-----------|3--3-6-----------|3--3-6-----------|
:-----------------|-----------------|-----------------|

E
B
G
D
A
E

:----------------|
:----------------|
:3-0-------------|
:----1---5---3---|
:------3---3-----|
:----------------|

and here's the melody line:


E
B
G
D
A
E

:-----------------|--15------------17-------|------------------|
:13---------------|-----13\-12/-13----13-12-|----------15------|
:-----------------|-------------------------|-------------12---|
:-----------------|-------------------------|------------------|
:-----------------|-------------------------|------------------|
:-----------------|-------------------------|------------------|

E
B
G
D
A
E

:----------------|-----------------|--12-----------13-------|
:----------------|10---------------|-----10\-9/-10----10----|
:----------------|-----------------|---------------------12-|
:----------------|-----------------|------------------------|
:----------------|-----------------|------------------------|
:----------------|-----------------|------------------------|

C-------------------G
Blue, splinter, and grow
F---------------C
New crystals of snow
F------------C
Seen several kinds
G---------------C
Through seven below

Show Of Life
Main riff
A
D
E---------------0--0--0------------2-2-2-----------------------------------B---------------2--2--2------------3-3-3----------------------------------G---------------2--2--2------------2-2-2-----------------------------------D---------------2--2--2----------0-0-0-0-----------------------------------A-------0---0---0--0--0------0---------------------------------------------E----0h2--2---------------0h2--2-------------------------------------A
It's no easy road
D
this struggle and strife
Bm
A
We find ourselves in the show of life
A
What's on the schedule
D
What's on your plan
Bm
Do you ever ignore
A
What you don't understand
Bm
A
Don't ask me 'cause I don't know
Bm
A
I just fasten my seat belt wherever I go
Bm
It's been perfectly planned
Bm Not Sure?(->)Ab
A
G#
A
E
it's completely insane
D
it's a revolving cast
A
but it's the same old game
A
Waves of people
D
They come and they go
Bm
Shine for a while
A
It's a marvelous show
A
D
it's limited time that we exist
Bm
A
We slowly make our way into the mist
Bm
A
My thoughts are racing
Bm
A
I see faces of the friends that I recall
Bm Not Sure?(->)Ab
A
G#
A
E
I'd like to take this time to thank you all
A
Just as the blind imagine
D
what it is to have sight
Bm
A
We slowly take a stroll into the night
A
It's no easy road
D
This struggle an strife
Bm Not Sure?(->)Ab
A
G#
A
We find ourselves in the show of life
A
In the show of life
D
In the show of life
(Find myself at right here)
Solo / Jam in

Silent In The Morning


intro
G
e|-----------------------|
B|----8----8----8----8---|
G|--77---77---77---77----|
D|-7----7----7----7------|
A|-----------------------|
E|-----------------------| 4x, :|: repeat w/bass 2nd time
verse 1
G
C
G
D
C
G
e|-----------|----------|-----------|-----------|----------|-----------|
B|----8----8-|---5----3-|----8----8-|----7----7-|---5----3-|---------3-|
G|--77---77--|045--045--|--77---77--|--77---77--|045--045--|020-4-020--|
D|-7----7----|----------|-7----7----|-7----7----|----------|-----------|
A|-----------|----------|-----------|-----------|----------|-----------|
E|---------8x|--------2x|---------2x|-----------|----------|--------12x|
G
My glance is always darting, when I stroll the avenue
Avoiding all the obstacles that terrorize my view
C
G
If you are here with me, I trust you to lead the way
D
C
G
But when you're not I follow you, and always go astray
verse 2
G
C
G
D
C
G
e|-----------|-----------|-----------|-----------|---------------|-------------|
B|---------3-|---------3-|---------3-|----3----3-|---------------|-------------|
G|020-4-020--|020-5-020--|020-4-020--|--20---20--|---------------|-----------4-|
D|-----------|-----------|-----------|-4----4----|--20-5----20-5-|--00-5---00--|
A|-----------|-----------|-----------|-----------|-5-------5-----|-2------2----|
E|---------8x|---------2x|---------2x|-----------|---------------|----------12x|
Silent in the morning Suspended in the trees
lunch time comes you've found your voice It brings me to my knees
volume just increases the resounding echoes grow
Till once again I bask in morning stillness, I love so
verse 3
G
C
G
D
A
C
D
e|-----------|------------|-----------|---------|----------|------------|-------------|
B|-----------|------------|-----------|---------|----------|------------|-------------|
G|---------4-|------------|---------4-|---2---2-|---2----2-|------------|-------------|
D|-00-5--00--|-00-2--00-5-|-00-5--00--|-40---40-|-20---20--|-20-5--20-5-|--40-7--40-7-|
A|2-----2----|3-----3-----|2-----2----|5----5---|4----4----|3-----3-----|-5-----5-----|
E|---------8x|----------2x|---------2x|---------|----------|------------|-------------|
The target that I shoot for seems to move with every breath
I Tighten all my arteries and make one last request
divine creation hears me, and he squashes me with fear
D
A
C
D
I think that this exact thing happened to me just last year
chorus
G
A
C
D
C
e|-------------------------------| |---------|
B|-0-0----2-2---:---1---1---3---3| |-1-1-1-1-|
G|-0-0----2-2---:--0---0---0---0-| |-0-0-0-0-|

D|-0-0----2-2---:-2---2---4---4--| |-2-2-2-2-|
A|-2-2----0-0---:3---3---5---5---| |-3-3-3-3-|
E|-3-3-------------------------4x| |---------|
G
A
C
D
silent in the morning you found your voice, it brings
silent in the morning you found your voice, it brings
silent in the morning you found your voice, it brings
silent in the morning you found your voice, it brings
(Silent eyes dismiss you, shelter you, speak to you,
Smile at you, trust in me, laugh and brush you off and

me
me
me
me

to
to
to
to my knees (C C C C)

I'd agree)

solo
G
A
C
D
e|--------------------------------------------------------------------|
B|----------------------------------:------------------------------15-|
G|-12p11-12p11--12p11--12p11-12p11--:-12p11-12p11--12p11-14p11-12p11--|
D|------------------11-----------12-:-----------14--------------------|
A|-----------14---------------------:---------------------------------|
E|------------------------------------------------------------------3x| C C C C
G
A
C
D
e|-15p14-15p14--15p14--15p14-15p14---15p14-15p14--15p14-17p14-15p14-19-|-^22^22^22|
B|------------------14-----------15-:----------17----------------------|----------|
G|-----------16---------------------:----------------------------------|
D|----------------------------------:----------------------------------|
A|----------------------------------:----------------------------------|
E|---------------------------------------------------------------------| C C C C D
e|-------------------------|--------------|
B|-----8-----8-----8-----8-|--------------|
G|--7-7---7-7---7-7---7-7--|-7h9p7--------|
D|-7-----7-----7-----7-----|-----9\7-5----|
A|-------------------------|--------7--5--|
E|----------------------10x|----------7---|

Simple
|-----Lick 1----------| |--------Lick 2--------|
S
S
E-----------------------|-----------------------B-----------------------|-----------------------G----------------2------|-----------------2>3---D----3---3----------3---|-----3---3-----------3-A----------0-2-3--------|-----------0-2-3-------E-1---------------------|--1--------------------F
Fmaj7
Bb
We've got it simple
Cause we've got a band
Bb
C
F
And we've got cymbals in the band
We've got it simple
Cause we've got a band
And we've got cymbals in the band
Dm
Bb
F
you)
What is a band without cymbals?

Fm

Gm7

Ooh ooh

<- (Gm7 might be a Bb. up to

cymbals are grand

We've got a saxophone


Cause we've got a band
And we've got a saxophone in the band
We've got a saxophone
Cause we've got a band
And we've got saxophone in the band
What is a band without saxophone Ooh ooh saxophone is grand
Cymbals and saxophones

Saxophones and cymbals (2x)

We've got Be-bop


Cause we've got a band
And we play Be-bop in the band
We've got skyscrapers
And it seems a pretty tune
Every band needs skyscrapers too
What is a band without skyscrapers

Ooh ooh skyscrapers is grand

Sim-Bop & Be-Bophone Sky-Balls & Sax-Scraper

Slave To The Traffic Light


Intro:
Let all the notes ring ...
P-O
H-O
P-O
E-------------------------7----------------5---------------------B--------------------0-5-5-----------0-3-3-----------------------G--------------7-6-6-----------5-4-4-----------------------------D--------------7---------------5---------------------------------A-0-------------------------0------------------------------------E----------------------------------------------------------------Next build up by drumming on the open A string, until:
D
D
D
E---0----12---10--B--10----10---10--G--11----11---11--D--12----12---12--A---0----0----0---E-----------------The Loud D chords begins the song.. those are three positions of the D
chord Trey uses.. listen to a recording for the timing information.
A > G (x4)
A
G
E----5------3-------B----5------3-------G----6------4-------D----7------5-------A-------------------E-------------------Then comes their fabulous progression:
A G D E
What makes this such a great progression, other than just the sheer
presence of that E chord, is the way they play it. Below I've listed
several ways to play each chord that I think I've heard Trey use. The
more open strings the better.
A
A
G
G
D
D
D
E
E
E
E
E---0---0----0---0---0---0---0---0---0---0----0------------B---0--10----3---8---3---7--10---0---5---9---12------------G---6---9----4---7---2---7--11---1---4---9---13------------D---7--11----5---9---0---7--12---2---6---9---14------------A---0---0----0---0---0---0---0---0---0---0----0------------E---0---0------------------------0---0---0----0-------------

After each time Trey goes through it, he hits two harmonic "chords" ,
labeled as H1 and H2.. the fourth time, he hits alternates in this order
H1 H2 H3 H2 H3 H2 H1:
H1
H2
H3
E----------------------B---(12)---(7)-----(5)-G---(12)---(7)-----(5)-D---(12)---(7)-----(5)-A----------------------E----------------------Then back to:
A > G (x4)
A
G
E----5------3-------B----5------3-------G----6------4-------D----7------5-------A-------------------E-------------------(play opening lick over this)
Slave to the Traffic Light.... Slave.... (x2)
Then that D Thing again:
D
D
D
E---0----12---10--B--10----10---10--G--11----11---11--D--12----12---12--A---0----0----0---E-----------------The chords placed here are kind of guesswork; depends on how you speak the
words:
A G A

E > D (x2)

(spoken)Seen the city, seen the zoo, traffic light won't let me through
E D E D E D
F G A (x3)
F G Em
Distortion goes on here, and Trey and the boys do a heavy metal type jam
ending on a D note:
D

... then back into Em.. ending on D again:

C > G > C D
C > G > C

Then into the


When starting
open E string
those F > G >

jam. It's essentially just the same A G D E progression.


soft, it helps to keep the open A string ringing and the
(1st string) ringing softly. The jam climaxes, ending on
A things, finally finishing on an A chord as such:

A
E----0--B----0--G----6--D----7--A----0--E----0--==Alternate Transcription==
The above tab is perfect, except for the part after the first "D Breakdown" By that I
mean the part where your pinky is on the 12th fret 1st string.
I play the first progression after that as A>G>A then a quick E>D (Another easy way to
think about it is it being A>G then A>E>D). Do that twice, then go into the A>G>D>E
progression.

Sleep
Legend
-----Intro x3

repeat as needed

E|-------------------10-----8------------------------------------------B|---3---1---0----------------6----0h1-------1-----1----3---3---1---1-0G|----------------------0-------0------0---0-----0---------------------D|---3---2---0--------9-----7------------------2--------3---2---2---2-0A|-------------------10-----8------------3-----------------------------E|-3---3---3-----------------------------------------3---3---3---3---3-

Bridge
E--------------------------3------3------3------3------B--------0h1-----1------------0-----0------0-----------G---2--------0-----0------------0-----0------0---------D-----0--------2---------------------------------------A---3--------------------------------------------------E-1-------------------2/3------------------------------Lyrics to sleep:
<Intro G>
I Can't describe the feeling when
<Verse>
I'm in my bed asleep at night
I wake up when the visions blurred
And all my efforts are detered
To reconstruct this image lost
<Bridge>
Their certain things my mind must do
and even though they're very few
The image glistens like a gem
<Verse>
Repairing is not one of them
So I'm awake though in my mind
The image thats so unrefined
is calling to me from the deep
and tempting me to fall asleep

Sleeping Monkey
Intro:
C
Am
F
E------------------------------------------------------------------B--------1----1----1-------1----1----1-----------------------------G------0-----0----0------2-----2----2----------2----2----2---------D----2------2----2-----2------2----2---------3-----3----3----------A--3-------3----2----0-------0-------------3------3----3-----------E---------------------------------3------1-------1----1------------Bb
G
E---------------3-B----3----3-----3-G---3----3------0-D--3----3-------0-A-1----0--------2-E------------3----Repeat as necessary...
C
The feeling's not the same
Am
in fact it's getting pretty tame
F
Bb
G
it's just not that great anymore
C
I guess I'll go outside
Am
and flag a weasel for a ride
F
Bb
G
'take it on down to the shore
C
Wallowing in fear
Am
the days and weeks that you're not here
F
Bb
G
is all the waiting in vain
C
The day that you arrived
Am
my sleeping monkey is revived
F
Bb
but you sent him home on the train...

[Chorus]
C
Home on the train
G
why'd you send my monkey on the train?
C
The day that you arrived
F
my sleeping monkey is revived
C
G
C
but you sent him home on the train.
The Chords that Page plays at this part are:
F
Em Dm
C
Bb Am
G
F
C
For the jam, use the Chorus chords; Trey sometimes fills the gap between
the Dm and the G with a diminished () chord:

Sneaking Sally Through The Alley


Intro:
B E D E>D>B>E E>D>B>E (explained below)
B
E
D
E D B E E D B E [Trey fills]
H-O
H-O
E----------------------------------------------------------------------B---7-----------7-----9---7------9--7--7-----9--7--7-------------------G---8-----------8-----9---7------9--7--8-----9--7--8-------------------D---9-------6-9-9-----9---7-----(9)(7)(9)-9-(9)(7)(9)-9-[9-7---7---9]--A---------9--------------------------------------------------9---------E----------------------------------------------------------------------B
E D E>D>B>E E>D>B>E
Sneakin'
Sneakin'
Sneakin'
Sneakin'

Sally
Sally
Sally
Sally

through
through
through
through

the
the
the
the

alley
alley
alley, tryin' to keep her out of sight
alley , when up pops the wife.

Well I can't find nothing wrong with


being friends 'cause sometimes she lets me use the car
If you can't find nothing wrong with
your mind, you better find something wrong with her
E
A
E
Cause I began to try to explain
D
A
E
But it just wasn't.. just wasn't what it seemed
B

E D E>D>B>E E>D>B>E
I better find somethin' to do with my time
Fact is I just been seen!

Sneakin' through the alley with Sally


.. ??
Jam
Sneakin' Sally through the alley
trying to get away clean
Sneakin' Sally through the alley
when up pops the queen.
Tryin to talk double talk, get-myself-in-trouble-talk
Catchin' myself in lies,
Catch myself in lies.
Momma just looked at me just like I was Crazy
She didn't bat an eye
Cause I began to try to explain
That it just wasn't .. just , just wasn't what it
Now I better find somethin' to do with
my time, fact is, Ohhhhhh, just been caught!
Just been caught!
Sneakin' through the alley with Sally

seemed

Split Open and Melt


This song has a basic E9 D9 Db9 chord progression in it, but Trey seems
to mainly use different dominant voices, mainly with ninths and
thirteenths.
Opening chords:
E--12-12-12-12------------------------------------------------|
B--15-15-15-15-----------14p12--14p12--12-12-----2p0----------|
G--13-13-13-13-----------14p12--14p12--10-10---------2p0------|
D--14-14-14-14-------------------------11-11-------------3/4--|
A-----------------14/------------------10-10------------------|
E-------------------------------------------------------------|
E--6-6--7-7----14-14-14-14----18/--|
B--5-5--6-6----13-13-13-13----17/--|
G--5-5--6-6----15-15-15-15----19/--|
D--4-4--5-5------------------------|
A----------------------------------|
E----------------------------------|
Dbm9
Bbdim
E----------------|
B-----------10---|
G--11p9-----9----|
D-------11--8----|
A----------------|
E----------------|
------------------------------------Dbm9
Bbdim
In the morning I pack up my gear
Dbm9
Bbdim
and toss it in my carryall
Dbm9
Bbdim
Run the wide load to the lip
Dbm9
Bbdim
and watch the big core crack and glow
Dbm9
Bbdim
Bbdim
In the evening I undo my belt
Bbdim
Split open and melt
-------------------------------------After the word melt there are a few call and answer licks
between the band, then a short whole tone run.
E---------------------------------------------------------|
B--------------------------------------------13-15----15--|
G--11p9-----------------------------11-13-15--------------|
D-------11----11p9------------12-14-----------------------|
A------------------12---13-15-----------------------------|
E---------------------------------------------------------|
Page and Trey then play a series of descending augmented chords until
the phrase "I feel it in my knees", they start ascending the chords.
Again, at welt, they hit a Bb Diminished chord.
-----------------------------------------------

I wake up on my stomach
with my face between my hands
and crawl along the floor toward the doorway
Jumping to my feet
I try to pull myself together
but I feel it in my knees
and the room begins to spin
and I slip and bump my head and raise a welt
Split open and melt
---------------------------------------------------Again, after the word melt the whole tone run lick is played again.
The chorus is just:
"Melt, split open and melt"
over the Dbm9-Bbdim progression. Halfway through, Trey and Page
start playing diminsehd/ augmented/ weird chords chromatically.
Then it goes into this composed section:
E--------18-16-------13-14----------16-14-------13-18-16B--14-18-------14-12-------11-12-14-------15-16---------G-------------------------------------------------------D7 Db7
E-14-13----18-19-18-14--14--13--|-16-18-19--|
B-------15--------------13--12--|-----------|
G-----------------------14--13--|-----------|
E------------------------------------------------------------B------------------------------------------------------------G-------19-17-------14-15----------17-15-------14-19-17-15-14D-15-19-------15-13-------12-13-15-------16-17---------------A------------------------------------------------------------E------------------------------------------------------------S
DRILL ON THESE NOTES.........
E-----------------------|-6-7-9-11-13-14-16-18-19-21-23--|
B----------------18-19--|--------------------------------|
G----19-20-19-15--------|--------------------------------|
D-16--------------------|--------------------------------|
A-----------------------|--------------------------------|
E-----------------------|--------------------------------|
Then comes the "we breath deep" part:
--------------------------------We breath
deep
E----------------------|
B------14-------13-----|
G------13-------13-----|
D------15-------15-----|
A----------------------|
E----------------------|
in a steam dream
E---------------------13-p11------------------------14-14-14------------------|
B--------12-----11----11--------11-11-----14--12-12-12-12-12-11--10---9--11---|
G--------13-----11----11--------11-11-----13--13-13-13-13-13-11--11--10--13---|
D--------15-----11-----------13-----------15--13-13-13-13-13-11--11--11--13---|
A--------------------------------------------------------------------11--13---|
E-----------------------------------------------------------------------------|
and plunge below the water line___________________
E--------------------------------------------14-14-14---------------|

B------------------------------14------12-12-12-12-12-11--10---9----|
G------------------------------13------13-13-13-13-13-11--11--10----|
D------------------------------15------13-13-13-13-13-11--11--11----|
A-------------------------------------------------------------11----|
E-------------------------------------------------------------------|
down, down, down
E---------------------|
B-----9---------------|
G----10---------------|
D----11---------------|
A----11---------------|
E---------------------|
between
beams
E----------------------|
B------14-------13-----|
G------13-------13-----|
D------15-------15-----|
A----------------------|
E----------------------|
to the gloom room
E-----------------------13-p11------------------------14-14-14------------------|
B----------12-----11----11--------11-11-----14--12-12-12-12-12-11--10---9--11---|
G----------13-----11----11--------11-11-----13--13-13-13-13-13-11--11--10--13---|
D----------15-----11-----------13-----------15--13-13-13-13-13-11--11--11--13---|
A----------------------------------------------------------------------11--13---|
E-------------------------------------------------------------------------------|
among the seaweed and the slime__________________
E-------------------------------------------14-14-14---------------|
B-----------------------------14------12-12-12-12-12-11--10---9----|
G-----------------------------13------13-13-13-13-13-11--11--10----|
D-----------------------------15------13-13-13-13-13-11--11--11----|
A------------------------------------------------------------11----|
E------------------------------------------------------------------|
down, down, down
E---------------------|
B-----9---------------|
G----10---------------|
D----11---------------|
A----11---------------|
E---------------------|
Melt
---------------------------------The second chorus is the same as before,
except with the B7 C7 turnaround every 4 times.
The jam is over the same chords
|Dbm9

Bbdim |Dbm9

Bbdim |Dbm9

Bbdim |Dbm9

B7 C7 |

After the jam, the intro is repeated once, followed by:


|B7 C7 |Dbm9
|
For a good transcription of a SOAMelt Jam, check out the Hoist Tablature
book - the end of Demand is just SOAMelt.

== Alternate Transcription ==
So the tab in the read-only section is a little off for this song that I have been
jamming the past few days. I figured I would share this with everyone. I think these
voicings are more accurate than anything else I have seen on this site.

Intro:
E--12--12------------------------------------------------------------|
B--15--15--------14-p12-14-p12---14-12---0-h2-p0--------------11-11--|
G--13--13--------14-p12-14-p12---12-12-----------2-p0---------9--9---|
D--14--14----------------------------------------------3-/4---10-10--|
A-----------14/-----------------------------------------------9--9---|
E--------------------------------------------------------------------|
E----------14-14-14-14---18--|
B--12-12---13-13-13-13---17--|
G--10-10---15-15-15-15---19--|
D--11-11---14-14-14-14---18--|
A--10-10---------------------|
E----------------------------|
The second time through, Trey plays that last Ab9 chord down an octave and then slides up
- you can hear this well on the studio version. Then I just comp on the Db9 chord with
this sort of a thing.
E--9------------|
B--9------------|
G--9---11-p9----|
D-11--------11--|
A--9------------|
E--9------------|

AND/OR

E--9--9--9--|
B--9--9--10-|
G--9-11--9--|
D-11--9--9--|
A--9--9--9--|
E--9--9--9--|

"Undo my belt . . ."


E------|
B--9---|
G--11--|
D--10--|
A--11--|
E------|

OR

E-9--|
B-9--|
G-9--|
D-8--|
A-9--|
E----|

In the second verse he just plays some descending and ascending


diminshed chords, like this:
E---------|
B-9--8--7-|
G-9--8--7-|
D-10-9--8-| etc.
A-11-10-9-|
E---------|
You can hear this well on Live Phish 9 (8.26.89)

Then the "Split Open and Melt" run . . . not sure what Page (and/or
horns) are playing, but the ascending run is a whole tone scale with a
half step at the end:
E----------------------9-10-10-|
G----------------10-12---------|
B-----------10-12--------------|
D------11-13-------------------|
A-11-13------------------------|
E------------------------------|
Here's the "We breathe deep" part

breathe

deep

steam

dream

line . . . . . .

down

E---------------------------------13-p11---------------------14-14-14------------------|
B---14-------13------12-----11----11-----11-11-----14--12-12-12-12-12-11--10---9--11---|
G---13-------13------13-----11----11-----11-11-----13--13-13-13-13-13-11--11--10--13---|
D---15-------15------15-----11---------------------15--13-13-13-13-13-11--11--11--13---|
A-----------------------------------------------------------------------------11--13---|
E--------------------------------------------------------------------------------------|
The jam is all C# minor (aka Db minor) pentatonic so the CAGED system will get you
through like a pro. Just be sure to listen to the timing for that recurring B-C-Db climb.
Luckily it's just a chromatic ascent of three half steps so just find where all the Bs
are on the fretboard and remember to throw that in when it comes around. Embellish it
with some double stops and other tricks and you'll be set.

The Squirming Coil


G
The Squirming Coil of sunset
F
I keep within my reach
C
Tried yesterday to get away
G
and hitchhiked to the beach
G
I saw Satan on the beach
F
trying to catch a ray
C
He wasn't quite the speed of light
G
and the squirming coil
Fmaj7
C
G
it got away....
It got away (4x)
Theme one of middle jam:
[switch to 7/4 time]
D
A
F6
G->Em7
Am
B
E|--------------|-9--9-|-10-------10-7-|----7-8-------|---------|
B|-7-------7-10-|------|----10-10------|-----------10-|-7-----7-|
G|---7---7------|------|---------------|-------9-9----|---------|
D|-----7--------|------|---------------|--------------|---------|
A|--------------|------|---------------|--------------|---------|
E|--------------|------|---------------|--------------|---------|
Cmaj7
Bm
Abm
Db
Gb
Ab6 Ab7
E|------------|-------4-|------|-------------|---------|
B|-8----------|-----4---|---6--|-7---------4-|-6----7--|
G|------------|---4-----|-6----|---3---3-6---|---------|
D|---10-------|-6-------|------|-----4-------|---------|
A|------------|---------|------|-------------|---------|
E|------------|---------|------|-------------|---------|
Amaj7 E/B
Cm
Csus4
C
E|-----------------|-11--|--13---|-15-13-12-------------|
B|--9---------9-12-|-----|-------|--------- 13----------|
G|----9-----9------|-----|-------|-------------12-------|
D|--------9--------|-----|-------|----------------15-14-|
A|-----------------|-----|-------|----------------------|
E|-----------------|-----|-------|----------------------|
D
G
A6 A7
E|-------------|------------|----------------|-------|
B|-------------|------------|----------------|-------|
G|-------------|------------|--------------9-|-11-12-|
D|-------------|------12----|-12-9----9-12---|-------|
A|-15-12-------|-15------15-|------10--------|-------|
E|-------15-12-|------------|----------------|-------|
BbMaj7 F/C
C/E
Ab6
Bb
Gm
E|-------------------|-12---12-|-13-------13-|-10---10-|
B|-10---------10--13-|---------|----13-13----|---------|
G|---10-----10-------|---------|-------------|---------|
D|--------10---------|---------|-------------|---------|
A|-------------------|---------|-------------|---------|

E|-------------------|---------|-------------|---------|
Cm
D
Ebmaj7 Dm
Bm
E
E|-11----------|---------|------------|-------7-|------|
B|----------13-|-10---10-|--11--------|-----7---|----9-|
G|----12-12----|---------|------------|---7-----|--9---|
D|-------------|---------|-----12-----|-9-------|------|
A|-------------|---------|------------|---------|------|
E|-------------|---------|------------|---------|------|
A
B6 B7
Cmaj7 G
Ebm
Ebsus4
E|--------------|-------|-------------------|-14--|--16---|
B|-10---------7-|-9--10-|-12----------12-15-|-----|-------|
G|----6---6-9---|-------|----12----12-------|-----|-------|
D|------7-------|-------|-------12----------|-----|-------|
A|--------------|-------|-------------------|-----|-------|
E|--------------|-------|-------------------|-----|-------|
Eb/G
Bbm
Eb
Bbm
E|-(18)*-------------------|
B|-(11)--Hold===========>--|
G|-------------------------|
D|-------------------------|
A|-------------------------|
E|-------------------------|
*Best is if you can get a harmonic to ring on the eleventh fret of the B string.
Theme 2:
Eb
Fm
B
E
A6
Gmaj7
E|----|----|----|----|----|----|----|----|----|----|-----|----|
B|-11-|----|----|----|----|----|----|----|----|----|-----|----|
G|----|-12-|-12-|-13-|-11-|----|----|----|-11-|-11-|-11--|----|
D|----|----|----|----|----|-13-|-13-|-14-|----|----|-----|-12-|
A|----|----|----|----|----|----|----|----|----|----|-----|----|
E|----|----|----|----|----|----|----|----|----|----|-----|----|
\----/
\-----/
\----------/
C
G
Ab
Bbm
E
A
E|-------------|-7-------7-10-|-11-|----|-----|----|----|----|----|
B|-5-------5-8-|---8---8------|----|-13-|-13--|-14-|-12-|----|----|
G|---5---5-----|-----7--------|----|----|-----|----|----|-13-|-13-|
D|-----5-------|--------------|----|----|-----|----|----|----|----|
A|-------------|--------------|----|----|-----|----|----|----|----|
E|-------------|--------------|----|----|-----|----|----|----|----|
\-----/
\-----/
D6
CMaj7
F
Gm6
E|----|----|----|------|----|-------------------|-12-10-------10-12-|
B|----|-12-|-12-|-12---|----|-10----------10-13-|----------11-------|
G|-14-|----|----|------|-12-|----10----10-------|-------12----------|
D|----|----|----|------|----|-------10----------|-------------------|
A|----|----|----|------|----|-------------------|-------------------|
E|----|----|----|------|----|-------------------|-------------------|
\----------/
Ebm7
Bbm7 Em7
Ddim7
G
E|-13-11----11-|-14-12-----------|-----------------|----|
B|-------11----|------12---14-10-|-9----------9-11-|-12-|
G|-------------|-----------------|---10----10------|----|
D|-------------|--------14-------|------12---------|----|
A|-------------|-----------------|-----------------|----|
E|-------------|-----------------|-----------------|----|

D+7
A
E/B B
Bb-->Fm7-->Bb->Fm7
E|------------------|-------------------|-16-|-14-|-13-|------------B|-13-11------11-13-|-14----------14-17-|----|----|----|------------G|----------11------|----14----14-------|----|----|----|------------D|-------12---------|-------14----------|----|----|----|------------A|------------------|-------------------|----|----|----|------------E|------------------|-------------------|----|----|----|------------\--------------Bb
The muscles flex the mother's ring
Fm7
She fastens children to her king
Bb
and sends him down the crooked street
Fm7
When he returns, the birth's complete
Bb
Jimmy holds the Tannis root
Fm7
The forest's tasty nectar shoot
Bb
The sun tips off the monarch's suit
Fm7
from sequined sash to shiny boot
Bbm
"I'd like to lick the coil some day
Gb
Like Iccarus, who had to pay
Ab
with melting wax and feathers brown
Bbm
He tasted it on his way down"
Stun the puppy!
Burn the whale!
Gb
Bark a scruff and go to jail!
Ab
Forge the coin and lick the stamp!
Bb
Little Jimmy's off to camp
Cm7 Ab Bbm Gb Abm
Theme 3:
D
G
C6
Bbmaj7
Eb
E|----|----|----|----|----|----|----|----|--------------|
B|-10-|----|----|----|-10-|-10-|-10-|----|-8-------8-11-|
G|----|-11-|-11-|-12-|----|----|----|-10-|---8---8------|
D|----|----|----|----|----|----|----|----|-----8--------|
A|----|----|----|----|----|----|----|----|--------------|
E|----|----|----|----|----|----|----|----|--------------|
\----/
\----------/
Fm6
Dbm7 Abm7 Dm7
Cdim7
E|-10-8------8-10-|-11-9---9-|-12-10------------|--------------|
B|---------9------|------9---|-------10----12-8-|-7--------7-9-|
G|------10--------|----------|------------------|---8----8-----|

D|----------------|----------|----------12------|-----10-------|
A|----------------|----------|------------------|--------------|
E|----------------|----------|------------------|--------------|
F
C+7
G
D/A A
B/D#
E|----|----------------|-------------------|-14-|-12-|-11-------11-14-|
B|-10-|-11-9------9-11-|-12----------12-15-|----|----|---12--12-------|
G|----|---------9------|----12----12-------|----|----|-----11---------|
D|----|------10--------|-------12----------|----|----|----------------|
A|----|----------------|-------------------|----|----|----------------|
E|----|----------------|-------------------|----|----|----------------|
Eb
E+
Ebb5
Abm7/Eb
Am9/E
E|-15-|-16-------------16-|--17--|--18-16-------16-18-|-19------17-19-|
B|----|----19----17-19----|------|-----------16-------|---17--17------|
G|----|-------17----------|------|--------16----------|-----17--------|
D|----|-------------------|------|--------------------|---------------|
A|----|-------------------|------|--------------------|---------------|
E|----|-------------------|------|--------------------|---------------|
D7
D
E|-20-|-22-|
B|----|----|
G|----|----|
D|----|----|
A|----|----|
E|----|----|
G
It

Fmaj7 C
G
got away..........It got away (repeat a few times and fade)

(Piano Jam = F C G)

Stash
INTRO RIFF
3 -3 -3
/S
E-|--------------------|------------------|-------------------B-|--------------------|------------------|---------11--------G-|-----------------12-|13--12------------|------12----13-14--D-|--------12-14-15----|-------15--14-12--|11-14--------------A-|--------------------|------------------|-------------------E-|--------------------|------------------|-------------------E-|-----------------|----------------|----------------|-----|
B-|15---------------|----------------|----------------|-----|
G-|-----------------|----------------|----------------|-----|
D-|-----------------|----------------|----------------|-----|
A-|-----------------|----------------|----------------|-----|
E-|-----------------|----------------|----------------|-----|
THEME 1 (2X)
Video Clip:
Stash: Third theme
\S /S
\S /S
E-|-----------------------|------------------|-----------------------B-|-----------------------|------------------|---15------------------G-|-----------------------|------------12-13-|14----14----12---------D-|-----12----------12-14-|15----------------|---------15-------15---A-|--12----12-11-12-------|---12-11-12-------|-----------------------E-|-----------------------|------------------|-----------------------\S /S
\S /S
3-3-3
E-|-----------------------|------------------|------------------------B-|-----------------------|------------------|---15-------------------G-|-----------------------|------------12-13-|14----14------12--------D-|-----12----------12-14-|15----------------|---------15-12--14-15-12A-|--12----12-11-12-------|---12-11-12-------|------------------------E-|-----------------------|------------------|------------------------THEME 2 (2X)
3 -3 -3

4 -4 -4 -4
H P
H P
E-|---------12-13-12----------------------12-13-12---------------------B-|---12-15----------15-14-------------------------15-14-------------15G-|14----------------------15-12-13-14-------------------15-12-13-14---D-|------------------------------------12------------------------------A-|--------------------------------------------------------------------E-|--------------------------------------------------------------------3 -3 -3

4 -4 -4 -4
H P
/S
E-|---------12-13-12--------------------------------------------------B-|---12-15----------15-14----------------------15--------------------G-|14----------------------15-12-13-14-------14----14------12---------D-|------------------------------------12-------------15-12--14-15-12-A-|-------------------------------------------------------------------E-|-------------------------------------------------------------------THEME 3

3 -3 -3 4 -4 -4 -4
E-|--------------------------------------------B-|--------------------------------------------G-|------------12----------14-12----12-13-14---D-|12-11-11-14----15-12-15-------16------------A-|--------------------------------------------E-|--------------------------------------------3 -3 -3 4 -4 -4 -4
E-|--------------------------------------------B-|--------------------------------------------G-|------------12----------14-12---------------D-|12-11-11-14----15-12-15-------16-15-14-13---A-|--------------------------------------------E-|--------------------------------------------(Single notes on piano: G# A G# A G# A A A)
3 -3 -3 4 -4 -4 -4
E-|-------------------------------------------B-|-------------------------------------------G-|------------12----------14-12----12-13-14--D-|12-11-11-14----15-12-15-------16-----------A-|-------------------------------------------E-|-------------------------------------------E-|-----------------------------------------------------------------B-|-----------------------------------------------------------------G-|15-14-13-12--14-13-12------12----------10------9-----------------D-|----------------------15-12----14-11-------12-----11-------------A-|------------------------------------12------12------12-----------E-|-------------------------------------------------------12-11-10-9E-|-------------------------------------------B-|-----------------------------------11------G-|-----------------------12-------12---------D-|-----------11----11-14----11-14------------A-|-----10-13----13---------------------------E-|9-12---------------------------------------Alternate way to play the above phrase:
E-|-------------------------------------------B-|-----------------------------------11------G-|-----------------------12-------12---------D-|-----------------11-14----11-14------------A-|-----10-13-10-13---------------------------E-|9-12---------------------------------------Stash(rest of the theme)
ALTERNATE way to play

THEME 1 (2X)

\S /S
\S /S
P
E-|-----------------------|------------------|---10-------------------B-|-----------------------|-------------8---9|10----10--6--8-----6----G-|------7-----------7---9|--10--------------|------------------------D-|---7-----7--6--7----7--|7----7--6--7---7--|------------------------A-|-----------------------|------------------|------------------------E-|-----------------------|------------------|-------------------------

\S /S
\S /S
3-3-3
E-|-----------------------|------------------|---10-------------------B-|-----------------------|-------------8---9|10----10--6---8-6-------G-|------7-----------7---9|--10--------------|------------7-----7-----D-|---7-----7--6--7----7--|7----7--6--7---7--|------------------------A-|-----------------------|------------------|------------------------E-|-----------------------|------------------|----------------------------------------------------------------------------other part:
Verse Riff:
finger plucked (this is basic, expand on it)
E-|---------------------|
B-|-8-8-8-8-8-6-6-6-6-6-|
G-|-7-7-7-7-7-5-5-5-5-5-|
D-|---------------------|
A-|-7-7-7-7-7-5-5-5-5-5-|
E-|---------------------|
pulling the pavement from under my nails
I brush past a garden, dependant on whales
the sloping companion I cast down the ash
yanked on my tunic and dangled my stash
zippping through the forest with the curdling fleas
to grow with them spindles, the mutant I sieze
I capture the dread beast who falls to his knees
and cries to his cohorts, asleep in the trees..
Play twice. move to awesome guitar solo..
2-2
2-2
2-2 V
E-|-----------------------------------------------------B-|-----------------------------------------------------G-|-----------------------------------------------------D-|-----7--6-7---------7--6-7----------7--6-7-----------A-|-8-7---------7--5-5----------8--7-7---------7--5-(5)-E-|------------------------------------------------------

Stealing Time From The Faulty Plan


e------------------------------------------------------------------------------B--15b1717-17-17-17-17---17r15---15po13---15b17-------------------13--15--15--G------------------------------------------------------14--14-14---------------D------------------------------------------------------------------------------A------------------------------------------------------------------------------E------------------------------------------------------------------------------Am
Dm
Am
Dm
I got a blank space where my mind should be, got a cliff bar and some cold green tea.
Am
Dm
Am
Dm
Got clouds that seem to follow me, got strange demands all up on me
E/G#
D
E/G#
D
E/G#
D
(little end of intro noodle here)
Got memories, got memories, got memories, memories of being free
Gonna steal time from the faulty plan, gonna act as though Im still a man.
Gonna give you one last chance to see, gonna shrug demands off of me
Gonna dream, gonna dream, gonna dream, gonna dream, dream of being free
(repeat intro-type riff)
E/G#
Gonna steal time from the
E/G#
Gonna steal time from the

D
faulty plan, steal time from the faulty plan
D
faulty plan, stealing time from the faulty plan

(Play this over the lyrics below)


e-----------------------------------------------------------------15b17--B--15b17---17---17---17---17---17----------------------------------------G--------------------------------------------14--14----------------------D------------------------------------------------------------------------A------------------------------------------------------------------------E------------------------------------------------------------------------Am
Got
Got
Got
Got

a
a
a
a

blank
blank
blank
blank

space
space
space
space

where
where
where
where

my
my
my
my

E/G#
Gonna steal time from the
E/G#
Gonna steal time from the
Am
Gotta
Gotta
Gotta
Gotta

blank
blank
blank
blank

space
space
space
space

Chord formations:
E/G#
e x
B 9
G 9
D 9
A 11
E x

C/E
e x
B 5
G 5
D 5
A 7
E x

where
where
where
where

my
my
my
my

C/E
mind
mind
mind
mind

should
should
should
should

be
be
be
be

D
faulty plan, steal time from the faulty plan
D
faulty plan, stealing time from the faulty plan
C/E
mind
mind
mind
mind

should
should
should
should

be
be
be
be

Steam
Main Riff
Gm
Gm
E-----------------------B-----------------------G------------5--3-------D-----5-----5----- or --5---5
A----------5----------5--3--1
E---3----3--------3--3-C
E----------------B----------------G-----5-----5---3D---------5------A---3---3--------E--------------Fm
E-------------B--------------G-----------3--1
D----3----3
A--------3-E---1--1Gm
there is the tower
like a solitary flower
standing in the snow
as the wolves all wait below
C
and you're walking on the ledge
throwing bread crusts off the edge
Gm
as you sing in voice so clear
and my name I think I hear
Fm
concealed within the theme
C
then it disappears as
Gm
steam
and I'm standing far below
watching wolves you seem to know
as your voice still carries on
in your never-ending song
and my blood begins to boil
and my bones melt into oil
hissing liquid in the snow
as my body sinks below
and a ripple sends a beam
of sunlight dancing through the steam
my now unfettered soul
has direction I control
to your tower I draw near
but do I see a trace of fear?
the approaching sound of hooves
now scatters all the wolves

you briefly watch the horseman ride


then you quickly run inside
the rider's weapons gleam
while the horse's nostrils steam
there's no time to reflect, who
is this man? I must protect you
in the rider's hand I see
he holds your prison's only key
he glances up and glares
and then he starts to climb the stairs
I can tell you're terrified
so I quickly go inside
but then I hear a fateful scream
and your soul joins mine as
Eb
steam
Dm or Dadd9

Jam

we escaped the dreadful night


and as lovers soared in flight
blissful weeks turned into seasons
but one day without a reason
or goodbye you flew below
back to the animals you know
now you forever sing your song
with the wolves where you belong
now quite alone I often dream
I hear you singing through the steam

Strange Design
B
Em
I'm needing

G
less restraint before
B
Em
I'm needing

D
D

G
to hit the lights and close the door
D
Em
C D
I'm fine, I'm fine, 'cause I'm...
Chorus:
G
Am
Dripping in a strange design
Bm
C
none is yours and far less mine
G
Am
hold the wheel, read the sign
Bm
C
keep the tires off the line
G
Am
just relax you're doing fine
Bm
C
swimming in this real thing
Am
A
I call a life, but can I bring
C
D
G
a few companions on this ride?
[Second verse, same chords as before:]
I'm feeling my heart's not beating anymore
I'm feeling it's all right this happened once before
I'm fine, I'm fine, 'cause I'm...
[Back to the chorus]

Suzy Greenberg
Verse 1:
D
C
G
Little Suzie Greenberg with her head caved in
D
C
G
Soon will let me drown beneath the undertow
D
C
G
You better put that woman in a loony bin
D
C
G
'Cause you know I'd really like to be a part of her show
C
A
D
Suzie is an artist, she paints quite a lot
C
A
D
An artist she may be, but a genius she is not
C
A
D
She says she wants to be a Sociologist
C
A
G
But she better first get checked by a neurologist
Chorus:
D
Suzie, Suzie, Suzie, Suzie,
C
G
Suzie, Suzie Greenberg
Guitar Solo
Am x8 Bars
Piano Solo
|D C |G

| x4

Verse 2:
Suzie's 'bout as faithful
As a slot machine
Pays off once in a while
But then she'll rob you clean
She's always afraid
That she's not sure what she's worth
She's out of her mind
And she's not of this earth
The woman walks the streets
Like she's the queen of the town
Doesn't talk very much
She's very profound
Little Suzie Greenberg
Always playing the game
But today I'll bet she's probably
Forgotten my name
[Chrous]
Guitar Solo:
Am x However many bars you want
Piano Lead Jam:
|D C |G
|

x However many times you want

[Verse 1]
[Chorus]
End on:
D
Suzie, Suzie, Suzie, Suzie
C
G
Suzie, Suzie, Greenberg

Swept Away
G

Am7
Much ado is all I seek

Am7
And I feel like it's surrounding me
G
The crowd intrudes all day
Fadd9
C
G
Til I'm finally swept awaaaaaaaaaaayyyy [repeat last line]
G

E
B
G
D
A
E

3
0
0
0
2
3

Am7
3
1
0
2
0

Fadd9
3
1
2
3

C
3
1
0
2
3

== 02/16/1997 Live Version ==

intro
Verse
F
F
Eb/Bb Eb Bb/G F
e|---------------:-------------------------------------------------------|
B|---1-------1---:----1-------1-------------4---4---3----1------1-----1--|
G|---2-------2---:----2-------2-------------3---3---3----2------2-----2--|
D|---3-------3---:----3-------3-------------1--1----3----3------3-----3--|
A|--(3)-----(3)--:---(3)-----(3)------1~~~--------------(3)----(3)----(3)|
E|-1-------1-----:--1-------1----------------------3----1-----1-----1----|
Much ado is all I seek
F
Bb
Bb/A
F
e|----------------------------------------------------------------------------|
B|---1-----1-----1-----1------3----3----3----3----3----3----3----3----1-----1-|
G|---2-----2-----2-----2------3----3----3----3----3----3----3----3----2-----2-|
D|---3-----3-----3-----3------3----3----3----3----3----3----3----3----3-----3-|
A|--(3)---(3)---(3)---(3)---1----1----1----1----0----0----0----0-----(3)---(3)|
E|-1-----1-----1-----1----------------------------------------------1-----1---|
And I feel like it's surrounding me
The crowd intrudes all day
chorus
e|----------------------------------------------------------------------------|
B|------------------------4----4----3----3----1----1----1----1----------------|
G|------------------------3----3----3----3----2----2----2----2----------------|
D|------------------------1----1----3----3----3----3----3----3----------------|
A|----------------------1----1----1----1-----(3)--(3)--(3)--(3)---------------|
E|------------------------------------------1----1----1----1------------------|
Til I'm finally swept awaaaaaaaaaaayyyy

Talk
Intro:
Verse:
(rake with pick) (chromatic voice-leading)
E-x-------|
B-x-1-----|
G-0----0--|
D-2-----2-|
A-2-------|
E-3-------|

Last 3 verse chords


(1:02 / 2:16)

E-0--x--x--x--x--x--x--x-|
B-1--1--1--1--1--x--x--x-|
G-0--4--3--2--1--5--5--5-|
D-2--2--2--2--2--5--4--3-|
A-3--3--3--3--3--3--3--3-|
E-0--x--x--x--x--3--3--3-|

E-0--x--x--x--|
G-1--5--5--5--|
B-0--5--5--5--|
D-2--6--5--4--|
A-3--7--7--x--|
E-0--x--x--x--|

Interlude: starts at 1:06 and 2:20


1:11
[1st ending]
[2nd ending-1:21]
E-x-x-x-x--0-0-[s]-x-x-x-x-x--x-[s]-x-x-x-x-x-x--3-| ]--x------x-x--x-x-|
B-1-1-1-1--1-3-[t]-0-0-0-0-1--1-[t]-0-0-0-0-1-1--3-| ]--x---1--4-4--2-2-|
G-0-0-0-0--0-0-[r]-0-0-0-0-0--2-[r]-0-0-0-0-0-2--0-|.]----2----5-5--3-3-|
D-2-2-2-2--2-2-[u]-2-2-2-2-2--3-[u]-2-2-2-2-2-3--0-|.]--3------6-6--4-4-|
A-3-3-3-3--3-3-[m]-3-3-3-3-0--0-[m]-3-3-3-3-0-0--2-| ]--x------x-x--x-x-|
E-0-0-0-0--0-x-[x]-x-x-x-x-x--x-[x]-x-x-x-x-x-x--3-| ]--x------x-x--x-x-|
Then the song ends on this augmented chord:
E-4-|
B-5-|
G-5-|
D-6-|
A-x-|
E-x-|

I can't talk my talk with you


Nothing's ever soaking through
The filter that surrounds your thoughts
And holds out lessons left untaught
I can't talk my talk with you
Nothing's ever soaking through
The filter that surrounds your thoughts
And holds out lessons left untaught
I can't talk my talk with you
I can't sing my song with you
Nothing's ever soaking through
The filter that surrounds your thoughts
And holds out lessons left untaught
I can't sing this song with you
Nothing's ever soaking through
The filter that surrounds your thoughts
And holds out lessons left untaught
I can't sing my song with you
I can't talk my talk with you

Taste
This is in 3/4
Intro:
|:
:|
|:
:|
E-------0----------- or E-------------------B-----3---3--------B-------5-----------G---2-------2------G-----7---7---------D-0----------------D---7-------7-------A------------------A-5-----------------E------------------E-------------------Lick 1:
h h
E----0-----0-----------------------------------B---3-3---3-3----------------------------------G--2---2-2---2---------------------------------D-0-----0------------0-----0-------0-----0-----A-------------------0--3-----2-----------------E--------------0-1-3-----------------3------1--Lick 2:
E----0-----0-----0-----0---B---3-3---3-3---3-3---3-3--G--2---2-2---2-5---5-4---4-D-0-----0-----0-----0-----0A--------------------------E--------------------------(Lick 1)
I'm up and I can take what you give and I'm here
(Lick 2)
but I don't want you to live with me
(Lick 1)
'cause all I want is a taste for free
I'm down and I will drag you along and around
until you burst into song and unwind
and leave your new life behind for a while
E----0-----0-----0------0-----0---------B---2-2---2-2---3-3----3-3---3-3--------G--2---2-2---2-0---0--0---0-2---2-------D-2-----2-----0------------0-----0....--A--------------------3------------------E---------------------------------------'cause I can see
through the lines (x2)
*- play lick 3
I'm down and I will drag you along and around
until you burst into song and unwind
* - play lick 3
and leave your new life behind for a while
E-----------------------------0------0--------B-----------------------5-7-7---7---7-7-------G-----------------4-5-7----------7-7---7-...--D-----------4-5-7-----------------0-----0-----A-----3-5-7-----------------------------------E-5-7------------------------------------------

(same as above)
I'm out and I will stay here alone and without
someone controlled by the phone and TV
cause what it's doing to me is fine
A
F#m7 G
C
D
Bm7 G
E/G#
A F#/A# G/B C
E----------------------------7---------------------------------B---2----2----3----5----7----7----8----9----10---11----12---13-G---2----2----4----5----7----7----7----9-----9---11----12---12-D---2----4----5----5----7----7----9----9----11---11----12---14-A--------------------------------10----7----12----9----10---15-E--------------------------------------------------------------A F#m7
Cause I
A
I

F#/A#

G
C
D
Bm7
can see through the lines

G/B
can see

E/G#

C
* - go back to intro lick
through the lines

D
C/D
G/D
E---5------5-----5---------B---7------5-----8---------G---7------5-----7---------D--------------------------A--------------------------E--------------------------D
C/D
OOOoo

G/D

D
C/D
step into space

G/D
D
C/D
Alter my place
G/D
D
C/D
That someone else made
why I have stayed
into things I could be
or if I could see
into fog that surrounds
and pins me to the ground
I can see through the lines
Chords progression underlying lyrics and the rest of the jam:
A

F#m

Bm7

F#

Bm G

and the end... three of the Dadd9 chords from the intro riff ..
and the closeout..
p
s
s
s
E-12-10-------------------------B-------10----------------------G----------9-7------------------D--------------7----------------A----------------7-5---7-5---5--E--------------------5-----5-----

Tela
Emsus4
A6
G6
G
D/F#
Dm/F
e----7----------5---------------0---0--------------------------------------------B----8----------7------------7------5------------5----------3---------3---------3G----9----------6---------6---------4--------4----------4----------2---------2---D----7----------7------7------------5-----5---------5----------4----------3------A----7----------0---0---------------0--------------------------------------------E--------------------------------------------------------------------------------A
Am Repeat 1x
-------------------------------------------|
----2-------------(1)----------------------|
----2-------------(2)----------------------|
----2-------------(2)----------------------|
-------------------------------------------|
-------------------------------------------|
This is how they play it live:
Emsus4
A6
G6
G
D/F#
Dm/F
e----0----------0---------------0---0--------------------------------------------B----8----------7------------7------5------------5----------3---------3---------3G----7----------6---------6---------4--------4----------4----------2---------2---D----9----------7------7------------5-----5---------5----------4----------3------A----0----------0---0---------------0--------------------------------------------E--------------------------------------------------------------------------------A
Am Repeat 1x
-------------------------------------------|
----2-------------(1)----------------------|
----2-------------(2)----------------------|
----2-------------(2)----------------------|
-------------------------------------------|
-------------------------------------------|
(repeats)
Em
Bm7
Em7b5 C
The sky is burning in this lonely land
G
Am
Bm
Bbm
Am
and I kneel by the river and I feel the sand and the wind
C
G
D Dm
A
Am
The wind from beyond the mountains
C
G
D Dm
A
Am
The wind from beyond the mountains

(play latter part of intro)

Em
Bm7
Em7b5 C
And she comes to me in this lonely land
G
Am
Bm
Bbm
Am
And looks down from the multi-beast on which she rides- like the wind
The wind from beyond

the mountains

E-----------------------------------------------B-----5---3-----3----3----2---------------------G----4---4-----2----2-----2---------------------D---5---5-----4----3------2---------------------A-----------------------------------------------E------------------------------------------------

Instrumental Break #1
A
G Gm
F#m Em
G
A7
D/F#
H-O P-O
HO PO
E-9---9---9--11--9-7--6--6-8-6--5----3---------7--0----2--B-10--10--10-------8--8--8------7----5-------8----2----3--G-9---9---9--------7--7--7------6----4-----7------0----2--D-0---0---0--------0--0--0------0----0---0--------2----4--A---------------------------------------------------------E---------------------------------------------------------repeat, the second time changing the D/F# to D9/A
D9/A
---0----3-MIKE
---2-G--------------------------------0-D-----5--3-------------------------0-A-----------3--5---------------------E------------------------------

1988/3/12:
TREY
E-----s10--10--10--10--------------B-----s--10--10--10----------------G-----------------------------------

This segment is not played during concerts, but is included on older versions of Tela:
G Bb D(/A) Eb F 4x
G
Bb D
Eb
F
Tela was born in a vulgar crooked hut
In the shadow of Wilson's castle
G
Bb D
Eb
F
Venomous scorn from a life of bitter toil
In the shadow of Wilson's castle
G
Bb D
Eb
F
Glory esteem fueled by her hatred it grew
Swelling to the point where it would
Burst at the seems there was nothing she could do
(No chord,)
"Tela Tela jewel of Wilson's foul domain
Tela Tela jewel of Wilson's foul domain"
A lullaby the breezes whisper

Em
Bm7
Em7b5
C
G
As I look into her eyes my frozen heart begins to thaw
Am
Bm
Bbm
Am
And burns till layer after layer melts away into a pool
C
G
D Dm
A
Am
A sky blue mirror of her eyes
C
G
D Dm
A
Am
Em
Bm7
Em7b5
C
And my soul is made of marble but in her gaze
G
Am
Bm
Bbm
Am
I crumble into dust and drift away on the wind

The Wind from beyond the mountains


The wind from beyond the mountains
Jazz Solo:
E-----9-12-------9--------------9------------------|
B--10-------9>10-----9--7>6--7-----7---7---9---6>7-|
G--------------------------------------------------|
D--------------------------------------------------|
A--------------------------------------------------|
E--------------------------------------------------|

E-------------10-13-10----10-13>14~~~~~~~~-|---12-9------|-------------12>14-----|
B-----9----12----------12------------------|--------10---|----------10-----------|
G--10--------------------------------------|-----------9-|------9-11-------------|
D------------------------------------------|-------------|-9>11------------------|
A------------------------------------------|-------------|-----------------------|
E------------------------------------------|-------------|-----------------------|
E--------12-16~~~~~--12-16-15~~~~|-15--14>15--|-13-10----------------7--9|
B--12>14----------14-------------|------------|-------12-----------7-----|
G--------------------------------|------------|----------10>9-7--7-------|
D--------------------------------|------------|--------------------------|
A--------------------------------|------------|--------------------------|
E--------------------------------|------------|--------------------------|
E-12------|--------------------------B----10---|-10>9-10>9-7>8-7-6-5-4----G-------9-|--------------------------D---------|-----------------------4~~~
A---------|--------------------------E---------|--------------------------E|----------------------------------------------------|
B|--9>10-9>10-9-7---7-9-10-9-8-7-5-4------------------|
G|----------------9------------------4-------------4--|
D|-------------------------------------4>3-2>1-2>1-4--|
A|----------------------------------------------------|
E|----------------------------------------------------|

Then Page's solo...


D
Tela,
D
Tela,

G
Bm
F#m
Tela, jewel of wilsons
G
Bm
F#m
Tela, jewel of wilsons

C
G-A
foul domain.
C
G-A
foul domain.

Terrapin Station
Originally performed by the Grateful Dead
Music by: Jerry Garcia
Words by Robert Hunter
Intro:
E------------------------------------------------------------B-----------12/10---13-13--12-13--------------12/10----------G--------12---------10-x---10-10-----------12----------------D--10/12------------10-x----x-10-----10/12-------------------A------------------------------------------------------------E------------------------------------------------------------E-----------10-B--------------G--------12----D--10-12-------A--------------E--------------G
Dm
Let my inspiration flow in
C
G
F
token rhyme suggesting rhythm
C
that will not for sake me till
F
C
F
C
tale is told and done

Am9 Dm9

Lady With A Fan Ending


e|-*--------------B|----1-----6-5---G|---------5---4-5D|--2-----7-------A|-3-----8--------E|----------------G
Dm
While the fire lights a glow,
C
G
F
strange shadows from the flames will grow
C
F
till things we've never seen will seem familiar
Shadows of a sailor, forming
winds both foul and fair, all swarm
down in Carlisle, he loved a lady
many years ago
Here besides him stands a man,
a soldier from the looks of him,
who came through any fights, but lost at love
While the storyteller speaks,
a door within the fire creaks;
suddenly flies open, and
a girl is standing there
Eyes a light, with glowing hair,
all that fancy paints as fair,
she take her fan and throws it in the lion's den

Which of you to gain me, tell, will


risk uncertain pains of hell?
I will not forgive you
if you will not take the chance
The sail or gave at least a try;
the soldier, being much too wise,
strategy was his strength, and not disaster
First Solo (melody line) Terrapin Station
PO
H
E------------------------------12-13-15-12---------------------------B-12-12-13-12---12-13-15----15-------------15-13-12------12--------12G------------14------------------------------------14-12---14-12-14--D--------------------------------------------------------------------A--------------------------------------------------------------------E--------------------------------------------------------------------H

:|

-----------------------------------------13--15-12-13------------|
---------------------12-----------13---13--------------15-12-13--|
14-12---------12-14----14-12---12----14--------------------------|
------14-12-14--------------14-----------------------------------|
-----------------------------------------------------------------|
-----------------------------------------------------------------|
Repeat up to the :| and then play the following twice:
PO
E----------------------12--|
B--13-12-----12-13-15------|
G--------14----------------|
D--------------------------|
A--------------------------|
E--------------------------|
The sailor, coming out again, the
lady fairly leapt at him. That's
how it stands today. You
decide if he was wise.
The storyteller makes no choice.
Soon you willnot hear his voice.
His job is to share the light, and not to master.
This guitar solo should starts as you play the F at the last "master"
F
|:
x5
:|
3-3-3
3-3-3
E-------8-7----7---8---10--12--------------------------B--10-------10-----10--12--13----8--5------------------G--10--------------10--12--14---------5----7--5--------D--10----------------------15----5------7-------5----5-A-------------------------------------------------7----E------------------------------------------------------F

B
|--let it rings
E--7--8--13--12---7--8--10--7--8--10--7-------------B--6--8------13---6--8--10--6--8--10--7-------------G--7--9--14-------7--9--10--7--9--10--8-------------D---------------------------------------------------A---------------------------------------------------E----------------------------------------------------

Em
H
E--7--8--10--7--8--10--------------15------------B----------------------12----15-17----17-15-17-17G--8--9--11--8--9--11--12------------------------D------------------------------------------------A------------------------------------------------E------------------------------------------------C7
E------------17-15--------------15-17--18-17----15B-12-13-15---------17-----16-17--------19----17---G-12-14-16---16-------16------------------------15D-12----------------------------------------------A-------------------------------------------------E-------------------------------------------------E---------------------------------12--10-------------------17--15----B-12-10------------------12-11-13--------8--------15-16-17-----------G-------12--------14-12--------------------11-10------------------15-D----------13--14----------------------------------------------------A--------------------------------------------------------------------E--------------------------------------------------------------------Fmaj7
Since the end is never told,
C9
we paid the teller off in gold
Fmaj7
in hopes he will come back, but he can not
E
be bought or sold.
A little fill
H
E---------B---------G--9--10--D---------A--11-----E---------E

several times

A
A7
D
Inspiration, move me brightly

E
Light the song with sense and color;
A
E
A
E
hold away despair. More than this will not ask.
C#m/G#
Gmaj7
D/F# Dmaj7
Faced with myst'ries dark and vast,
E
A
D
D#m7-5
statements just seem vain at last.
E
some rise,
E
some fall,
E
some climb
A
to get to Terrapin.

E
A
E
Counting stars by candlelight,
C#m
D
all are dim, but one is bright:
E
the spiral light of Venus, rising
A
first and shining best,
E
A
E
oh, from the northwest corner of a
C#m/G# Gmaj7
D/F# Dmaj7
brandnew crescent moon
E
A
D D#m7-5
while crickets and cicadas sing
E
a rare and different tune,
D
A
Terrapin Station.
Bm
D/A
E
In the shadow of the moon,
D
A
Terrapin Station.
D
E
And I know we'll be there soon.
E
(Terrapin)
E
(Terrapin)
E
(Terrapin)
E
(Terrapin)
D
Terrapin.

I can't figure out


if it's end or beginning
but the train's put its brakes on
and the whistle is screaming

H
E----------------B----------------G-----7-7-9----7-D--10-------10---A----------------E----------------H
E---------------------------------------B---------------------------------------G-9-7------7----------------------------D-----10-----10-9---9-10-9-----7--9--7--A---------------------------10----------E---------------------------------------Am

E|-0--0--0---3--3--3---0--0--0---3--3--3---2--2-------------B|-1--1--1---0--0--0---1--1--1---0--0--0---3--3--1/3-5-3/1/3G|-2--2--2---0--0--0---0--0--0---0--0--0---2--2-------------D|-2--2--2---0--0--0---2--2--2---0--0--0---0--0-------------A|-0--0--0-------------3--3--3------------------------------E|-----------3--3--3-------------3--3--3---------------------

And again
H
E---------------------------------------B---------------------------------------G-9-7------7----------------------------D-----10-----10-9---9-10-9-----7--9--7--A---------------------------10----------E---------------------------------------E

Eb D

E----------------------------7--6--5---B----------------------------9--8--7---G----------------------------9--8--7---D------9--7------------------9--8--7---A-7-10------9-----7--9-7-----7--6--5---E-------------10------------------------And repeat the above parts several times and


finally ends with E Eb D
Ending "Terrapin" section
The above section is repeated three times, then moved up a few steps to this,
and there is an ascending arpeggio to get to this key that I haven't figured out yet.
H
E--------------------B--------------------G-----14-14-16----14-D--17----------17----A--------------------E--------------------H
E---------------------------------------B---------------------------------------G-16-14-----14--------------------------D-------17-----17-16--17-16-----12/14---A---------------------------17----------E---------------------------------------Repeat the second half of the original riff, with the E Eb D chords
Trey does this once:
E-------------------------------------------------------B-------------------------------------------------------G--------------------12---------------------------------D--/14-14-14-14-12------16-14--16-14-12--14-12----12/14-A----------------------------------------------15-------E-------------------------------------------------------It seems the Grateful Dead play the original riff an octave up instead of this section,
but I'm going mainly off of what I hear from Trey.
Repeat the second half of the original riff again, ending on E Eb D.

The Inlaw Josie Wales


Intro
D--0---------------------------------------------A-------------0-------0----------0----------0----F------------------------------------------------C--4/6---7--------7---------7----------7---------G------7--(7)---7--(7)----7---(7)----7---(7)----7D-------------------------------------------------

x4

The notes in parenthesis are played very lightly, and are optional when first
learning the song.
"Verse" 1
D----12----9---10---7---5---5---3---2--A----12----10--10---8---5---5---3---3--F----13----9---11---7---6---5---4---2--C--------------------------------------G--------------------------------------D--0----0----0----0---0---0---0---0---0/harmonic
0:21
D---0-------------------------------<5>------------A---1--------1-------------0--------<5>------------F--------2---------------2-------------------------C---0--0---0-----------2------------------2---2---2G--------------------0-----------------------------D-----------------------------3-2-0-----0---0---0--/harmonic
D-----------------------------------<7>A-----4----4----5-------------------<7>F-----4----4----4--4p2-4-4-------------C-----4----4---------------------------G--2-----2----2--------------------7---D---------------------------3/--0------0:32
D------------------------------0----------------------A-----4----4-------5---4-----4---5p0--------0-------0-0
F-----4------4-----4---4------------------1-----1h2---C-----4--------4------------------------2-----2-------G--2-----2-------2---2---2----------------------------D-----------------------------------------------------/harmonic
D------------------------------------<7>A-----4----4-------5---4-------------<7>F-----4------4-----4---4----------------x2
C-----4--------4------------------------G--2-----2-------2---2---2---------7----D---------------------------3/--0-------"Verse" 2
0:44
D---12---11---14----12-----11-------11----11--------11--A---12---12---16----12--------0--------0-----0---------0F---13---11---------13----------8--------------8--------C--------------------------------------------------------

G-------------------------------------------------------D-0----0----0----0-----0---7------7-------7-------7-----0:49
D----16---14---17---16-----11-------11----11--------11--A----17---16---19---17--------0--------0-----0---------0F-------------------------------8--------------8--------C-------------------------------------------------------G-------------------------------------------------------D--0----0----0----0----0---7------7--------7-------7----0:55
/harmonic
D--------------------------------<5>---------A--2--------------5---2----------<5>---------F--2-2-----2------2---2----------------------C------2-----2----------------2---------2---2G--0-----0-----0----0---0--------------------D-------------------------3/0---------0---0--1:05
D-----------------------------0---------------------0--0A--2--------------5---2-----4---5p4p0------0------0-----F--2-2-----2------2---2------------------1------2-------C------2-----2-------------------------2------2---------G--0-----0-----0----0---0-------------------------------D------------------------------------------------------0"Verse" 3
D----12----11----14----12-----10---12--9---11--8---10--7A----12----12----16----12-----10-------9-------8-------7F----13----11-------------------------------------------C-------------------------------------------------------G-------------------------------------------------------D--0----0-----0-----0-----0---10-------9-------8-------71:16 (same as Intro)
D--0---------------------------------------------A-------------0-------0----------0----------0----F------------------------------------------------C--4/6---7--------7---------7----------7---------G------7--(7)---7--(7)----7---(7)----7---(7)----7D-------------------------------------------------

x2

"Verse" 4
1:21
D----16---14---17--16--12--12--14---11---11--12---9----9---11--A----17---16---19--17--14--14--16---12---12--14---10---10--12--F------------------------------------------------------------C------------------------------------------------------------G------------------------------------------------------------D--0----0----0----0---0---0-------0----0--------0----0-------01:31
D--7---7--9-----5---5--7---4--A--9---9--10----7---7--9---5--F-----------------------------C-----------------------------G-----------------------------D----0--------0---0------0---0Immediately following this, starting at 1:31, is a slow progression
down from G to D/F# to F to E (in reality, with the detuned guitar, the

chords are F, C/E, Eb, then D, but I just call them by their usual
positions on the guitar neck). Use the typical open chords with a simple
folksy comp on each (If you have gotten this far, you should know what all
that means). Listen to the cd to understand what I mean. When you get
to E, instead of comping on typical open-E, substitute the intro, then:
1:55
D------------------12-A-------------12---12-F---------13--13------C-----14--14----------G-----14--------------D--0------------------"Verse" 5
1:56
D---------------A---2h3---0--2--F---2-----2--2--C---------------- x4
G---0---0------0D---------------/harmonic
D------------------------------------<7>A-----4----4-------5---4-------------<7>F-----4------4-----4---4----------------C-----4--------4------------------------G--2-----2-------2---2---2---------7----D---------------------------3/--0-------D------------------------------0--------------------0-0A-----4----4-------5---4-----4---5p4p0------0-----0----F-----4------4-----4---4------------------1-----2------C-----4--------4------------------------2-----2--------G--2-----2-------2---2---2-----------------------------D-----------------------------------------------------02:23
/harmonic
D------------------------------------<7>A-----4----4-------5---4-------------<7>F-----4------4-----4---4----------------x2
C-----4--------4------------------------G--2-----2-------2---2---2---------7----D---------------------------3/--0-------"Outro"
D----12----9---10---7---5---5---3---2--A----12----10--10---8---5---5---3---3--F----13----9---11---7---6---5---4---2--C--------------------------------------G--------------------------------------D--0----0----0----0---0---0---0---0---02:35 -- end of song
D---0---------0--------------------A---1--1--------1----------0-------F--------2---------------2---------C---0------0-----------2-----------G--------------------0-------------D-----------------------------3-2-0-

The Line
Bb
Ab
Bb
Dry mouth, push it out, I can hear my heart pound, a hero's what I'm not
Bb
Ab
Bb
Voices scream, flashes flare, frozen as the people stare, my crucifixion shot
Bb
Ab
Bb
Friends were electric on the western side while triangles were shifting on the floor
Bb
Ab
Bb
Squeezing out the breath that I don't have, they're quiet now, they only want two more
Cm

Eb
And you step to the
Gm
F
And you step to the

Bb
line
Ab
line

Eb

Bb
Ab
Every shot I've taken has led me to this moment since I was four feet
Bb
Ab
Big D is watching, I remember what he taught me, don't let em see you
Cm

Eb
And you step to the
Gm
F
And you step to the

Bb
line
Ab
line

Bb
high
Bb
cry

Eb

Bb
Eb
Try to see your future from the line
Gm
And you're clinging to the notion you'll
Ab
But the circle's getting smaller all the
Bb
Eb
Try to see your future from the line
Gm
And you're clinging to the notion you'll
Ab
But the circle's getting smaller all the

F
be fine
Eb
Ab
time
F
be fine
Eb
Ab
time

Bb

Bb

Bb
Ab
Bb
Dry mouth, push it out, I can hear my heart pound, a hero's what I'm not
Bb
Ab
Bb
Voices scream, flashes flare, frozen as the people stare, my crucifixion shot
Cm

Eb
And you step to the
Gm
F
And you step to the

Bb
line
Ab
line

Eb

Bb
Eb
Try to see your future from the line
Gm
And you're clinging to the notion you'll
Ab
But the circle's getting smaller all the
Bb
Eb
Try to see your future from the line
Gm
And you're clinging to the notion you'll
Ab
But the circle's getting smaller all the

F
be fine
Eb
Ab
time
F
be fine
Eb
Ab
time

Bb

Bb

The Wedge
Main riff
A
E|----------------|------------------------|
B|----------------|------------------------|
G|--2---2-2---2---|2-2-0-0---0-------------|
D|----------------|------------4-4-4-3-3-2-|
A|0---------0---0-|------------------------|
E|----------------|------------------------|
Fill riff 1
E|------------------|
B|------------------|
G|--2---2-0-0-0-----|
D|--------------4-2-|
A|0-----------------|
E|------------------|

Fill riff 2
H-O
H-O
E|--------------------|
B|7---5-----7---5-----|
G|7---5-6---7---5-6---|
D|7---5-----7---5-----|
A|--------------------|
E|--------------------|

--------[fade in drums]
[Main riff - 4x, verse 1
A

G
We're bobbing on the surface
D
A
And the shadow glides below
They say she feels my heartbeat
D
A
Oh, but how, I'll never know

[repeat verse]
G

D
A
That it's the ocean flowing in our veins
G
D
A
Oh, that it's the salt that's in our tears
G
D
A
Oh, 'cause we could have come so very far
G
D
E
Oh, in at least as many years
D
C
A
[fill riff 1, 2x]
Take the highway through the great divide
D
C
E
Take the highway through the great divide
A

G
I'm building you a pyramid
D
A
With limestone blocks so large
I drag them from the mountaintop
D
You'll need a, a two-car garage

[repeat verse]
G

D
A
[fill riff 2]
And it's the ocean flowing in our veins

D
A
[fill riff 2]
Oh, 'cause it's the salt that's in our tears
G
D
A
[fill riff 2]
Oh, 'cause we could have come so very far
G
D
E
Oh, in at least as many years
D
C
A
[fill riff 2, 2x]
Take the highway through the great divide
D
C
E
[begin solo on E chord]
Take the highway through the great divide
.
. [chords with a "." played stacatto]
D A E D A B A E B A E E
A

E
B
'cause it's the ocean flowing in our veins
A
E
B
Oh, 'cause it's the salt that's in our tears
A
E
B
Oh, 'cause we could have come so very far
A
E
F#
Oh, in at least as many years
|:
E
D
B
Take the highway through the great divide
E
D
F# :| [Repeat to fade]
Take the highway through the great divide

E|--16-------12----9-----------|---12p10----12p10---10-9----------------------|
B|-----------------------------|--------------------------------10------------|
G|-----------------------------|-------------------------------------9--------|
D|-----------------------------|----------------------------------------11----|
A|-----------------------------|----------------------------------------------|
E|-----------------------------|----------------------------------------------|
E|------------------------|
B|------------------------|
G|--------------9---9~~---|
D|--9h11------------------|
A|---------11-------------|
E|------------------------|

E|-------------------------|--9---9-------9b(10)--|--12p11/12---16---16---14---19--|
B|----10h12-----------10---|-----------12---------|--------------------------------|
G|--9---------11-11------9-|----------------------|--------------------------------|
D|-------------------------|----------------------|--------------------------------|
A|-------------------------|----------------------|--------------------------------|
E|-------------------------|----------------------|--------------------------------|

Theme From The Bottom


intro-page
e---------------------------------------------------------------------------------------r
b----------------7----8-----------------9----10--------------7----8------------9----10--e
g-----------7---------------------6-----------------------7------------------6----------p
d--------------------------------------------10-------------------------------------10--e
a---------------------------------------------------------------------------------------a
e---------------------------------------------------------------------------------------t
Play this, and repeat it...then at "The coffee that somehow, leaks out of
your cup..." just move it up a whole step.
e------------------------------------------------------b------------------------------------------------------g------------------------------------------------------d---------------------5--5--------------------5--5---4-a-----------5-7-5------------8--10-------4-6-------8-5-E--------------------------------7-----7---------------Alternate version of guitar part above, based on the studio (Billy Breathes) recording:
e---------------------------------------------------------b---------------------------------------------------------g---------------------------------------------------------d---------------------------------------------------------a-----9-------------10---10-8-10-------------10---10-8--9-E----10----7--9--11------------7----7--9--11-----------10-- Repeat one whole step up
during verse.
Verse:
D
G
I feed from the bottom, you feed from the top
D
G
I live upon morsels you happen to drop
E
A
The coffee that somehow leaks out of your cup
D
G
If nothing comes down, then I'm forced to swim up
This pattern is used in all the verses
Chorus:
D
C G
So I ask you why

D
C
If I'm swimming by

Am
Bm
C
D
Don't you see anything that you'd like to try?
The jam goes something like this:
Am Bm C Bm Am Bm D
then:
Am Bm C Bm Am etc. .......finally resolving to: Am Bm D
The outro is D & G alternated with the layered lyrics in the
background
Chorus Riff:
"ask
you
why__________________________________
if I'm____
e----------------------------------------------------------------------b----------------------------------------------------------------3-(0)-g------------------------------------------------------------4-(0)-----d------0-7-0-0-4-0------0-7-0-0-4-0------0-5-0-0-2-0-----5-(0)---------a--5-7--------------5-7--------------3-5-------------5-(0)-------------e-----------------------------------------------------------------------

swimming
by,
e----------------------------------------------------------------------b--------------------------------------------------------------5-------g------------------------------------------------------------6---------d------0-7-0-0-4-0------0-7-0-0-4-0------0-5-0-0-2-0-----7-(0)---------a--5-7--------------5-7--------------3-5-------------7-(0)-------------e----------------------------------------------------------------------don't
you
see
any-thing that you'd like to try?
e----------------------------------------------------------------------I
b----------1----------------3------------------5-----------------------I
g----------------------------------------------------------------------I
d--/2------------------/4--------4-----/5------------5-----------------I
a----------------------------------------------------------------------I
e----------------------------------------------------------------------I
After the last "don't you see anything that you'd like to try", they hang on D
for a few bars then Trey plays this part, and the jam part begins after this.
When you get to the A flat part, the open D may sound a little funny at first
(since it's not in the Ab scale) but if you listen closely you can definitely
hear the repeating open D throughout the entire part. The whole part is even
eighth notes.
C
D
E--------------------------------|--------------------------------|
B--------------------------------|--------------------------------|
G--------------------------------|--------------------------------|
D-----0-5-0-0-2-0-----0-5-0-0-2-0|-----0-7-0-0-4-0-----0-7-0-0-4-0|
A-3-5-------------3-5------------|-5-7-------------5-7------------|
E--------------------------------|--------------------------------|
Dm
Bb
E--------------------------------|--------------------------------|
B--------------------------------|--------------------------------|
G--------------------------------|--------------------------------|
D-----0-7-0-0-3-0-----0-7-0-0-3-0|-----0-8-0-0-3-0-----0-8-0-0-3-0|
A-5-8-------------5-8------------|-5-8-------------5-8------------|
E--------------------------------|--------------------------------|
Ab
C
E------------------------------------|----------------------------------------|
B------------------------------------|----------------------------------------|
G------------------------------------|----------------------------------------|
D------0-10-0-0-6-0------0-10-0-0-6-0|-------0-14-0-0-10-0-------0-14-0-0-10-0|
A-6-11--------------6-11-------------|-10-15---------------10-15--------------|
E------------------------------------|----------------------------------------|
D
E----------------------------------------|----------------------------------------|
B----------------------------------------|----------------------------------------|
G----------------------------------------|----------------------------------------|
D-------0-19-0-0-16-0-------0-19-0-0-16-0|-------0-19-0-0-16-0-------0-19-0-0-16-0|
A-17-19---------------17-19--------------|-17-19---------------17-19--------------|
E----------------------------------------|----------------------------------------|
E----------------------------------------|----------------------------------------|
B----------------------------------------|----------------------------------------|
G----------------------------------------|----------------------------------------|
D-------0-19-0-0-16-0-------0-19-0-0-16-0|-------0-19-0-0-16-0-------0-19-0-0-16-0|
A-17-19---------------17-19--------------|-17-19---------------17-19--------------|
E----------------------------------------|----------------------------------------|

Timber
Verse:
Gonna pull this Timber 'fore the sun goes down
E-----6--6---------------------------------B-----8--9---------------------------------G-----6--6----Repeat-until----------------D-----6--6---------------------------------A------------------------------------------E------------------------------------------Bbmin
Get it cross the river 'fore the boss comes 'round
E----------------------------------------B---6--------------------------------6---G---6--------------------------------6---D---5--------------------------------6---A---6------------------------------------E----------------------------------------Eb9
Bbmin
Bbmin
Drag it down that dusty road
Eb9
Bbmin
C'mon Jerry lets dump this load
Chorus:
Haulin' Timber (Hoooo)
E--------6--6----------------------------B--------8--9----------------------------G--------6--6----------------------------D--------6--6----------------------------A----------------------------------------E----------------------------------------Bbmin
Whoa, this timber's gotta roll
E----------------------------------------B--6-------------------------6-----------G--6-------------------------6-----------D--5-------------------------6-----------A--6-------------------------------------E----------------------------------------Eb9
Bbmin
Haulin' Timber (Hoooo)
E--------6--6----------------------------B--------8--9----------------------------G--------6--6----------------------------D--------6--6----------------------------A----------------------------------------E----------------------------------------Bbmin

Whoa, this timber's gotta roll


E----------------------------------------B--6-------------------------9---8-------G--6-------------------------9---8-------D--5-------------------------8---7-------A--6-------------------------9---8-------E----------------------------------------Eb9
F#9 F9
My old Jerry was an Arkansas mule
Been everywhere and he ain't no fool
Weighed nine hundred and twenty-two
Done everything a poor mule can do
(chorus)
-JAM over Bb minorJerry's shoulders stood six-foot tall
Pulled more timber than a freight could haul
Workin' heavy old Jerry got sore
Pulled so much he couldn't pull no more
(chorus)
The boss said "Jerry" and it made him jump
Jerry ran and kicked the boss on the rump
My old Jerry was a cool mule
Had it been me I woulda killed that fool
Boss tried to shoot old Jerry in the head
Jerry took that bullet and he stomped him dead
Stomped that boss 'til he heard him scream
Sure don't care he was so damn mean
(chorus 2x)

Train Song
Main theme:
e---------5p3-----3-------3------------------|
B-------3-----------5p3-----3p0----0---------|
G-----0---------0-------0--------0---2p0-----|
D--------------------------------------------|
A--------------------------------------------|
E--------------------------------------------|
All the way home we felt we had a chance
A
To review the coulds before we were born
D
<main theme>
And to invite a new game of can'ts
Absorbed in the clouds a voice from afar said
A
"With the right device you can make a pattern grow
D
<main theme>
Or you can tune up your car"
So we stayed on the train admiring the time
A
As the lights of the city drew near
D
<main theme>
We drank a little wine
They were blurry and green outer space in between
With a depth and a form unclear
Then we saw it up ahead
[Use these chords for this part]
C9
G/B Bb6? Am7
E-------------------B----3----3---2---1-G----0----0---0---0-D----2----0---0---0-A----3----2---1---0-E-------------------C9
G/B
A flickering lantern lit up on the tracks
Bb6?
Am7
<main theme x2>
In the rocks that had covered up the bridge
D
G/D Am/D
E---2----3----5----B---3----3----5----G---2----4----5----D---0----0----0----A------------------E------------------D
G/D
From the banks of a river to the bed
Am/D
Of the valley upstream to the place we live

(continue this pattern until outtro which is basically


just variations of the main theme
The glass on the lantern cast back the sight
Of a drive-in movie we drove by below
We saw where we'd been in the pictures within
Projecting all the places we would go
So we follow the scene and flowed up your steps
To a smooth wooden floor in a trance
The train whistle melody wove through the trees
And in through the door to signal the turns of a dance

Tube
The song starts with the
D----------A----------E----3(b)--

into Am

on the Am you start with "Asteroid crashed, and nothing burned."


D-------A--------E----3(b)

into Fm

on the Fm Trey sing "It made me wonder..." (i don't know what this G, Gm9 is
all about)
Next you groove on F#m for the verse:
Do tigers sleep in lily patches?
Do rhinos run from thunder?
I got an ache in my left ear
I felt a twinge but I still could hear.
It made me think I would not be burned,
but rather give myself to
on "to science" you move down to F and you have:
F
G
Ab
Am
To science, i felt that i could help
D----------A----------E----3(b)--

into Am

on the Am: "Paranoid the doctor ran"


D----------A----------E----3(b)--

into Fm

on the Fm: "Shouting his graphic translation"


Then you continue with F#m for the second verse:
All out of order
Gang wars and ails of riches,
Spewing forth their color
He purposely waited till I was done
To knock on the lavatory door
Accusing me of ruining the fun,
F
G
Ab
Am
He knocked on it some more
F
G
Ab
The fun, He knocked on it some more.
The A7, D7 jam
they go into 3/4 and drop into F#m.
slide up to G#m,
and then hit

Am

Then they

D----------A----------E----3(b)--

into Am

"Alloyed suitors drawn


D----------A----------E----3(b)--

inside"

into Fm

"An apple or a grape"


F#m(3rd verse):
To put forth a cloud of Mercury
In front of a mighty car
On a freeway in Los Angeles
Once the spraying has been done'
Cause there's more pain from necessity
You're a portrait of your past,
There's a mummy in the cabinet.
Are there no more arrows left?
What's that rubber bottle doing here?
How's that napkin for a proof
Ten cents to a dollar now
For a shelf of pregnant ears
Robert Palmer is applauded
again, s'again, s'again
F
G
Ab
Am
So stupendous, living in this tube.
------------------------------------------------------------------------

Tweezer
Intro
-w/ slight palm mutingE|--------------------------B|--------------------------G|--------------------------D|----7p0-0h-5-p0-----------A|--0----------7p0-0-h5p0-0-E|------------------------b8Part II Before Verse
-w/ slight palm mutingE-------------------------------|
B-------------------------7~~~~-|
G-------------------------7~~~~-|
D----7p0-0-h5p0-----------7~~~~-|
A--0---------7p0-0-h5p05--5~~~~-|
E-----------------------8-------|
Part IIa ending
E-------------------------B-------------------------G-------------------------D--5h7p5h7p5h7-----A-------------------------E--------------------------

Wont you step into the freezer....

E|---------------------------------B|--/7-------------------------"1"-G|--/7-------------------------"2"-D|--/7----(0)-h2/4--*h12>/10-------A|--/5-----------------------------E|---------------------------------Freezer with tweezer


*w/right hand "Am"w/pick & left hand
Part III
-w/ slight palm mutingE--------------------------------B--------------------------------G--------------------------------D----14p0-0-h12p0----------------A--0-----------14p0-0-h12p0------E--------------------------b15-12It's gonna be cold, cold, cold, cold.
Back
Part
Part
Part

to Part I
II
IIa
III

Then hit Am, Let Am ring and feedback while page does moog solo. Back to riff.
Back to Part I-III but after the "uncle" (3:52)
they do sort of a half time thing with the original riff.
Trey plucks through the riff or lets feedback role....Before they bring it back he does
...
(4:09)

E----------------------------------------------------------B----------------------------------------------------------G-5-h7-p5-h7-p5-s9--7-h9-p7-h9-p7-s12--9-h12-p9-h12-p9-s14~D----------------------------------------------------------A----------------------------------------------------------E----------------------------------------------------------Then they bring it back for a couple measures to part I. (4:13)


Then the jam:
Am Muting Muting Muting
E------5-------------------------------------------------------------B------5-------------------------------------------------------------G------5-------------------------------------------------------------D------7------7--5----------------7--5-----------------7--5----------A-------------------5-5-5-5-5------------7-7-7-7-7----------5-5-5-5-5E--s5------5-------------------5--------------------5----------------Muting
E-----------------------------------------------------------------------B-----------------------------------------------------------------------G-----------------------------------------------------------------------D------------7~~~-----7--5----------------7--5-------7--5-------7--5----A--------------------------5-5-5-5-5------------------------------------E--------5-------5--------------------5--------8~--5------7~--5-----6~--E------------------------------B------------------------------G------------------------------D-------------7--5-------------A------------------------------E---------5---------5~---------That is the beggining of the jam....
For the jam use Aminor but add others non chord tones,
use relatives and arpeggios to keep it funky.
The jam is based on a HW diminshed scale on A...(A Bb C C# Eb E F# G A) but they avoid
landing on the root.

Tweezer Reprise steps


D
G
F
G
D
G
F
G
D
G
F
G
D
G
F
G
D* |: G
F
G:|
E-2---3---5---7---2---3---5---7---5---7---8---7---5---7---8---10---10----10---8---10B-3---3---6---8---3---3---6---8---7---8--10---8---7---8--10---12---10----12--10---12G-2---4---5---7---2---4---5---7---7---7--10---7---7---7--10---12---11----12--10---12D-0~~~~~~~~~~~~~~~~~~~~~~~~~~~~~~~~~~~~~~~~~~~~~~~~~~~~~~~~~~~~~~~~~~~~~~~~~~~~~~~~~~
A-----------------------------------------------------------------------------------E------------------------------------------------------------------------------------

Twist
Progression Number:
[--I--]

[--II--]

[--III--]

[--IV--]

[--V--]

F C G
F C C
C Bb
G
F C D
C F G
E--3--3--3----3--3--3-----------(3)---3--3--2-----0--1-(3)
B--1--1--0----1--1--1----5--3----3----1--1--3-----1--1--0G--2--0--0----2--0--0----5--3----4----2--0--2-----0--2--0D--3--2--0----3--2--2----5--3----5----3--2--0-----2--3--0A------------------------3--5----5-----------------------E-------(3)----------------------------------------------Mike Plays something like this:
E---------------------------------------------B---------------------------------------------G---------------------------------------------D---5------3----------------------------------A------5------3--------------5----1----3------E-------------------------------------------3-[I]
I spoke your name for many days
[III]
Pronouncing it in several ways
[II]
[I]
And moving letters all around
[IV]
[V]
And substituting every sound
And when you heard the end result,
I told you it was not my fault,
If you were here more of the day,
It wouldn't twist around that way....
Chorus
E-------------------------------------------------------------B---3----3----5---3-------------------------------------------G---4----3----5---3-------------------------------------------D---5----3----5---3-------------------------------------------A---5----5----3---3h5-----------------------------------------E---3---------------------------------------------------------Wouldn't twist around (wouldn't twist around) that way

Whoo!

(Repeat Chorus)
Piano Break
G

Bb

(X3)

(Chorus Again)
Then do a funky post '96 Phish jam in the key of G (pentatonic?)
until the crowd is in a trance then come back with the Whoo!'s
and the chorus.

Undermind
Intro riff:
e
B
G
D
A
E

G>A A
G>A A
---3^5--5----------------3^5--5-------------------3^5--5----------------3^5--5-------------------4^6--6----------------4^6--6---6-6-6-7-6-------5^7--7---5-7-7-5-7----5^7--7-------------7-----5^7--7----------------5^7--7-------------------3^5--5----------------3^5--5-----------------

G>A
Undecided, undefined
Undisturbed yet undermind
Relocated not retired
Reprimanded and rewind
Mystified and misshapen
Misinformed but not mistaken
Reinvented, redefined
Rearranged but not refined
D
Unrelenting, understroked
Undeterred yet unprovoked
A
Reinvented, redefined
Rearranged but not refined
E
Mystified and misshapen
D
Misinformed but not mistaken
A
Undecided, undefined.

G > A

G > A
Undecided, undefined
Undisturbed yet undermind
Relocated not retired
Reprimanded and rewind
D
Mystified and misshapen
Misinformed but not mistaken
G > A
Reinvented, redefined
Rearranged but not refined
E
Unrelenting, understroked
D
Undeterred yet unprovoked
G > A
Undecided, undefined.
E & D riff during jam:
e
B
G
D
A
E

---7--7---------------5--5--------------9--9---------9-----7--7--------7-----9--9--7^9-11-------7--7--6^7-9-------9--9---------------7--7--------------7--7---------------5--5-------------------------------------------------

Vultures
Intro:

Piano lick 20x

e|-----------------------------------------------------------|
B|-11--13----11-13-13------10-12-10------------10-8----------|
G|--------12------------11----------11-9------------9-7------|
D|---------------------------------------12-9-----------10-7-|
A|-----------------------------------------------------------|
E|-----------------------------------------------------------|
E|-----------------------12-13-14-15-/12-------------------12-13-14-15-/12----------|
B|----13-13h14--13~---13-----------------13-------------13-----------------13----13-|
G|-14---------------------------------------12----12-14-----------------------12----|
D|---------------------------------------------14-----------------------------------|
A|----------------------------------------------------------------------------------|
E|----------------------------------------------------------------------------------|
E|-----------------------|
B|-14*--13--12--11--/14--|
G|-----------------------|
D|-----------------------|
A|-----------------------|
E|-----------------------|
*fast repeating up and down picking patern on each descending note
Chorus:
E|-----------------------|
B|-6-6---6-6---6-6--6-4--|
G|-6-6---6-6---6-6--6-4--|6x
D|-6-6---6-6---6-6--6-4--|
A|-4-4---4-4---4-4--4-2--|
E|-----------------------|
Timing is everything that much I know etc...
E|------------------------------------------------------------------|
B|----8-----------------------8-----11---9-----12--9-------9--------|
G|-10---8---------------8-10----8----------9---------9-------9------|
D|--------8--------8-10-----------8----------9---------9-9-----9----|
A|----------10--10-----------------------------------------------11-|
E|------------------------------------------------------------------|
E|---------------------------------------------------------------------|
B|-11--13----11-13-13-----10-12-10----------------9-11-9---------------|
G|--------12-----------11----------11-9--------10--------10-8----------|
D|---------------------------------------12-9-----------------11-8-----|
A|---------------------------------------------------------------------|
E|---------------------------------------------------------------------|
E|--------------------------12-15-15-/17-15---20-17----------------------------|
B|----12-12h13-----------13-------------------------20-17----17-20----17-------|
G|-13--------------12-14----------------------------------19-------19----17----|
D|--------------14----------------------------------------------------------17-|
A|-----------------------------------------------------------------------------|
E|-----------------------------------------------------------------------------|

Bridge
E|-----------------------|
B|-14--13--12--11--/14---|
G|-----------------------|2X
D|-----------------------|
A|-----------------------|
E|-----------------------|
Verse 2: Bass Only
Jam Chords
E|-----------------------|
B|-8-8---8-8---8-8--8-6--|
G|-8-8---8-8---8-8--8-6--|
D|-8-8---8-8---8-8--8-6--|
A|-6-6---6-6---6-6--6-4--|
E|-----------------------|
Jam Notes:
The jam in in Eb Mixolydian which is the notes of the Ab Major scale, starting on the
Eb. You'll want to emphasize
the chord tones in an Eb chord while soloing... so Eb, G, Bb. Trey also likes to use the
flat 2 (Fb) and sharp 5 (B natural)
to create some nice simple tension. Try to resolve resolve the Fb to the root Eb. And
try to resolve the sharp 5 to the 5th Bb.
E|----------------------------------8-9-11-|
B|---------------------------8-9-11--------|
G|----------------------8-10---------------|
D|-------------8-10-11---------------------|
A|-----8-10-11-----------------------------|
E|-11--------------------------------------|
Lyrics:
Timing is everything, that much I know.
sometimes I'm fast(er) and sometimes I'm slow
I exceed expectations but some days I'm told
to go to the end of the line.
But when I can't be what's expected of me
I look at the clock and say this can't be
watching it pass without reason or rhyme
I find myself drifting in time
(Repeat replacing last line with)
I see the vultures moving in (repeat)
(Fish repeats some phrases in here: "I find myself drifting in time")
Then Instead of going to the C# go to D# and do a D# C# progression
and this is the jam part. When done jamming the guitar and band
goes back to the D# C# progression again for three times (not four)

Wading In The Velvet Sea


I've been Wading in the Velvet Sea (repeats throughout song)
Chords: G D/F# Em C D (progression repeats though song)
Took a moment from my day
wrapped it up in things you say
mailed it off to your address
you will get it soon, unless
the packaging begins to break
and all the points I try to make
tossed my thoughts into a bin
my time leaks out, my life leaks in
You won"t find moments in a box
and someone else will set your clocks
took a moment from my day
and wrapped it up in things you say
And mailed it off to you...
From SOTG:

The minor part after "...off to you"


Bm -> C (Cadd9)
Bm -> C (Cadd9)
Bm -> C
D/F#
You won"t find moments in a box
C/A (x02010)
And someone else will set your clocks
C

I took a moment from my day


Then back to the G D/F# Em C D
Ive been Wading in a Velvet Sea

Walk Away
Intro:
A->D, A->D, A->D, A->G-D PLAY 2X
then on B string at the 12 fret with a full bend and a roll down
C->D
A->D, A->D, A->D, A->G-D

PLAY 2X

A
D
A
D
Takin' my time,
choosin' my line,
A
D
A
G-D
Try'n' to decide what to do.
A
D
A
D
Looks like my style,
don't wanna get off,
A
D
A
REST
Got myself hung up on you.
F#m
D
Seems to me, you don't wanna talk about it.
F#m
D
E
A
Seems to me, you just turn your pretty head and walk away.

Bm-C-Bm

The rest of the song is the same (I's not hard so you most likely got the idea)
The solo break uses the A major pentatonic scale and plays over these chords:
F#m A->D A->D F#m A->D A->D C-D
Places I've known, things that I'm growin',
don't taste the same without you.
I got myself in, the worst mess I been in,
and I find myself startin' to doubt you.
Seems to me, don't go mad here come the mornin'.
Seems to me, you just forget what we said and greet the day.
Cool myself down, stompin' around,
thinkin' some words, I can't blame ya.
Meet ya half way, I got nothin' to say,
still I don't s'pose I can blame ya.

Walls of the Cave


Intro: Piano
(00:55)
Guitar Riff 4X
e---------------------------------------------------B---------------------------------------------------G---------------------------------------------------D----7-7-9-10-9--7--9--7--9--7--9--7--------------A--7-----------------------------------------------E---------------------------------------------------e---------------------------------------------------B---------------------------------------------------G---------------------------------------------------D----7-7-9-10-9--7--9--7---------------------------A--7------------------------------------------------E---------------------------------------------------E---5-------5-3-----------8-------------8-12-10--------------------B----------5-----------------------8-10----------------------------G------------------------------------------------------------------E---8-----------8-7-------12--------------12-15-14-----------------B----------8-10-------------------------15-------------------------G----------------------------------12-14---------------------------E---12-14-15--------------17-15-14-------------------------5-----B------------------------------------------------------------------G------------------------------------------------------------------then strums:
A G D G D
(sorta right on the chords,but fool around to get it right)
ending strum:
D Am G D
(again sorta right, i know it ends on a D)
verse 1
chords: Am Dsus G Am
Dsus:
e------------------B---3---------------G---2---------------D---3---------------I'm leaving you a message
I'm leaving you a trace
I'm leaving thoughts for you I hope that time will not erase
And when the moment comes to read the words
that I have prayed
F G Am
You'll find them on the walls of the cave
Am G C D (2x)
of the cave
("Uncle Johns Band" chord)
e--0------B--0------G--2-------

D--------D Am C D
I know you heard the question but you didnt make a sound
And when it fell you caught my heart before it hit the ground
But if you ever need the names of those you couldnt save
Am(9th fret) G(7th fret) D
You'll find them on the walls of the cave(2x)
-------Drums-------finger pick: C G C F(6th fret)
Look at me as time stands still
a mountain here is now a hill
G
Look away
finger pick: C G C F(6th fret)
Look away as time goes past
these rocks will fall away at last
G
Look away
F C G
Maybe you will see it as your passing by alone
below the moss forgotten where some words adorn a stone
Am G F
It might have been an etching on a maker of a grave
G(7th fret) F C
or maybe on the walls of the cave
------pause/drums-----(AC/DC Bag style strumming)
B
Listen tooooo the silent trees
Spill your words float on a breeze
B(7th fret) D Db C B
Look away I see them all
Comes into the cavern walls
Listen toooo the silent trees
E
E

B
F#

B(7th fret) D Db C b
Listen toooo the silent trees
---solo----Listen toooo the silent trees
Jam on B->A for a while
then
E B E F#(rise it to the climax) B
Listen toooo the silent trees
B->A

Waste
Intro:
E-3---3---3---3---3---3---1---0-------1---1---0---0-B-1---1---0---0---1---1---3---3---3---1---1---1---1-G-0---0---0---0---3---3---3---3---3---2---1---0---0-D-2---2---2---2---2---2---3-3-3-3-3-3-3-3-3-2-2-2-2-A-3-3-3-3-3-3-3-3-3-3-3-----------------------------3
E---------------------------------------------------Don't want to be an actor, pretending on the stage
Don't want to be a writer, with my thoughts out on the page
Don't want to be a painter, 'cause everyone comes to look
Don't want to be anything where my life's an open book
F Fm C
E-1---1--0--B-1---1--1--G-2---1--0--D-3---3--2--A-----------E-----------F

Fm
C
A dream, it's true

If I could
Don't want
Don't want
Don't want
Don't want

be
to
to
to
to

Fm
C
but I'd see it through

(if I could be) wasting my time with you.


be a farmer, working in the sun
be an outlaw, always on the run
be a climber, reaching for the top
be anything where I don't know when to stop

A dream, it's true


but I'd see it through
If I could be (if I could be) wasting my time with you.
Use these chords for this part:
Eb Bb F C
E--------1--0B--5--3--1--1G--4--3--2--0D--6--3--3--2A--2--1------E------------Eb
Bb
F
C
So if I'm inside your head
Eb

Bb
F
C
You'll see what I might have said

F Gm Bb
E-1--3--1-B-1--3--3-G-2--3--3-D-3--5--3-A-3--5----E---------F

Eb
Bb
F
C
don't believe what you might have read

Gm
Come waste

Bb
your time with me

Eb
Bb
to hear it

-->F

== Live Version ==
Intro:
E-5---5---5---5---5---5---3---2-0----------------------------------B-3---3---2---2---1---1---1-------1---3----3----3----3-----3---3---G-2---2---2---2---2---2---2-2------2--4----4----3----3-----2---2---D-0-0-0-0-0-0-0-0-0-0-0-0-0-----------5-5-(5)-5-5-5-(5)-5>4--4---0-A------------------------------------------------------------------E------------------------------------------------------------------Don't
Don't
Don't
Don't

want
want
want
want

to
to
to
to

be
be
be
be

an actor, pretending on the stage


a writer, with my thoughts out on the page
a painter, 'cause everyone comes to look
anything where my life's an open book

G Gm D
E-----------B-3---3--3--G-4---3--2--D-5---5--4--A-----------E-----------G

Gm
D
A dream, it's true

G
Gm
C
but I'd see it through

If I could be (if I could be) wasting my time with you.


Don't
Don't
Don't
Don't

want
want
want
want

to
to
to
to

be
be
be
be

a farmer, working in the sun


an outlaw, always on the run
a climber, reaching for the top
anything where I don't know when to stop

A dream, it's true


but I'd see it through
If I could be (if I could be) wasting my time with you.

Use these chords for this part:


F C G D
E------------B--1--1--3--3G--2--0--4--2D--3--2--5--4A------------E------------F

C
G
D
So if I'm inside your head

C
G
D
don't believe what you might have read

C
G
D
You'll see what I might have said

C
to hear it

-->G

G Am C Cadd9
E-3--0--0---0--B-0--1--1---3--G-0--2--0---0--D-0--2--2---2--A-x--0--3---3--E-3------------G

Am
Come waste

C
Cadd9
your time with me

== Live Solo ==

This is the solo Trey plays for live shows, play around with it, You'll get it.
E------------------------------------------------------------------------B---------------------------------------15--------------------12--------G-------------12--------------------------------------------------------- section 1
D-12h14p12h14-------12h14p12h14----------12h14p12h14-----------A------------------------------------------------------------------------E------------------------------------------------------------------------#1 riff x5
#2 riff x2
then
#3 riff x1
then go back to riff #1 and repeat section 1 a few times
E--------------------------------------------------------B------------------------------------15-----------------G-12h14p12----------12h14p12--------------------------- section 2
D------------14------------------14----------------------A--------------------------------------------------------E--------------------------------------------------------riff #4
riff #5 x3
then just fool around with those to sections a few times then do. . .
E------------------15-------------------------15--19-17-15-------B-15h17p15h17----------------15h17p15h17---------------------G-------------------------------------------------------------------- section 3
D-------------------------------------------------------------------A-------------------------------------------------------------------E-------------------------------------------------------------------Riff #6 repeating until
riff #7
Riff #1 x5
Riff #2 x2
Riff #3 x1
Repeat section 1 a few times
Riff #4 x5
Riff #5 x3
Repeat section 2 a few times
Riff #6 repeating until you feel like doing
Riff #7
Repeat section 3 until whenever

Waves
E-10sec----------------------|------------------------B----------------------------|------------------------G----------------------------|------------------------D-----5-----5-4--------------|----5-----5-4-----------A--7-----7-------5--7(7)---7--|-------7-------5--7-----E-----------------------5----|---------------------5--e--------------------------|----------------------------B-x------------------------|----------------------------G-x------------------------|----------------------------D-5-----5----5-4-----------|----5-----5-4------------(7)A-----7----7------5--7-----|-(7)---7-------5--7-----7---E-----------------------5--|---------------------5------e-----------------------|----------------------------------------B-----------------------|----------------------------------------G-----------------------|-------7-----7-6-----------6b------6----D----5----5-4-----------|-(0)------5-----(0)-7--X-5-------5----7-A-7-----7------5--7-----|-------------------------------6--------E--------------------5--|----------------------------------------e----------|37sec--------------------------------------B----------|-------------------------------------------G---flub---|-------------------------------------------D----------|-------------------------------------------A-(7)-8/-9-|-------------------------------------------E----------|-------------------------------------------section 2
E------------------------B------------------------G----------0-------------D--------0---0-----------A------4-------4---------E--5-5-----------5---33--5

LIVE VERSION
:intro w/palm muting :
E|--------------------:----0------0-0--0-:----0------0-0--0-:----0------0-0--0-|
B|--------------------:---3---3---3-3--3-:---1---1---3-3--1-:---1---1---3-3--3-|
G|----0--0------------:--2---2-2--4-4--2-:--2---2-2--4-4--2-:--2---2-2--4-4--2-|
D|---0--0-0-------(0)-:-4---4-----5-5--4-:-3---3-----5-5--3-:-3---3-----5-5--4-|
A|--4--4----(2 2)-(4)-:------------------:------------------:------------------|
E|-5---------3-3---5--:-----------------:------------------:------------------|

Weekapaug Groove
H-O P-O S\
H-O
E|--------------------------|
B|7-7-7-8-8-7-7-5--5--8-----|
G|7-7-7-7-7-7-7-5--5--7-----|
D|7-7-7-9-9-7-7-5--5--9-----|
A|-9-9-----------------7-9--|
E|--------------------------|
Trying to make a woman that you move
And we're sharing in the Weekapaug Groove.
Jeff Goldberg explains the alleged birth of these lyrics:
It is indeed nonsensical-- in that most people think the lyric is
"match" when it IS actually "that." The lyrics were concocted in an
inebriated state on the road after leaving a gig in Weekapaug, RI-- The
70's disco song "Oh What a Night" was on the radio- Mike was singing
along during the part that goes "Oh I... " and he didn't know the lyrics
following the "Oh I" so he just sang what he remembered it as in his
head: "Oh I'm...Trying to make a woman that you moooove. (<aaahhhh>)"
This then became a joke within the band, and the song's lyrics were
written.
Also, it's funny, because the melody to the vocals is still the same as
the melody for the bridge of "Oh What a Night."

When the Circus Comes to Town


*** Chord
Verse:
I | I |
vi | vi |
IV | IV |

progression: chord numbers ***


I | I
vi | vi
I | I

Chorus:
V | V | V | V
I-vii | vi V | bVII I
Intro: fiddle around on Bb (occasionally touch on Eb).
Verse:
Bb
Could have had a chance to get out of this mess
Gm
The time that you came and the day that you left
Eb
Could've had a chance
Bb
Could've had a chance
Never thought I could make it this far
With a pain in my soul and a hole in my heart
Never thought I could
Never thought I could
Chorus:
F
'Cause when the lights are turning round
The wheels are floating on the ground (?)
Bb
Am
Gm F
The day I burn this whole place down
Ab Bb
When the circus comes to town
(Bb for 4 measures)
Verse chords:
Carved your name out on that tree
Scratched mine out right in front of me
It didn't mean that much
Didn't mean that much
CHORUS
Ab
When the circus comes
(Ab for 4 measures)
I'll scratch your name out on that tree
I'll chase your heart right out of me
Doesn't mean that much
Doesn't mean that much
CHORUS
Ab
When the circus comes
(Ab for 4 measures)
(Solo over verse, then chorus. Then over Ab for 4 measures.) - they
do this twice, except the last time they stay on Ab for 8 measures
instead of four. Obviously you can do this more or less times as you
see fit. They end on a final Ab.

Wilson
E-E

E-E
Wilson

Wilson

E-E

E-E
Wilson

Wilson

E
Oh out near

C
Stonehenge,

A
I lived alone

E
C
Oh out near Gamehenge,

A
E
I chafed a bone

A
Wilson,

D
King of Prussia

E
E
I lay this hate on you

A
Wilson,

D
E (hold and feedback)
Duke of Lizards, I beg it all trune for you

Repeat the above for second verse


Second Verse
Talk my
Inasfar
Wilson,
Wilson,

Duke a mountain, Helping Friendly Book


as fiefdom, I think you bad crook
king of Prussia, I lay this hate on you
Duke of Lizards, I beg it all trune for you

Solo 1 (chords under the solo)


B

D (A?)

D (A?)

"Reggae" Chording Break


F#m

F#m

(Trey does a three note, double octave


walk-up after this chord on G#,A,A#)

Solo 2
A

"Reggae" Chording Break


Em

Em

Solo 3
F

Ab

Bb

Ab

Bb

(Trey does a three note, double octave


walk-up after this chord on F#,G,G#)

Ab

Bb
D#

E-E

(The timing of this varies depending on the version


listen to the song a couple times and play it how
it sounds best to you
E-E

Wilson

Wilson

E-E

E-E
Wilson

Wilson

E
C
I talked to Mike Christian,

A
E
Rog and Pete the same

E
C
A
E
When we had that meeting, over down near Game

(Hendge)

A
Wilson,

D
E
E
King of Prussia, I lay this hate on you

A
Wilson,

D
E (hold and feedback)
Duke of Lizards, I beg it all trune for you

Heavy Metal Strumming


E

A (hold and feed back)

E
C
A
E
You got me back thinkin' that your the worst one
E
G
A
I must inquire, Wilson, can you still have fun
E
Oh Wilson,

G
A
can you still have fun

Repeat a couple time then hold and feedback the A, and use a spacey
or "swirling" effect. Trey often uses his Digitech Whammy pedal in
conjunction with tremolo or univibe.
Blap! Boom ....... (I still don't know what Trey says here :)
Solo 4 and Outro
E

The above repeats however many times you want to keep the jam going
then ends with:
E

A (hold and feedback)

The most parts of the solos can be figured out by using the first
position of the minor Pentatonic scale the key of the chords the
passages start in:

Wingsuit
Intro (2x):
E-----------------------------------------------------------------B----11---11-----11---11-10-10------8---8s10--10-----8---8p6---6G-----------------------------------------------------------------D--13---13-----13---13------------8---8-----10------8---8-----7--Verse:
The verse is similar to the intro but with the following fingerings:
E-------------------B--11---10---8---10-G-------------------D--13---10---8---10-B----11---11-----11---11---10--G------------------------------D--13---13-----13---13---10----Steal away, let's steal a car
B----8--8--8...
G-----------...
D--8--8--8--...

------10---10-----------------10---10---

You'll never win a major only shooting par


Step outside, feel the sun
It's only you, be you, cause you're the only one
Chorus: (repeat 2x)
Trey only plays the D5/Dm sometimes, but it's implied
D5/Dm C5
And it feels good
D5/Dm C5
Cause it feels good
D5/Dm C5
And it feels good
Nothing lasts, nothing stays
Caught in this procession of unchanging days
What's new is old, what's old is gone
You're pushed up to the edge so put your wingsuit on
[repeat chorus 1x]
Bb
F
Dm
C
And gliding away you fly where you choose
Bb
F
Gm
There's nothing to say and nothing to lose
[repeat intro]
[verse riff]
Steal away, paint the sky
D5/Dm
C
Put your wingsuit on (4x)
Bb
F
D5/Dm
And gliding away you fly where you choose
Bb
F
Gm
There's nothing to say and nothing to lose

D5/Dm

(single guitar notes)


G A Bb D E F G
G A Bb D E F
G
Time to put your winsuit on
Outro:
Gm Am Bb C
Gm Am Bb
Trey plays a Gm pentatonic solo over the outro chords

Winterqueen
Intro:
B
Bsus4
E
B
E
C#m7
E------11-------12---7---7--7-----7----9------B----12--12-----12---9---7---7----9----9------G--11------11---11---9---8----8---9----9------D--------------------9---9--------9----9------A---------------------------------------------E---------------------------------------------B

Bsus4
E
B
The winterqueen looks up and sighs

C#m7

E
B
I wish that I controlled the skies

Bsus4

E
C#m
A
B
For up above is where to stand, to rule those who walk on land

C#m7
Bsus4

C#m7

The summer queen flies by and sees


Her realm of butterflies and bees
And says I wish I lived below, instead I sail where breezes blow
D

A
D
A
C#m
And then the rain came down, it tried to seep into the ground

D
A
D
A
E
But water deep pushed and poked, and sodden soil already soked began to roil

F#

Then strum a B5 high up on the neck for a while, going into a little solo
E----------------------------------------------------------------------------------------7-----B---12-12-12~~~------------------------------------------------------------------9-------7-----G---11-11-11~~~-------------------------------------------------------9------------9-----8-----D---9--9--9~~~--------------11---11-11--11/9--9--9-------11---11-11-----11----11-----9---9-----A---------------------------------------------------11---------------------12------------9-----E----------------------------------------------------------------------------------------7------

The rest is pretty much the


where they play the D chord
just a jam in B Major. Play
song they just go back into
intro a few times.

same starting from the beginning of the first verse, except


its
around the B mixolydian and you should be fine. To end the
the

The prince of silence walks below


inside a cave of ice and snow
he says "I wonder why?" but words
are locked in glaciers, never heard
The prince of music on guitar
neglects to play a single bar
but music trapped inside his head
resounds and fills the space instead
The winter queen looks up and sighs

Wolfmans Brother
LEGEND:
~
h
v
^
b
()

hold note
hammer on/off
down stroke
up stroke
bend
optional notes

INTRO:
Gm

G#

[pick scrape]

E|-3~~~4~~~---------------------------------|
A|-3~~~4~~~---------------------------------|
G|-3~~~5~~~---------------------------------|
B|-5~~~6~~~xxxxxxxxxxxxxxxxxxxxxxxxxxxxxxxxx|
A|-5~~~6~~~xxxxxxxxxxxxxxxxxxxxxxxxxxxxxxxxx|
E|-3~~~6~~~xxxxxxxxxxxxxxxxxxxxxxxxxxxxxxxxx|
MAIN THEME:
A#

Gm

G#

E|--------------------------3---------4--------A|-11---11---11-11-11-11-11-3---------4--------G|-x----x----x--x--x--x--x--3---------5--------B|-8----8----8--8--8--8--8--5---------6--------A|--------------------------5---------6--------E|--------------------------3---------4--------CHORUS:
Well the telephone was ringing
A#

hammer on/off

E|--------------------------86868686--4--------A|-11---11---11-11-11-11-11-----------4--------G|-x----x----x--x--x--x--x------------5--------B|-8----8----8--8--8--8--8----------5-6--------A|------------------------------------6--------E|------------------------------------4--------CHORUS:
F

D#

E|---------------------------------------------A|-10--------------------8---------------------G|-10--------------------8---------------------B|-10--------------------8---------------------A|-8---------------------6---------------------E|---------------------------------------------INTRO
MAIN THEME x 4

VERSE 1 (with MAIN THEME)


It was many years ago now
But I really can't be sure
Because when it all began now
I heard a knock upon my door
CHORUS
It's the wolfman's brother, the wolfman's brother
NO CHORD
Coming down on me
MAIN THEME x2
VERSE 2 (partially with MAIN THEME)
Well the telephone was ringing
A#

hammer on/off

E|--------------------------86868686--4--------A|-11---11---11-11-11-11-11-----------4--------G|-x----x----x--x--x--x--x------------5--------B|-8----8----8--8--8--8--8----------5-6--------A|------------------------------------4--------E|------------------------------------4--------MAIN THEME
That's when I handed it to Liz
She said it isn't who it should be
If it wasn't who it is
CHORUS
It's the wolfman's brother, the wolfman's brother
NO CHORD
Coming down on me
MAIN THEME x 2
VERSE 3 (variation of MAIN THEME, the timing is a little distorted)
Well I might be on a side street
A#

Gm

G#

E|-----------------------------------------------------A|-11---11---11-11-11-11-11----------------------------G|-x----x----x--x--x--x--x--5b7~~~5h3------------------B|-8----8----8--8--8--8--8------------3~~~5-5-5-6~~~~~~~
A|-----------------------------------------------------E|-----------------------------------------------------Or a stairway to the stars
A#

Gm

G#

E|-----------------------------------------------------A|-11---11---11-11-11-11-11-8b9-8-6--------------------G|-x----x----x--x--x--x--x----------5h7----------------B|-8----8----8--8--8--8--8--------------5-5-5-6~~~~~~~~~
A|-----------------------------------------------------E|------------------------------------------------------

I hear the high-pitched cavitation


A#

Gm

G#

E|--------------------------6--------------------------A|-11---11---11-11-11-11-11---6h8-6--------------------G|-x----x----x--x--x--x--x----------7------------------B|-8----8----8--8--8--8--8------------8-3h5-5-5-6~~~~~~~
A|-----------------------------------------------------E|-----------------------------------------------------Of propellers from afar
A#

Gm

G#

E|--------------------------6---------6-3-4~~~~~~~~~~~~~
A|-11---11---11-11-11-11-11---6h8-6-9---3-4~~~~~~~~~~~~~
G|-x----x----x--x--x--x--x--------------3-5~~~~~~~~~~~~~
B|-8----8----8--8--8--8--8--------------5-6~~~~~~~~~~~~~
A|--------------------------------------5-6~~~~~~~~~~~~~
E|--------------------------------------3-4~~~~~~~~~~~~~
CHORUS
It's the wolfman's brother, the wolfman's brother
NO CHORD
Coming down on, coming down on me
MAIN THEME x 2
BRIDGE RIFF x 4
Gm

(heavy wah-wah rocking)


G#

E|-3--------------4---------------B|-3--------------4---------------G|-3--------------5---------------D|-5--------------6---------------A|-5--------------6---------------E|-3--------------4---------------Some meaningless excitement


Smooth atonal sound
It's like a cross between a hurricane
And a ship that's run aground
CHORUS
It's the wolfman's brother, the wolfman's brother
It's the wolfman's brother, the wolfman's brother
It's the wolfman's brother, the wolfman's brother
NO CHORD
Coming down on, coming down on me
Note:

at this point Trey cuts off the wah-wah effect

FUNKY OUTRO x8
It's the wolfman's bro tha a

etc.

(scatting...)

E|---6--3----(3)--------------B|---------6------------------G|-----------------5p3---3----D|---------------5-----5---5--A|----------------------------E|----------------------------or...(I don't think this is correct, FWIW, but it was on here so I'm leaving it)
E|--------------------6----------------------B|------------------------8---6---8----------G|----------(5)---------------------8h7------D|(6h8)(8)------(8)---------------------6h8-8A|-------------------------------------------E|-------------------------------------------And finally the jam in A# [A# B# D D# F G G#]
This is the position I start out in, who knows what Trey does...
E|-----------------------------6-8-10-11....
B|-----------------------6-8-9-------------G|-----------------5-7-8-------------------D|-----------5-6-8-------------------------A|-----5-6-8-------------------------------E|-6-8--------------------------------------

(this page left intentionally blank)

Ya Mar
H-O
A F#m
Bm
E
E---9----9-----7-----------B--10---10-----7---------9-G---9---11-----7---------9-D--11---11-----9---------9-A--12----9-----9---9-11-(11)
E--------------7-----------Remember all the days in the pond
Catchin' wild trout till the break of dawn
Now that you've become a man, looking very mean
Got a nice shiny sports car, keep it very clean
Don't ask him what it was, tell him what it is
Sing the song now
Ya mar, ya mar, ya mar, ya mar,
ya mar, ya mar, ya mar, you're no good pah
She
Now
You
Now

used to be a vampire child, walkin' in the yard


that she's become a woman, lookin' very proud
used to wear a piece of cloth tied around your head
she looks so good, wanna love you dead

Don't ask her what it was, tell her what it is


Sing the song now
Ya mar, ya mar, ya mar, ya mar, ya mar, ya mar,
ya mar, you're no good pah

Yarmouth Road
Intro: G#m
e|-4s7s4s7s4------------|
B|------------4s7s4s7s4-|
G|----------------------|
D|----------------------|
A|----------------------|
E|----------------------|
G#m
A
I dig a deep hole, bees buzzing all around
E
But I know you'll be happy
B
G#m
That I'm pouring concrete on the ground

G#m

G#m
A
Hoist up posts and beams erratically
E
B
Garden plot's beautiful, painter gets at it
G#m
A
G#m
But I guess I should've checked with you somehow
(slide-thing)
e|-----------|
B|-6s9s6s9s6-|
G|-----------|
D|-----------|
A|-----------|
E|-----------|
G#
Eb
Thought I could get you to come to
G#
Eb
Hang with the bees and buzz in the
G#
Eb
All I ever wanted you to do was to
G#
Eb
Hang with the bees and buzz in the

Bbm
Yarmouth Road
Bbm
honeycomb
Bbm
come on home
Bbm
honeycomb

Db
(slide-thing)
Db
Db
(slide-thing)
Db

G#m
A
I filled up the shelves with funny books to laugh to
E
B
Lazy Susan has some of the mocha rings that you love
G#m
A
G#m
Registered our names so they'll know where to bring us our mail
G#m
A
Couldn't find flat wax for all the mahogany
E
B
Didn't we see some walking through a trade show
G#m
A
G#m
Does any of this even start to ring a bell?
G#
Eb
Bbm
Thought I could get you to come to Yarmouth Road
G#
Eb
Bbm
Hang with the bees and buzz in the honeycomb
G#
Eb
Bbm

Db
(slide-thing)
Db
Db

All I ever wanted you to do was to come on home


G#
Eb
Bbm
Hang with the bees and buzz in the honeycomb
F#
Db
Eb
Fm
when we need to roam

(slide-thing)

Fm
Eb
Blind faith stings hastily
Fm
My faith brings me right to the flower shop
Eb
Bbm
F#
Db
I'd like that bouquet please, wrap some of those extra green things around the stems
F#
G#m
A little card to write on if you have them
G#m
A
Candles are lit all the red napkins folded
E
B
Pecan pie wafting fumes from the oven
G#m
A
G#m
Turn off all the ringers on the phones
G#m
A
Look out the window see headlights passing by
E
B
Maybe I don't see you and I don't really know why
G#m
A
G#m
Don't make me feel like a guest in our own home
G#
Eb
Thought I could get you to come to
G#
Eb
Hang with the bees and buzz in the
G#
Eb
All I ever wanted you to do was to
G#
Eb
Hang with the bees and buzz in the

Bbm
Yarmouth Road
Bbm
honeycomb
Bbm
come on home
Bbm
honeycomb

Db
(slide-thing)
Db
Db
(slide-thing)
Db

You Enjoy Myself


Intro:
Bbmaj7
|---------------------------------------------------13--------|
|----------------15-15---------------------------15----15-----|
|-------------15-------15---------------------15----------15--|
|-------12h15------------15-12----------12-15-----------------|
|-12h13------------------------13p12h13-----------------------|
|-------------------------------------------------------------|

etc.

(Pause for 2 measures)


Gm
C
F
C
|-------------------|-------------------|-------------------|-------------------|
|----------------15-|-13----------------|----------------13-|-------------------|
|----------12-15----|----12-------------|-------------14----|----------12-------|
|-------12----------|-------14----------|----------15-------|-------------14----|
|----13-------------|----------15-------|----12-15----------|-15-12----------15-|
|-15----------------|-------------15-12-|-13----------------|-------12----------|
Eb
Gm
C
|-------------------|-------------------|----------------------------------|
|-------------------|-------------------|----------------------------------|
|-------------12-15-|----15-12----------|-------------------------12----12-|
|----------13-------|-12-------12-------|-------------------14-------14----|
|-------13----------|-------------13----|-15-------15----15----15----------|
|-11-15-------------|----------------15-|----12-15----15-------------------|
Eb
Bb
F
C
|-------------------|-------------------|-------------------|--------------12---|
|-------------------|-------------------|----------13-------|----------/13------|
|----15-12----------|-------------------|-------------14----|-------12----------|
|-13-------13-------|--------8--8-------|----------------15-|----14-------------|
|-------------13----|----10-------10----|----12-15----------|-15----------------|
|----------------15-|-10----------------|-13----------------|-------------------|
Eb
Bb
C
|----18-15----------|-------------------|-20-15-----------------|
|---x------16-------|----------15-18----|-------17--------------|
|--x----------15----|-------15----------|----------17-----------|
|-x--------------17-|----17-------------|-------------17-14-----|
|-------------------|-17----------------|-------------------15--|
|-------------------|-------------------|-----------------------|
Gm
C
F
Bb
|-------------------|-------------------|-------------------|------------------|
|----------------15-|-13----------------|----------------13-|------------------|
|----------12-15----|----12-------------|-------------14----|-15-10------------|
|-------12----------|-------14----------|----------15-------|-------12---------|
|----13-------------|----------15-------|----12-15----------|----------13------|
|-15----------------|-------------15-12-|-13----------------|------------15-10-|
Eb
Am7b5
D
|-------------------|-------------------|----------14-------------------|
|-------------------|----------12-------|-------15----15----------------|
|-------------12-15-|-14----------14----|----14----------14-------------|
|----------13-------|----13----------13/|/16----------------16----------|
|-------13----------|-------14----------|----------------------17-------|
|-11-15-------------|-------------------|-------------------------17-10-|

Eb/G
D
Gm
|-------------15-18-|-15----------------|-------------14-17-|-----------15------|
|----------14-------|----16-------------|----------15-------|-15----------15----|
|-------15----------|-------15-15-------|-------14----------|----15---------15--|
|----17-------------|-------------17----|----16-------------|-------17----------|
|/18----------------|----------------18-|-17----------------|-------------------|
|-------------------|-------------------|-------------------|-------------------|
Eb/G
Am7b5
D
|-------------15-18-|-17----------------|----------------------------14----14-|
|----------14-------|----16-------------|-------------------15----15----15----|
|-------15----------|-------17\14-------|----------14----14----14-------------|
|----17-------------|-------------13----|-16----16----16----------------------|
|-18----------------|----------------15-|----17-------------------------------|
|-------------------|-------------------|-------------------------------------|
|-15-------------|
|---15-----------|
|-----16---------|
|-------17-------|
|----------17----|
|-------------19-|
G
Am
Bm
C
|----------15-------|----------17-------|----------19-------|-------15-20-15----|
|-------15----15----|-------17----17----|-------19----19----|----17----------17-|
|----16----------16-|----17----------17-|----19----------19-|-17----------------|
|-17----------------|-19----------------|-21----------------|-------------------|
|-------------------|-------------------|-------------------|-------------------|
|-------------------|-------------------|-------------------|-------------------|
Eb
Gm/D
C
D
|-18p15----18p15----|-18p15----18p15----|-------15-20-15----|-------17-22-17----|
|-------16-------16-|-------15-------15-|----17----------17-|----19---------19--|
|-------------------|-------------------|-17----------------|-19----------------|
|-------------------|-------------------|-------------------|-------------------|
|-------------------|-------------------|-------------------|-------------------|
|-------------------|-------------------|-------------------|-------------------|
G
Am
Bm
C
|-------10-------10-|-------12-------12-|-------14-------14-|-------15-------15-|
|----12-------12----|----13-------13----|----15-------15----|----17-------17----|
|-12-------12-------|-14-------14-------|-16-------16-------|-17-------17-------|
(6x)
|-------------------|-------------------|-------------------|-------------------|
|-------------------|-------------------|-------------------|-------------------|
|-------------------|-------------------|-------------------|-------------------|
G (repeat 4 measures)
|-----------------------------------|
|-----------------------------------|
|-----------------------------------|
|-----0-----0-----0-----0----0----0-|
|---2-----2-----2-----2----2----2---|
|-3-----3-----3-----3---------------|
Repeat between " |: :| " (an appropriate number of times)
|---------------|-------------------|---------| \
|---------------|----------12----13-|-----12--|
\
|*----12----12-*|----14-------------|*-------*|
\ (2x)
|*-------------*|-------12----14----|*-12----*|
/
|--14----14-----|-15----------------|---------|
/
|---------------|-------------------|---------| /

\
\
\
/
/
/

Snare drum hit


C/E
G/D
Am7/C
G/D
|-----------------|-----------------|-----------------|-----------------|
|-----------------|-----------------|-----------------|-----------------|
|-----5-----5-----|-----4-----4-----|---0h2---0h2---0-|-----4-----4-----|
|---5-----5-----5-|---5-----5-----5-|-----------------|---5-----5-----5-|
|-7-----7-----7---|-5-----5-----5---|-3-----3-----3---|-5-----5-----5---|
|-----------------|-----------------|-----------------|-----------------|

\
\
\ (6x)
/
/
/

C/E
G/D
Am7/C
G/D
|-----------------|-----------------|---------------------|-------------------------|
|-----------------|-----------------|---------------------|-------------------------|
|-----5-----5-----|-----7-----7-----|------9------11---11-|-------12-------12-------|
|---5-----5-----5-|---5-----5-----5-|---10-----10---------|----12-------12-------12-|
|-7-----7-----7---|-5-----5-----5---|---------------------|-------------------------|
|-----------------|-----------------|-8------8-------8----|-10-------10-------10----|
C/E
G/D
Am7/C
(no chord)
|-----8-----8-----|-----7-----7-----|-----5-----5---|---5---7---8----10-|
|---8-----8-----8-|---8-----8-----8-|---5-----5-----|-------------------|
|-9-----9-----9---|-7-----7-----7---|-5-----5-----5-|-5---7---9---11----|
|-----------------|-----------------|---------------|-------------------|
|-----------------|-----------------|---------------|-------------------|
|-----------------|-----------------|---------------|-------------------|
|---12----10---8----12----|-10---8---7----10---10-------------------|
|-------------------------|-----------------------------------------|
|12----11----9---12----11-|----9---7---11---11----------------------|
|-------------------------|------------------------0--0--0--0-0~~~~-|
|-------------------------|-----------------------------------------|
|-------------------------|-----------------------------------------|
|---5---8---8----10-----------|---5---8---8----10---8-----7-6-5-|
|-----------------------------|---------------------------------|
|-7---9---9--/11--------------|-7---9---9--/11----9---6/7---6-5-|
|-------------------0-0-0-0-0-|---------------------------------|
|-----------------------------|---------------------------------|
|-----------------------------|---------------------------------|
|-3-5/7-5-----|
|-x-----------|
|-4-5/7-5--*--|
|----------*--|
|-------------|
|-------------|
*=Harmonics.
|-0---0---|
|-0---0---|
|-0---0---|
|-16--14--|
|-17--15--|
|-19--17--|

\
\
\(4x)
/

Funky chords with bass


jam-strum from 1st string
to 6th string.

/
/

D
A
E
D
|-0-0-0-0-10-10-10-9--9--9--12-12-12-10-10-10-9--9--9--|
|-0-0-0-0-10-10-10-10-10-10-12-12-12-10-10-10-10-10-10-|
|-0-0-0-0-11-11-11-9--9--9--13-13-13-11-11-11-9--9--9--|
|-0-0-0-0-0--0--0--0--0--0--0--0--0--0--0--0--0--0--0--|
|-0-0-0-0-0--0--0--0--0--0--0--0--0--0--0--0--0--0--0--|
|-0-0-0-0-0--0--0--0--0--0--0--0--0--0--0--0--0--0--0--|

E E

D/F#

A/B

D/F#

A/B

| (6x)

_*
+ Note that it uses a ton of bends and slides; do likewise, because it
really makes the sound of the solo. I've put the implied notes in
parentheses; this is when you bend a string to hit a note but don't
pluck it again. For example 14 (16) 14 where the 14 is bent up two means
to strike the string on the 14th fret, bend it up a whole step, then
release the bend, all on one pluck.
G

F
1

1
1
/
/
/
|-----|-15-17-(19)/15---------|------------------------------------------|
|-----|--------------17-16-15-|----15------------------------------------|
|-/16-|-----------------------|-/16--16-15-14--12/14-(16)-14p12-14-12/14-|
|-----|-----------------------|--------------14--------------------------|
|-----|-----------------------|------------------------------------------|
|-----|-----------------------|------------------------------------------|
(Hold that bent 14...)
\-G

F
1

1/4
1
/
/
/
/
|-15-------------------------15-------------------------|------12------------------|
|-------------------------15----15------------------15--|-(17)----15-12----12------|
|---(16)-14p12--14--12-14-(16)-----(16)-14p12----12-----|---------------14---14-12-|
|-------------14--14--------------------------14--------|--------------------------|
|-------------------------------------------------------|--------------------------|
|-------------------------------------------------------|--------------------------|
---------/
\----------------/
\------/
G

F
1/2

1/2

1/2

/
/
/
|-17---17---15-------------------------------|-------15------------------------|
|--------------17-15--15-17-(18)-17-15p17-15-|---------17-16-15-------15-------|
|-------------------17-----------------------|-15/16------------15/16---~~\16--|
|--------------------------------------------|---------------------------------|
|--------------------------------------------|---------------------------------|
|--------------------------------------------|---------------------------------|
G
1/2
1/2
1/2
1
1
/
/
/
/
/
|-17---15---------------------------------------------|-----------------------------------------|
|---------17-(18)-17-15p17-(18)-17p15---15------------|-----------------------------------------|
|------------------------------------/16--16-15-14-12-|----12-14-(16)-14p12-14-12-14-(16)-14p12-|
|-----------------------------------------------------|-14--------------------------------------|
|-----------------------------------------------------|-----------------------------------------|
|-----------------------------------------------------|-----------------------------------------|

Em7 Fmaj7 (6x)

F
1

1
/
/
|-----|-15-17--(19)--15---------|-------------------------------|
|-----|----------------17-16-15-|----15-------------------------|
|-/16-|-------------------------|/16---16-15-14--12-14-(16)-14--|
|-----|-------------------------|--------------14---------------|
|-----|-------------------------|-------------------------------|
|-----|-------------------------|-------------------------------|
G

F
1

1
/
/
/
|-22--22-20-19-20-(22)-20-19----|--------------19-22-(24)-22-19-22-19-|
|----------------------------20-|-----------20------------------------|
|-------------------------------|-19--19-21---------------------------|
|-------------------------------|---21--------------------------------|
|-------------------------------|-------------------------------------|
|-------------------------------|-------------------------------------|
G

1
/
|-----3-----------------------------|------------------|
|-------5-3-5-(6)-5-3p5-3---3-------|------------1-/13-|
|-3h4--------------------/4---4-3-2-|-0-----0--0-------|
|-----------------------------------|---0h2--2---------|
|-----------------------------------|------------------|
|-----------------------------------|------------------|
|
|

B
F

C C# C#sus C# | D Eb
F# G G# A A# B C C# D

E Esus E

Verses:
Gm7
Boy

C9

Gm7
Man

C9

Gm7
God

C9

Gm7 C9
Shit
Gm7
Won't you fix it; drive me to Farensay
Gm7 C9
|-15--15-|
|-15--15-|
|-15--15-|
|-15--14-|
|-x---15-|
|-15-----|

C9