Vous êtes sur la page 1sur 3

Jour 1 Chords by Louane tabs @ Ultimate Guitar Archive

19/06/2015 10:54

Jour 1 Chords by Louane


+
|
|
|
|
|
+

--------------------------------------------------------------------- +
Ultimate Guitar Tabs Archive - your #1 source for tabs!
|
http://www.ultimate-guitar.com/
|
|
Over 800,000 guitar, guitar pro and bass tabs! Also lessons, news,
|
columns and guitar forums!
|
--------------------------------------------------------------------- +

Artist: Louane
Song: Jour 1
Capo 3
Am Em Am Em
Am
Jour 1 amour numro 1
Em
C'est l'amour suprme, dis-moi que tu m'aimes
Am
Je veux un jour numro 2
Em
Une suite lhtel, supplment mortel
G
F
Je t'ai regard toute la nuit
G
E
Danser sur mon me les plus permis
Am
9 jours La vie c'est du velours
Em
Et l'ternit, une ncessit
Am
Jour 10 variation du dlice,
Em
Que voudrais-tu faire ? Une balade en mer ?
F
Chaque jour, dpendance l'amour,
G
Pas de danse autour

C
G
C'est le jour 1, celui qu'on retient,
Am
Em
Celui qui s'efface quand tu me remplaces,
F
G
Quand tu me retiens, c'est celui qui revient
C
G
C'est le jour 1, celui qu'on retient,
Am
Em
Celui qui s'efface quand tu me remplaces,
F
G
Quand tu me retiens, c'est celui qui revient

Am
100 jours si c'tait un jour 100
Em
Sans en avoir l'air de l'orage dans l'air
Am
Jour 1000 t'as touch dans le mille
Em
Et sans strbanthine cach dans la poitrine
F
Chaque jour, dpendance l'amour,

http://tabs.ultimate-guitar.com/print/1721397

Page 1 sur 3

Jour 1 Chords by Louane tabs @ Ultimate Guitar Archive

19/06/2015 10:54

G
Pas de danse autour

C
G
C'est le jour 1, celui qu'on retient,
Am
Em
Celui qui s'efface quand tu me remplaces,
F
G
Quand tu me retiens, c'est celui qui revient
C
G
C'est le jour 1, celui qu'on retient,
Am
Em
Celui qui s'efface quand tu me remplaces,
F
G
Quand tu me retiens, c'est celui qui revient

F G Am Em F G
(*) jouer qu'une fois

C(*)
G(*)
C'est le jour 1, celui qu'on retient,
Am(*)
Em(*)
Celui qui s'efface quand tu me remplaces,
F(*)
G(*)
Quand tu me retiens, c'est celui qui revient
C
G
C'est le jour 1, celui qu'on retient,
Am
Em
Celui qui s'efface quand tu me remplaces,
F
G
Quand tu me retiens, c'est celui qui revient
C
G
C'est le jour 1, celui qu'on retient,
Am
Em
Celui qui s'efface quand tu me remplaces,
F
G
Quand tu me retiens, c'est celui qui revient
C G Am Em F G C
Je me suis base sur ce live pour avoir tous les accords et avoir le rythme galement
https://www.youtube.com/watch?v=M4ZAnYirJB0
END
+--------------------------------------------------------------------------+
| This file is the author's own work and represents their interpretation
|
| of the song. You may only use this file for private study, scholarship, |
| or research.
|
+--------------------------------------------------------------------------+
Ultimate-Guitar.Com 2015
Show/hide chords diagrams

Add more chord diagrams to the list:

C
http://tabs.ultimate-guitar.com/print/1721397

F
Page 2 sur 3

Jour 1 Chords by Louane tabs @ Ultimate Guitar Archive

E
B
G
D
A
E

|---|---|---|---|---|
|-1-|---|---|---|---|
|---|---|---|---|---|
|---|-2-|---|---|---|
|---|---|-3-|---|---|
|---|---|---|---|---|

o
o
o
o
o
x

E
B
G
D
A
E

19/06/2015 10:54

|---|---|---|---|---|
|---|---|---|---|---|
|-1-|---|---|---|---|
|---|-3-|---|---|---|
|---|-2-|---|---|---|
|---|---|---|---|---|

o
o
o
o
o
o

E
B
G
D
A
E

|-X-|---|---|---|---|
|-X-|---|---|---|---|
|-X-|-2-|---|---|---|
|-X-|---|-4-|---|---|
|-X-|---|-3-|---|---|
|-X-|---|---|---|---|

o
o
o
o
o
o

1 fr.

G
E
B
G
D
A
E

|---|---|-3-|---|---|
|---|---|---|---|---|
|---|---|---|---|---|
|---|---|---|---|---|
|---|-1-|---|---|---|
|---|---|-2-|---|---|

Em
o
o
o
o
o
o

http://tabs.ultimate-guitar.com/print/1721397

E
B
G
D
A
E

|---|---|---|---|---|
|---|---|---|---|---|
|---|---|---|---|---|
|---|-2-|---|---|---|
|---|-1-|---|---|---|
|---|---|---|---|---|

Am
o
o
o
o
o
o

E
B
G
D
A
E

|---|---|---|---|---|
|-1-|---|---|---|---|
|---|-3-|---|---|---|
|---|-2-|---|---|---|
|---|---|---|---|---|
|---|---|---|---|---|

o
o
o
o
o
x

Page 3 sur 3