Vous êtes sur la page 1sur 46

PROGRAMA APROBADO POR LA CTEDRA DE DERECHO ROMANO

SEGUNDO SEMESTRE
ROMANO II
Tema I
DERECHO DE FAMILIA
1. Familia Romana.
Caracterstica de la familia romana. Familia propio iure y familia communi
iure
2. Poderes del Paterfamilias.
El Paterfamilias. El ius noxae dandi. Siglo se inicia la intervencin
legislativa. La tica cristiana.
3. Modos de entrar la familia.
Modos de entrar en la familia. Iustus. Hijo nacido en iustae nuptiae. Hijos
iusti en el derecho clsico y en el derecho justineaneo, Hijos habidos en
concubinato y de uniones no estables.

La adopcin. Concepto La

adrogatio. Efectos de la adrogatio. Medidas de cumplimiento de la


arrogacin y la grave alteracin familiar. Medidas de Antonino Pio en
proteccin del arrogado. La conventio in manum. La confarreatio. La
coemptio. El usus.
4. Extincin de la patria potestas y de la manus.
Evolucin de la coemtio in manum, y desaparicin. Ruptura del vnculo
familiar y no

determinacin del ingreso en una nueva familia. La

emancipacin. Procedimiento para la emancipacin en la poca antigua y


clsica. La emancipacin per rescriptum principis. Regla de Justiniano.
Casos en que el padre puede ser obligado a emancipar. La diffarreatio.
5. Agnacin, Cognacin y Afinidad.
La adgnatio. La cognatio. La afinidad. Regulacin del ius civile de
acuerdo con la adgnatio. Regulacin del ius civile de acuerdo con la
cognatio. Los ascendientes. Los descendientes. Los grados.
6. Patria potestas y las relaciones patrimoniales.
Derechos patrimoniales. Los bona materna y que importancia tienen de
acuerdo con la legislacin de Constantino. Cambio importante
Derecho Justineaneo.
7. Peculios

en el

Origen. Peculiium profecticium El peculium castrense de la poca de


Augusto. Cambio fundamental en el Derecho justineaneo. El peculium
quasi castrense. El rgimen de los peculios en la poca justineanea.
8. Matrimonio y disolucin.
Concepto de matrimonio en el Derecho romano. La affectio maritalis. La
deductio in domun mariti. Diferencia fundamental en el matrimonio actual.
Definicin de Modestino de matrimonio. Requisitos del matrimonio
romano. El conubim. El contubernium. Requisitos del matrimonio: 1) En
cuanto a la capacidad natural.2) En cuanto a la capacidad jurdica. La Ley
Canuleia. la Constitucin Antonina -212 D. C. la capacidad de los
peregrinos. El consentimiento del paters cuando no son sui iuris. En
cuanto El consentimiento del Paters. Impedimentos absolutos. Matrimonio
anterior. Esclavitud.

Religin. Impedimentos relativos. Parentesco de

sangre. Parentesco espiritual. Afinidad. Adulterio y el rapto.

Razones

especiales. Despus de la disolucin del matrimonio. Causas de


disolucin del matrimonio. Muerte. Capitis deminuto mxima. Por capitis
deminutio media. Por sobrevenir Impedimento sobreviniente. Divorcio.
Divorcio en la poca pagana. Prohibicin

en poca de Justiniano. En

poca de Justiniano II, las tres clases de divorcio permitidas. Divortium ex


iusta causa. Las tres causales. Divortium sine causa. Repudium.
Consecuencias patrimoniales. Divortium bona gratia.
9. Esponsales y concubinato.
Concepto de esponsales. Cmo se contraan. La sponsio. Incumplimiento
de la Sponsio. poca que se establecen. Las arrhae sponsaliciae. La
sancin por incumplimiento. La sponsalicia largitas. Falta de celebracin
del

matrimonio. Efectos producen los esponsales en el Derecho

justinianeo. Concepto del concubinato En la poca clsica. En el Derecho


justineaneo
10. Filiacin natural y legitimacin.
Los hijos naturales en el periodo postclsico. Condicin siguen los hijos.
La legitimacin en la poca postclsica. Las tres formas que adopta la
legitimacin.

La

legitimacin

Per

subsequens

matrimonium.

La

legitimacin Per oblationem curiae. La legitimacin Per rescriptum


principis.
11. Adopcin.
Concepto. El procedimiento pontifica. negacin de la adopcin.
Consecuencias origina la adoptio. Influencia de las normas de la familia
natural. La adopcin en la poca justineanea. Clases de adopcin en el
Justineano.
12. Relaciones patrimoniales entre cnyuges, Donacin nupcial.
Los tres regmenes en el curso histrico. El rgimen de absorcin de bienes.
El rgimen de separacin de bienes. Los bienes parafernales. La constitucin
de Teodosio y Valentiniano. Los bienes parafernales en el Derecho justinianeo.
La prohibicin de las donaciones entre cnyuges.
Las excepciones a esta prohibicin. La dote. La dote en el matrimonio
cum manus. El fundamento en el matrimonio libre. La evolucin la dote. La
res mulieris. Consecuencia al disolverse el matrimonio. La restitucin de la
dote en la lex Iulia de adulteriis.
12.1 La donacin nupcial,
Concepto. La costumbre en los pueblos orientales del imperio y

su

finalidad. La donatio propter nuptias en el Derecho justinianeo. La falta de


celebracin del matrimonio por culpa de la novia. Celebracin del matrimonio
divorcio por culpa de ste. Muerte de cualquiera de los novios sin celebrarse
el matrimonio.. El osculo interveniente y su importancia. Disolucin del
matrimonio por muerte del marido. El marido en relacin con los bienes
donados. Situacin de la viuda. Relacin de la donacin nupcial y la dote.
13. Tutela y curatela. Tutela de impberes y de mujeres.
a. Definicin de Servio de la tutela. Atributo en los primeros tiempos la
tutela. Personas a quines se le atribuyeron. La Tutela impuberum.
Concepto. La tutela mulierum. Concepto.
b. La curatela.
Objeto l El curator ventris. El cuartor absentis. El curator bonorum. El
hereditatis iacentis.
13.3 Especies de tutela.
La tutela testamentaria. La atenuacin que se oper en cuanto a
que la tutela sea comunicada por el Pater y en testamento. La tutela
3

legtima en los primeros tiempos. Modificacin que hizo Justiniano. La


tutela En el Derecho romano incapacidad de ejercer la tutela. La
posibilidad

de ejercerla el fillifamilias La tutela en el Derecho

posclsico. Excusas de ejercer la tutela. Excusas del tutor dativo.


Extensin de las escusationes

en la poca clsica. Otras

excusationes. Funciones del tutor. La autoritatis interpositio. La


negotiorum gestio. Funciones del tutor. Actos no puede realizar el
tutor.Ordenacin Justiniano en proteccin del pupilo. La acussatio
suspecti tutoris. La actio rationibus distrahendis
Fundamentacin de la tutela. La levitas animi segn Gallo. La tutela
testamentaria. Latutela legtima. Actuacin del tutor como negotiorum

La

funcin del tutor. La evitacin de la tutela a comienzos de la Repblica. La


lex Julia Papia Poppaea. La lex Claudia. La curatela. La cura furiosi. El
comienzo de la curatela. La curatela testamentaria. La curatela dativa. La
funcin del curador. La cura prodigi. poca en que nace la curatela.
Solicitud del curator. El curator en el derecho Justinianeo. La tutelas de
impberes. La tutela de las mujeres. Evolucin.

TEMA II
OBLIGACIONES.
1.- Concepto y evolucin histrica.
Concepto. Definicin de obligacin de las Instituciones de Justiniano. Evolucin
histrica. Los primeros tiempos. El mutuo. El nexum, El estado de prisin.
2.- Prestacin y clase de obligaciones.
El objeto. La prestacin. Dare, praestare, facere. Obligaciones, posibles,
imposibles,

lcitas,

patrimoniales,

ilcitas,

divisibles,

determinadas

indivisibles.

indeterminadas,

poca

clsica,

alternativas, facultativas. Genricas. Genus non perit


3.- Sujetos y distintas tipos de obligaciones.

determinables,

poca

justinianea,

Obligaciones propter rem. Obligaciones solidarias. Fuentes de las obligaciones


solidarias. En el Derecho Clsico. En el Derecho Justinianeo.
4.- Obligaciones naturales.- Concepto. Obligaciones naturales impropias. La
solutio retentio.
5,. Fuentes de las obligaciones. La Clasificacin de las Instituciones de
Gallo.El contractus. Exdelicto. Las clasificaciones en el Derecho Romano. La
clasificacin justinianea.
6.- Cumplimiento e incumplimiento de las obligaciones. Mora, garantas,
(fianza, arras, clusula penal, juramento), extincin de las obligaciones
(ipso iure, ope exceptionis), transmisin de crditos y deudas.
6.1.- Pago.
Concepto de pago. Significado de solutio, Evolucin del trmino. El lugar de
pago: inmueble, en construccin, cosas fungibles, acciones personales, la actio
de eo quod certo Loco. El tiempo. El incumplimiento. Imposibilidad de
cumplimiento. Obligaciones genricas. En el dare oportere. En los iudicia bona
fides. El sistemas de responsabilidad en varias gradaciones. El dolus. La culpa
lata. La culpa levis. La culpa in concreto. La culpa in abstracto. El incumplimiento
imputable al deudor. El quanti ea res est. El id quo interest. El dao directo e
indirecto.
6.2.- Mora, garantas, (fianza, arras, clusula penal, juramento). Concepto. El
principio dies interpellat pro homine. Perecimiento de la cosa en estado de mora.
La mora del acreedor. Caso en que responde el deudor.
La oferta real de pago. La exceptio con que cuenta el deudor.
6.3.- Garantas: Reales y personales.
6.4.-La fianza. Concepto. La tres clases del Derecho prejustinianeo. La sponsio.
La fidepromissio. La fideiussio. El beneficium divisionis. El beneficium
excussionis. La accin de regreso.
6.5.- Las arras. Concepto. Funciones.
6.6.-Clusula penal. Funciones.
6.7.-El juramento. Funciones
5

6.7,- Extincin de las obligaciones (ipso jure y ope exceptionis). Tiempo en


que pueden ser invocada. Causas de extincin ipso jure. La solutio per aes et
libram. La acceptilatio. El consensus contrarius. La novatio. La novacin
subjetiva. La novacin objetiva. El concursus causarum. La confusin. La muerte.
La capitis deminutio. Causas de extincin ope exceptionis. La compensatio. En
la poca clsica. En la poca justinianea. El pactum de non petendo. La
praescriptio longi temporis.
6.8.- Transmisin de los crditos y de las deudas. En la poca preclsica. En
el procedimiento formulario. Los inconvenientes. Las acciones tiles. Los
inconvenientes de estas acciones. El Derecho justinianeo.
6.9.- Las deudas. El sistema empleado. Los inconvenientes.
Tema III
CONTRATOS
1.- Contratos reales (mutuo, comodato, prenda, depsito, fiducia)
Clasificacin de los contratos. Concepto de contratos de la poca clsica.
Contratos reales en el Digesto. Contratos sinalagmticos perfectos e imperfectos
1.1.-El mutuo.
Concepto del mutuo. Requisitos. La datio.

1.2.- El comodato.
Concepto. Requisitos
1.3.-La prenda.
Concepto. El requisito necesario para el perfeccionamiento. Obligaciones
eventuales podra tener el acreedor. La accin pignoraticia directa. La accin
pignoraticia contraria.
1.4- El depsito.
Concepto. Requisitos. Contrato sinalagmtico imperfecto.
1.5- La fiducia.
Concepto. Fiducia cum creditore. Fiducia cum amico. La actio fiduciae. La actio
fiduciae contraria

2.- Contratos consensuales (compraventa, arrendamieto, sociedad,


mandato)
2.1- Contratos consensuales. Concepto.
2.2.-Compraventa. Concepto. Objeto. El precio: doctrina sabiniana y
proculeyana. El precio justo. La actio empti o ex empto. La actio venditi o
exvendito. Imposibilidad de entrega de la cosa. La eviccin. Los vicios ocultos. La
actio de modo agri. La actio redhibitoria. La actio quanti minoris. El pactum de
retro vendendo. El pactum de retro emendo. La lex commisoria. In diem addictio.
Qu es el pactum displicintiae.
2.3.-El arrendamiento. la locatio conductio. la locatio conductio rei. Accin real.
Accin Personal. Precio. Obligaciones del locator. Obligaciones del conductor.
La locatio conductio operis. La locatio conductio operarum.
2.4.- La sociedad. Concepto. Aporte de los socios. La societas leonina
Personalidad jurdica.
2.5.-El mandato. Concepto. Perfeccionamiento. Gratuidad. Causas de extincin,
3.- Contratos formales, (contratos innominados, pactos)
3.1.- Contratos formales.
Concepto. Verbales. Literales. Antigedad.
3.2.- Contratos verbales. El nexum. La stipulatio. Requisitos formales de la
stipulatio. La dotis dictio. El iusiurandum liberti.
3.3.-Contratos literales. La nmina transcripticia. La syrigrafha. La quirografha.
3.4.-Contratos innominados. Concepto. La agrupacin. Do ut des. Do ut facias.
Facio ut des. Facio ut facias. El contrato estimatorio La permutatio. El precarium.
3.4.- Los pactos. Concepto. El pacto de non petendo. La exceptio pacti conventi.
Tema IV.
ACTOS LCITOS NO CONTRACTUALES
1.- Promesa unilateral. Gestin de negocios. 3. Enriquecimiento
injusto. Communio incidens.
1.1.- Promesa Unilateral. Concepto. Validez jurdica en el Dere cho
Clsico y en el Derecho Justinianeo.
7

1-2.- Gestin de negocio. Concepto de la negotiorum gestio. Obligacin


del gestor. Obligacin del dominus negotti. poca en que se desarrolla el
concepto.
3..- Enriquecimiento injusto. Concepto. La solutio indebii en el Derecho
clsico. La condictio en el Derecho justinianeo. La condictio indebiti. La
condictio sine causa.
3.1.-La communio incidens. Concepto. La actio commidividundo.
Tema V
ACCIONES DERIVADAS DE ACTO ILCITO
1.- Delitos (furtumm, rapina, damnum injuria datum, iniuria). 2.
Cuasidelitos
1.1.-Delitos. Concepto. Delitos de carcter pblico. Nombre. Pena. Delitos
de carcter

privado. Nombre. Pena.

1.2.-El Furtum. Concepto. Definicin del Digesto. Tipos de acciones.


1.3.- Rapina Concepto segn Gayo. La actio in cuadruplum. Cambio en
el Derecho justinianeo.
1.4.-Damnun injuria datum. Concepto. La lex aquilia. Eldao
extracontractual. Las causas.

Significado de corpore. y corporis. Cambio

en el Derecho Justinianeo.
Iniuria Concepto. Los casos en la Ley de las XII tablas. El cambio en el
Derecho imperial.
2.- Cuasidelitos. Los actos perseguidos por el pretor como ilcitos.
Tema VI
DERECHOS HEREDITARIOS Y DONACIONES.
1. Sucesin testada. E
2. l testamento, interpretacin e invalidez. 2. Capacidad para
testar. El heredero. 3. Sucesin intestada, legitimarios,
adquisicin de la herencia. 4. Aceptacin. Requisitos y
modalidades. 5. Delacin y desheredacin, donaciones.
8

1.- Sucesin Testada. El testamente, interpretacin e invalidez.


1.1.-Sucesin.
Concepto.
1.2.- Testamento.
Definicin de Modestino. Definicin segn los intrpretes. Caractersticas.
Acto unilateral. Acto personalsimo. Acto formal. Acto revocable. Institucin de
heredero.
1.3.- Interpretacin.
La forma y la voluntad.
1.4.- Invalidez
Causas de invalidez inicial. Causas de invalidez posterior al testamento. La
capitis deminutio del testador. Incumplimiento de la condicin suspensiva.
La repudiacin de la herencia. La revocacin.
2.- Capacidad para testar. El heredero.
2.1.- Capacidad para testar.
Concepto.
2.2.. El heredero. Capacidad para ser instituido heredero. El legado.
Legatum per vindicationem. Legatum sinendi modo. Legatum speciei.
Legatum generis legatum partitionis. El fideicomiso
3.- Sucesin intestada, legitimarios, adquisicin de la herencia.
3.1.-Sucesin intestada. Concepto. Procedencia. Las ordenes. Las tres
categoras de herederos en el puro ius civile Los heredes sui. El agnado
ms prximo. Los gentiles. Derecho pretorio. La bonorum possessio unde
liberi. Los nuevos llamados. La bonorum possesio unde letgitimi. La
Bonorum possessio unde cognati. Los grados de los descendientes
ascendientes y colaterales por cognacin. Cambio de Justiniano en la
Novelas La sucesin necesaria formal. El ius civile. El Derecho Pretorio.
3,2, Legitimarios.

La sucesin necesaria sustancial. La sancin por incumplimiento.


Personas que tenan derecho a establecer la accin.
3.3-La adquisicin de la herencia
Adquisicin automtica de la herencia. Aceptacin o renuncia libre de la
herencia. Hereditas damnosa. El ius abstinendi. El ius separationis. Los
requisitos de la aceptacin. La capacidad del aceptante El ius capiendi. Las
maneras de hacer la aceptacin. La aceptacin expresa. La aceptacin tcita.
5.- La delacin. Desheredacin. Donaciones.
5.1 La delacin.
Concepto. La hereditas iacens. Los bienes en el Derecho antiguo. Los bienes en
el Derecho justinianeo- La Usucapio pro herede .La confusin hereditaria. Las
responsabilidades del heredero. El Beneficium inventarii. La pluralidad de
herederos. El derecho de acrecer. La Collatio. Finalidad de tomar en cuenta las
donaciones de los herederos forzosos.
5.1.- Desheredacin.
Concepto.
5.3.- La donacin
Concepto. Los tres elementos. La donatio mortis causa. La transformacin en el
Derecho justinianeo.

METODOLOGA.
El alumno no es objeto enseanza, en la cual el profesor vierte en la clase sobre
l sus conocimientos, sino sujeto de enseanza, es decir que el alumno es el
10

obligado a investigar y analizar, y aprender todos los puntos del programa,


relacionarlos con el Derecho actual, as como resolver los casos prcticos de
Derecho romano que se le presenten, incluyendo los conocimientos del semestre
anterior, todo

bajo la orientacin del profesor. Para facilitar la investigacin el

profesor puede suministrarle preguntas sobre conceptos fundamentales, sin que


ello signifique en modo alguno, que no pueda preguntrsele sobre temas vistos
en clase, o pedir las explicaciones y ejemplos sobre dichos conceptos o sobre
conceptos fundamentales que el alumno debe dominar del curso anterior.
RELACIN CON OTROS CURSOS DE LA FACULTAD.
Uno de los empeos de la Ctedra es que es que los cursos de Derecho romano,
sirvan de fundamento a los cursos de Obligaciones, Contratos, Derechos reales,
Procesal Civil, Juicios universales, y Derecho de Familia.
OBJETIVO ESPECFICO

Al finalizar el curso el alumno debe dominar los conceptos fundamentales del


programa

mencionados en el punto anterior. Tener una visin

dinmica,

evolutiva y comparativa del Derecho costarricense. Haber adquirido dominio de


la investigacin en los textos romanos. La destreza para resolver casos prcticos
por el conocimiento que sobre esa materia adquiere de los grandes juristas
romanos. Tener conocimientos firmes del Derecho Romano, y no el aprender hoy
para olvidar maana. Saber distinguir en el derecho como ciencia, Ius, que nos
ensearon los juristas y la ley, Lex, como norma de derecho nacida del poder
poltico, para interpretarla conforme a los principios de justicia y equidad que
ellos siempre aplicaron en las soluciones prcticas, y que sirvi de base a su
universalizacin.
OBJETIVO GENERAL
11

Que el alumno llegue a comprender a travs del mtodo investigativo, la lgica


que inspira el todo de la instituciones jurdicas singulares

que integran el

Derecho romano. Entender la finalidad de la ciencia jurdica no solo como la


organizacin de las normas de nuestro Derecho positivo, sino en forma amplia y
compleja,

en cuanto a los fundamentos y principios constitutivos

de las

instituciones jurdicas. Para as, como dice SAVGNY, El que nuevamente se


active una diversidad de opiniones, el que nuevamente pueda surgir la discusin
y la duda sobre las decisiones es uno de los beneficios con que Dios nos ha
bendecido, porque slo de esta disensin puede surgir una unidad viva y firme ,
la unidad del convencimiento, con arreglo a la cual nos impulsa nuestra
naturaleza en todos los asuntos espirituales. Vase Monereo Prez, Prlogo
Tratado de la Posesin de M. F. C. DE SAVIGNY

EVALUACIN.
Los conocimientos y destrezas sern evaluados con un examen parcial que
tendr un valor de un treinta por ciento y un examen final que tendr un valor
del cuarenta por ciento. El segundo examen parcial, con un valor de un treinta
por ciento, ser sustituido el desarrollo de las preguntas de los conceptos
fundamentales y quices. Las preguntas podrn ser entregadas va correo
electrnico, siempre y cuando sea en las fechas establecidas y antes de las
8:00 am.
El examen final

comprende toda la materia y ser oral ante un Tribunal

examinador, integrado tres profesores de la materia. En caso de imposibilidad


podr se integrado por el profesor de la materia y otro profesor de la Facultad.

BIBLIOGRAFA
IGLESIAS, Juan, DERECHO ROMANO, Instituciones de Derecho Privado.
12

ARIAS RAMOS, J. y ARIAS BONET DERECHO ROMANO.


PETIT Eugene TRATADO ELEMENTAL DE DERECHO ROMANO
MARGADANT, Guillermo F. EL DERECHO PRIVADO ROMANO ,Como
introduccin a la Cultura Jurdica Contemporanea.
BONFANTE, Pedro. INSTITUCIONES DE DERECHO ROMANO.
ARANGIO-RUIZ, Vincenzo, INTITUCIONES DE DERECHO ROMANO.
SOHM, Rodolfo, HISTORIA E INSTITUCIONES DEL DERECHO PRIVADO
ROMANO.
KUNKEL, jrs DERECHO PRIVADO ROMANO
SCHULZ. Fritz, DERECHO ROMANO CLSICO.
RUSSOMANNO, Mario C. BREVE HISTORIA DEL DERECHO ROMANO
DORS , lvaro, ELEMENTOS DE DERECHO PRIVADO ROMANO.
FIUGNET , Ren, . MANUAL ELEMENTAL DE DERECHO ROMANO.
OERTOLAN, M, COMPENDIO DE DERECHO ROMANO
ZAMBRANA, Antonio. DERECHO ROMANO, Anotado y concordado con
legislacin, jurisprudencia y doctrina costarricense, por SENZ CARBONELL,
Jorge F. y CHINCHILLA MADRIGAL, Jeffry Antonio
GAIUS, INTITUTAS
EL CORPUS IURIS CIVILIS. Compilacin legislativa del emperador
JUSTINIANO..
VARIOS: IMPORTANTE
Norma bsica dentro del aula es el respeto.
No se permite el uso de telfonos celulares dentro del aula. Cuando se
realicen pruebas cortas y exmenes los mismos no podrn estar a la vista

de sus dueos.
Los exmenes se repondrn la semana siguiente a la fecha en que se

encuentran programados
La falta de asistencia a pruebas deber justificarse por escrito, caso

contrario, no se repondr la misma.


Correo electrnico de la profesora: alelarios79@hotmail.com.
Telfono de la profesora (horas de oficina): 26 66 03 73.

13

CRONOGRAMA DE EVALUACIONES

FECHA
4 setiembre

ACTIVIDAD
a. Entrega preguntas 1

18 setiembre

a 81
b. Quiz
a. Entrega preguntas

11 setiembre
2 octubre
16 octubre

82 a 195
b. Quiz
No hay clases
I Parcial
a. Entrega preguntas

30 octubre

196 a 292
b. Quiz
a. Entrega preguntas

20 noviembre

293 a 361
b. Quiz
a. Entrega preguntas

27 noviembre
5 diciembre

362 a 455
b. Quiz
ltima clase
Examen final (por ser
examen de ctedra,
queda sujeto a cambio de
fecha por disposicin de
la ctedra).

14

VALOR
a. 3%
b. 3%
a. 3%
b. 3%

30%
a. 3%
b. 3%
a. 3%
b. 3%
a. 3%
b. 3%

40%

PREGUNTAS CONCEPTIS FUNDAMENTALES

14. Familia Romana


------------------------------------------------------------------------------------------1) Qu es la familia proprio iure y que es la familia communi iure?
--------------------------------------------------------------------------------------------2) Qu es el ius noxae dandi?
--------------------------------------------------------------------------------------------3) Cmo se les llama a los hijos iusti en el derecho clsico y como en el derecho
justinianeo y como se les denomina como se les denomina a los habidos en
concubinato y como se les denomina a los que nacen de uniones no estables?
--------------------------------------------------------------------------------------------4) A quines se les niega que adopten?
--------------------------------------------------------------------------------------------5) Qu efectos tiene la adrogatio?
15

--------------------------------------------------------------------------------------------6) Cules son las medidas que Antonino Pio, tom en proteccin del arrogado?
--------------------------------------------------------------------------------------------7) Qu es la conventio in manum?
--------------------------------------------------------------------------------------------8) Qu es la confarreatio?
--------------------------------------------------------------------------------------------9) Qu es la coemptio?
--------------------------------------------------------------------------------------------10)Qu es el usus?
--------------------------------------------------------------------------------------------11) Cmo fue la evolucin de la coemtio in manum, y cuando desaparece
totalmente?
12)Cules son los casos en que la ruptura del vnculo familiar no determina el
ingreso en una nueva familia?
-----------------------------------------------------------------------------------13)Qu es la emancipacin?
--------------------------------------------------------------------------------------------14)Cul era el procedimiento para la emancipacin en la poca antigua y clsica?
--------------------------------------------------------------------------------------------15)Qu es la emancipacin per rescriptum principis?
--------------------------------------------------------------------------------------------16)Cul regla establece Justiniano?
--------------------------------------------------------------------------------------------17)Cules son los casos en que el padre puede ser obligado a emancipar?
- ------------------------------------------------------------------------------------18)Qu es la diffarreatio?
--------------------------------------------------------------------------------------------19)
Qu es la adgnatio?
--------------------------------------------------------------------------------------------20) Qu es la cognatio?
-------------------------------------------------------------------------------------------16

21) Qu es la afinidad?
-------------------------------------------------------------------------------------------22) Qu regula el ius civile de acuerdo con la adgnatio?
--------------------------------------------------------------------------------------------23) Qu regula el ius civile de acuerdo con la cognatio?
-------------------------------------------------------------------------------------------24) Qu son los ascendientes?
25) Qu son los descendientes?
--------------------------------------------------------------------------------------------26) En qu grado estn los padres en relacin con los hijos?
- --------------------------------------------------------------------------------27) En qu grado estn los hermanos?
------------------------------------------------------------------------------------------28) En qu grado estn los tos?
--------------------------------------------------------------------------------------------29) En qu grado estn los primos hermanos?
--------------------------------------------------------------------------------------------30) Qu parentesco tienen los concuados?
--------------------------------------------------------------------------------------------31) Quin es el titular de derechos patrimoniales?
--------------------------------------------------------------------------------------------32) Qu son los bona materna y que importancia tienen de acuerdo con la
legislacin de Constantino?
--------------------------------------------------------------------------------------------33) Qu cambio importante se opera en el Derecho Justinianeo?
--------------------------------------------------------------------------------------------34) Qu es el peculio en su origen, peculiium profecticium ?
--------------------------------------------------------------------------------------------35) Qu es el peculium castrense de la poca de Augusto?
--------------------------------------------------------------------------------------------17

36) Qu cambio fundamental se da en el Derecho justinianeo?


--------------------------------------------------------------------------------------------37) Qu es el peculium quasi castrense?
38) Cmo es el rgimen de los peculios en la poca justinianea?
------------------------------------------------------------------------------------------39) Cul es el concepto de matrimonio en el Derecho romano?
--------------------------------------------------------------------------------------------40) Qu es la affectio maritalis?
41) Qu es la deductio in domun mariti?
42) Cul es la diferencia fundamental del matrimonio romano con el matrimonio
actual?
------------------------------------------------------------------------------------43) Diga la definicin de Modestino de matrimonio?
--------------------------------------------------------------------------------------------44) Cules son los requisitos del matrimonio romano?
--------------------------------------------------------------------------------------------45) Qu es el conubim?
-------------------------------------------------------------------------------------------46) Qu es contubernium?
--------------------------------------------------------------------------------------------47) Qu resolvi la Constitucin Antonina -212 D. C. en cuanto a la capacidad de
los peregrinos.?
--------------------------------------------------------------------------------------------48) En cuanto al consentimiento del paters cuando no son sui iuris.?
--------------------------------------------------------------------------------------------49) En cuanto al consentimiento del Paters cuando no son sui iuris, antes y despus
de la tutela mulierum?
--------------------------------------------------------------------------------------------50) Qu son impedimentos absolutos
--------------------------------------------------------------------------------------------18

51) Qu son impedimentos relativos?


-----------------------------------------------------------------------------------------52) Cules causas son de disolucin del matrimonio?
- --------------------------------------------------------------------------------------54)
Cmo era el divorcio en la poca pagana?
-------------------------------------------------------------------------------------------55) Se prohibi el divorcio en poca de Justiniano?
-------------------------------------------------------------------------------------56) En poca de Justino II cules eran las tres clases de divorcio permitidas?
--------------------------------------------------------------------------------------------57) Qu es el divortium ex iusta causa?
--------------------------------------------------------------------------------------------58) Cules eran estas tres causales?
------------------------------------------------------------------------------------------59) Qu es el divortium sine causa?
--------------------------------------------------------------------------------------------60) Qu es el repudium?
--------------------------------------------------------------------------------------------61) Qu consecuencias patrimoniales tena?
- ------------------------------------------------------------------------------------62) Qu es el divortium bona gratia?
--------------------------------------------------------------------------------------------63) Qu son los esponsales?
--------------------------------------------------------------------------------------------64) Cmo se contraan los esponsales?
-------------------------------------------------------------------------------------------65) Qu es la sponsio?
-------------------------------------------------------------------------------------------19

66) Qu suceda si se incumpla la Sponsio?


-------------------------------------------------------------------------------------------67) En qu poca se establecen las arrhae sponsaliciae?
----------------------------------------------------------------------------------------68) Cul es la sancin si se incumple y ya se han cambiado las arras?
--------------------------------------------------------------------------------------------69) Qu es la sponsalicia largitas?
--------------------------------------------------------------------------------------------70) Qu sucede si no ocurre el matrimonio?
--------------------------------------------------------------------------------------------71) Qu efectos producen los esponsales en el Derecho justinianeo?
--------------------------------------------------------------------------------------------72) Qu es el concubinato?
--------------------------------------------------------------------------------------------73) Cmo se trat al concubinato en la poca clsica?
-------------------------------------------------------------------------------------------74) Cmo se trat en el Derecho justinianeo?
--------------------------------------------------------------------------------------------75) Qu son los hijos naturales en el periodo postclsico?
76) Qu condicin siguen los hijos?
--------------------------------------------------------------------------------------------77) Qu significa la legitimacin que se introduce en la poca postclsica?
--------------------------------------------------------------------------------------------78) Cules son las tres formas que adopta la legitimacin?
--------------------------------------------------------------------------------------------79) Qu es la legitimacin Per subsequens matrimonium?
------------------------------------------------------------------------------------------80) Qu es la legitimacin Per oblationem curiae?
-----------------------------------------------------------------------------------------81) Qu es la legitimacin Per rescriptum principis?
20

--------------------------------------------------------------------------------------------82) Cules fueron los tres regmenes que en el curso histrico del Derecho romano
es dable distinguir?
--------------------------------------------------------------------------------------------83) Cul es el rgimen de absorcin de bienes?
--------------------------------------------------------------------------------------------84) Cul es el rgimen de separacin de bienes?
-------------------------------------------------------------------------------------------85) Qu son los bienes parafernales?
--------------------------------------------------------------------------------------------86) Qu ordena una constitucin de Teodosio y Valentiniano?
--------------------------------------------------------------------------------------------87) Cmo se consideran los bienes parafernales en el Derecho justinianeo?
--------------------------------------------------------------------------------------------88) Por qu estn prohibidas las donaciones entre cnyuges?
--------------------------------------------------------------------------------------------89) Cules son las excepciones a esta prohibicin?
--------------------------------------------------------------------------------------------90) Qu es la dote?
-------------------------------------------------------------------------------------------91) Por qu surgi la dote en el matrimonio cum manus?
--------------------------------------------------------------------------------------------92) Qu fundamento se le dio en el matrimonio libre?
--------------------------------------------------------------------------------------------93) Cul fue la evolucin que sufre la dote al considerarse res mulieris?
--------------------------------------------------------------------------------------------94) Cmo consecuencia de lo anterior que sucede al disolverse el matrimonio?
--------------------------------------------------------------------------------------------95) Para asegurar la restitucin de la dote que resolvi la lex Iulia de adulteriis?
--------------------------------------------------------------------------------------------96) Qu es la donacin nupcial?
21

--------------------------------------------------------------------------------------------97) Cul era la costumbre en los pueblos orientales del imperio y con qu fin?
--------------------------------------------------------------------------------------------98) Por qu razn a la donatio ante nuptias en el Derecho justineaneo se le
denomina donatio propter nuptias?
--------------------------------------------------------------------------------------------99) Qu sucede si el matrimonio no se celebra por culpa de la novia?
100)
Qu sucede si celebrado el matrimonio sobreviene el divorcio por culpa
del marido?
--------------------------------------------------------------------------------------------101)
Qu sucede si no se ha celebrado el matrimonio y cualquiera de los
novios muere?
102)
Qu es el osculo interveniente y qu importancia tiene en el caso
anterior?
--------------------------------------------------------------------------------------------103)
Qu sucede si se disuelve el matrimonio por muerte del marido?
-------------------------------------------------------------------------------------------104)
Cmo se considera al marido en relacin con los bienes donados?
------------------------------------------------------------------------------------------105)
Cmo se considera a la viuda?
--------------------------------------------------------------------------------------------106)

Qu relacin tiene la donacin nupcial y la dote?


-------------------------------------------------------------------------------------------

107)
Diga la definicin de Servio de la tutela?
-----------------------------------------------------------------------------------------108)
De qu es atributo en los primeros tiempos la tutela?
--------------------------------------------------------------------------------------------109)
A quin se atribuyeron por ley la Tutela impuberum y la tutela mulierum?
--------------------------------------------------------------------------------------------110)

Qu tiene por objeto la curatela?

--------------------------------------------------------------------------------------------22

111)
Quin es el curator ventris?
--------------------------------------------------------------------------------------------112)
Quin es el cuartor absentis?
-------------------------------------------------------------------------------------------113)
Quin es el curator bonorum?
--------------------------------------------------------------------------------------------114)
Quin es el hereditatis iacentis?
--------------------------------------------------------------------------------------------115)
Cuntas especies de tutela hay?
--------------------------------------------------------------------------------------------116)
Qu es la tutela testamentaria?
--------------------------------------------------------------------------------------------117)
Cul fue la atenuacin que se oper en cuanto a que la tutela sea
comunicada por el Pater y en testamento?
--------------------------------------------------------------------------------------------118)
Qu es la tutela legtima en los primeros tiempos?
--------------------------------------------------------------------------------------------119)
Qu fue modificacin que hizo Justiniano?
--------------------------------------------------------------------------------------------120)
Qu es la tutela patronorum?
--------------------------------------------------------------------------------------------121)
Qu es la tutela fiduciaria?
--------------------------------------------------------------------------------------------122)
Qu es la tutela dativa?
--------------------------------------------------------------------------------------------123)
Quines, al principio del Derecho romano, eran incapaces de ejercer la
tutela?
--------------------------------------------------------------------------------------------124)
Cundo se admiti la posibilidad de que lo fillifamilias ejercieran el cargo
de tutor?
125)
Quines tienen tambin acceso a la tutela en el Derecho posclsico?
--------------------------------------------------------------------------------------------23

126)
Cmo puede excusarse el tutor testamentario de ejercer la tutela?
------------------------------------------------------------------------------------------127)
Cmo puede el tutor dativo excusarse de la tutela?
-------------------------------------------------------------------------------------------128)
En la poca clsica a que tutelas se extienden las excusationes?
------------------------------------------------------------------------------------------129)
Qu otras excusationes se dieron?
------------------------------------------------------------------------------------------130)
Qu funciones tena el tutor?
-------------------------------------------------------------------------------------------131)
Qu es la autoritatis interpositio?
-------------------------------------------------------------------------------------------132)
Qu es la negotiorum gestio?
--------------------------------------------------------------------------------------------133)
Qu funciones puede realizar el tutor?
--------------------------------------------------------------------------------------------134)
Qu actos no puede realizar el tutor?
--------------------------------------------------------------------------------------------135)
Qu ordena Justiniano en proteccin del pupilo?
--------------------------------------------------------------------------------------------136)
Qu es la acussatio suspecti tutoris?
--------------------------------------------------------------------------------------------137)

Qu es la actio rationibus distrahendis?

138)
Qu es la actio tutilis tutelae?
-----------------------------------------------------------------------------------------139)
Cundo se extingue la tutela?
----------------------------------------------------------------------------------------140)
Qu es la tutela mulierum?
------------------------------------------------------------------------------------------141)

En qu se fundamenta esta tutela?


24

--------------------------------------------------------------------------------------------142)
Por qu dice Gallo que la levitas animi se funda ms en lo aparente que
en lo verdadero?
--------------------------------------------------------------------------------------------143)
Qu es la tutela testamentaria?
--------------------------------------------------------------------------------------------144)
Qu es la tutela legtima?
--------------------------------------------------------------------------------------------145)
Acta en algn caso el tutor como negotiorum gestor?
--------------------------------------------------------------------------------------------146)
Cul es la funcin del tutor?
--------------------------------------------------------------------------------------------147)
A comienzos de la Repblica qu medios ide la jurisprudencia para
evitar la tutela (tutelae evitandae causa)?
--------------------------------------------------------------------------------------------148)
Qu orden la lex Julia Papia Poppaea?
--------------------------------------------------------------------------------------------149)
Qu resolvi la lex Claudia?
--------------------------------------------------------------------------------------------150)
Qu es la curatela?
--------------------------------------------------------------------------------------------151)
Qu es la cura furiosi?
152)
De qu poca data esta curatela?
-------------------------------------------------------------------------------------------153)
Qu es la curatela testamentaria y qu es la curatela dativa?
------------------------------------------------------------------------------------------154)
Cul es la funcin del curador en estas clases de curatela?
-----------------------------------------------------------------------------------------155)
Qu es la cura prodigi?
------------------------------------------------------------------------------------------156)
Desde qu poca data la cura prodigi?
--------------------------------------------------------------------------------------------157)
En esta tutela quin solicita al curator?
-------------------------------------------------------------------------------------------25

158)
Cmo es el curator en el derecho Justinianeo?
--------------------------------------------------------------------------------------------OBLIGACIONES
-------------------------------------------------------------------------------------------159)
Diga la definicin de obligacin segn las Instituciones de Justiniano?
--------------------------------------------------------------------------------------------160)
Qu significa iuris vinculum?
--------------------------------------------------------------------------------------------161)
Qu significa quo necessitate adtringimur?
--------------------------------------------------------------------------------------------162)
Qu significa solvendae rei?
--------------------------------------------------------------------------------------------163)
Cul fue la evolucin histrica de la obligacin?
-------------------------------------------------------------------------------------------164)
En los primeros tiempos estaba la persona sometida al acreedor?
--------------------------------------------------------------------------------------------165)
Qu es el mutuo?
--------------------------------------------------------------------------------------------166)
Qu es el nexum?
--------------------------------------------------------------------------------------------167)
Cul es el origen del estado de prisin en caso de que no se cumpla la
obligacin?
--------------------------------------------------------------------------------------------168)
Cul es el objeto de la obligacin?
--------------------------------------------------------------------------------------------169)
Qu es la prestacin?
--------------------------------------------------------------------------------------------170)
Qu significa dare?
--------------------------------------------------------------------------------------------171)

Qu significa praestare?
26

--------------------------------------------------------------------------------------------172)

Qu significa facere?
---------------------------------------------------------------------------------------------

173)
Qu es una obligacin posible y una imposible?
--------------------------------------------------------------------------------------------174)
Qu es una obligacin lcita y una ilcita?
--------------------------------------------------------------------------------------------175)
Qu es una obligacin determinada, indeterminada y determinable?
--------------------------------------------------------------------------------------------176)
Qu es una obligacin patrimonial?
--------------------------------------------------------------------------------------------177)
Qu es una obligacin divisible e indivisible?
--------------------------------------------------------------------------------------------178)
Cul es la diferencia que tuvieron las obligaciones indivisibles en el
Derecho clsico y en el Justinianeo?
--------------------------------------------------------------------------------------------179)
Qu son obligaciones solidarias?
--------------------------------------------------------------------------------------------180)
Qu son obligaciones alternativas?
--------------------------------------------------------------------------------------------181)
A quin corresponde la eleccin en las obligaciones alternativas?
-------------------------------------------------------------------------------------------182)
Cul es la diferencia en cuanto al cambio de opinin en el Derecho
clsico y en el Derecho justinianeo?
--------------------------------------------------------------------------------------------183)
Cmo se resolva en el Derecho clsico y en el Derecho justinianeo, el
problema si la destruccin de uno de los objetos?
- ------------------------------------------------------------------------------------184)
Qu es una obligacin facultativa? Cul es la diferencia con una
alternativa?
185)
--------------------------------------------------------------------------------------------186)

Qu es una obligacin genrica?


27

-------------------------------------------------------------------------------------------187)
Qu es genus?
--------------------------------------------------------------------------------------------188)

Qu significa genus non perit?

189)
Qu son obligaciones propter rem?
--------------------------------------------------------------------------------------------190)
Cite un ejemplo de obligaciones
ambulatorias o de
indeterminado?
---------------------------------------------------------------------------------------------

sujeto

191)
Qu obligaciones parciales o mancomunadas?
--------------------------------------------------------------------------------------------192)
En el Derecho Clsico, explique la fuente de la obligacin solidaria en el
contrato stipulatio?
-

-----------------------------------------------------------------------------------------

193)
Cules fueron las fuentes de la obligacin solidaria posteriormente y en
el Derecho Justinianeo?
-------------------------------------------------------------------------------------------194)
Qu son obligaciones naturales?
--------------------------------------------------------------------------------------------195)
Qu son obligaciones naturales impropias.
--------------------------------------------------------------------------------------------196)

Qu es la solutio retentio?
--------------------------------------------------------------------------------------------

197)
Diga la Clasificacin de las Instituciones de Gayo?
----------------------------------------------------------------------------------------198)
Qu es el contractus?
--------------------------------------------------------------------------------------------199)
Qu es ex delicto?
--------------------------------------------------------------------------------------------200)

Cules otras clasificaciones se dieron en el Derecho Romano?


28

201)
Cul fue la clasificacin justinianea?
-------------------------------------------------------------------------------------------202)
Qu es pago?
--------------------------------------------------------------------------------------------203)
Qu significa solutio?
--------------------------------------------------------------------------------------------204)
Cul fue la evolucin del trmino?
--------------------------------------------------------------------------------------------205)
Cul es el lugar de pago?
--------------------------------------------------------------------------------------------206)
Cul es la determinacin que se infiere cuando se trata de un inmueble o
de una construccin de un fundo?
--------------------------------------------------------------------------------------------207)
Cul es el lugar si no se ha determinado este y se trata de cosas
fungibles?
--------------------------------------------------------------------------------------------208)
Cul el lugar si es se trata de acciones personales?
--------------------------------------------------------------------------------------------209)
Qu es la actio de eo quod certo loco.
--------------------------------------------------------------------------------------------210)
Cundo debe cumplirse la obligacin?
-------------------------------------------------------------------------------------------211)
En caso de la realizacin de un opus?
--------------------------------------------------------------------------------------------212)
Qu es incumplimiento de la obligacin?
--------------------------------------------------------------------------------------------213)

Qu es la imposibilidad de cumplimiento?

214)
Cundo responde el deudor en caso de obligaciones genricas?
--------------------------------------------------------------------------------------------215)
En qu casos responde el deudor en el caso en que las obligaciones
consisten en un dare oportere?
--------------------------------------------------------------------------------------------29

216)
Cmo responde el deudor en los iudicia bona fidei?
------------------------------------------------------------------------------------------217)
En el Derecho justinianeo qu significa el sistema de responsabilidad
articulado en varias gradaciones?
--------------------------------------------------------------------------------------------218)
Qu es dolus?
------------------------------------------------------------------------------------------219)
Qu es culpa lata?
--------------------------------------------------------------------------------------------220)
Qu es culpa levis?
--------------------------------------------------------------------------------------------221)
Qu es culpa in concreto?
-------------------------------------------------------------------------------------------222)
Cul es el efecto del incumplimiento imputable al deudor?
--------------------------------------------------------------------------------------------223)
Qu significa quanti ea res est?
-------------------------------------------------------------------------------------------224)
Qu es el id quo interest?
--------------------------------------------------------------------------------------------225)
Qu significa dao directo?
--------------------------------------------------------------------------------------------226)
Qu es mora del deudor mora debendi o mora debitoris?
227)
Qu dies interpellat pro homine?
--------------------------------------------------------------------------------------------228)
Qu sucede si la cosa perece despus de la mora?
--------------------------------------------------------------------------------------------229)
Qu es mora del acreedor, mora creditoris o mora accipiendi?
--------------------------------------------------------------------------------------------230)
En qu caso responde el deudor?
--------------------------------------------------------------------------------------------231)
Qu es la oferta real de pago?
-------------------------------------------------------------------------------------------30

232)
Qu exceptio tiene el deudor si el acreedor no admite la oferta real de
pago?
--------------------------------------------------------------------------------------------233)

Qu son garantas reales y que son garantas personales?


--------------------------------------------------------------------------------------------

234)
Qu es la fianza?
--------------------------------------------------------------------------------------------235)
Cules eran las tres clases de garantas que existan en el Derecho
prejustinianeo?
--------------------------------------------------------------------------------------------236)
Qu es la sponsio?
--------------------------------------------------------------------------------------------237)
Qu es la fidepromissio?
--------------------------------------------------------------------------------------------238)
Qu es la fideiussio?
--------------------------------------------------------------------------------------------239)
Cul fue la que sobrevivi?
240)
Qu es el beneficium divisionis?
--------------------------------------------------------------------------------------------241)
Qu es el beneficium excussionis?
--------------------------------------------------------------------------------------------242)
Tena el fiador una accin de regreso contra el deudor principal?
-------------------------------------------------------------------------------------------243)
Qu son las arras?
--------------------------------------------------------------------------------------------244)

Qu funciones tenan?
---------------------------------------------------------------------------------------------

245)

Qu es la clusula penal?
----------------------------------------------------------------------------------------

246)
Qu funciones tena?
--------------------------------------------------------------------------------------------31

247)
Funcin tena el juramento?
-------------------------------------------------------------------------------------------248)
Cundo pueden ser invocadas las causas ipso jure y ope exceptionis?
--------------------------------------------------------------------------------------------249)
Cules son las causas de extincin ipso iure?
-----------------------------------------------------------------------------------------250)
Qu es la solutio per aes et libram?
--------------------------------------------------------------------------------------------251)
Qu es la acceptilatio?
--------------------------------------------------------------------------------------------252)

Qu es el consensus contrarius?

253)
Qu es la novatio?
--------------------------------------------------------------------------------------------254)
Qu es la novacin subjetiva?
------------------------------------------------------------------------------------------255)
Qu es la novacin objetiva?
--------------------------------------------------------------------------------------------256)
Qu es el concursus causarum?
--------------------------------------------------------------------------------------------257)
Qu es la confusin?
--------------------------------------------------------------------------------------------258)
En qu casos la muerte extingue la obligacin?
--------------------------------------------------------------------------------------------259)
Cul fue la intervencin del pretor en los casos de capitis deminutio?
--------------------------------------------------------------------------------------------260)
Cules son las causas de extincin ope exceptionis?
--------------------------------------------------------------------------------------------261)
Qu es la compensatio?
--------------------------------------------------------------------------------------------32

262)
Cmo opera el mecanismo compensatorio en la poca clsica?
--------------------------------------------------------------------------------------------263)
Cmo opera el mecanismo compensatorio en la poca Justinianea?
--------------------------------------------------------------------------------------------264)
Qu es el pactum de non petendo?
--------------------------------------------------------------------------------------------265)

Qu es la praescriptio longi temporis?


-

266)
Por qu los romanos en la poca preclsica no aceptaban una
transmisin de las relaciones obligatorias?
--------------------------------------------------------------------------------------------267)
Cul fue la solucin que se busc en el procedimiento formulario y cules
eran los inconvenientes?
------------------------------------------------------------------------------------------268)
A quines se les concedi las acciones tiles?
--------------------------------------------------------------------------------------------269)
Qu inconveniente tena el sistema de acciones tiles?
--------------------------------------------------------------------------------------------270)

Cul fue el cambio que se oper en el Derecho justinianeo?


-----------------------------------------------------------------------------------------

271)
Cules fueron los sistemas que operaron para la transmisin de las
deudas?
--------------------------------------------------------------------------------------------272)
Cul era el inconveniente que tena el constituir al nuevo deudor en
mandatario en perjuicio propio?
--------------------------------------------------------------------------------------------271) Cul es el concepto de contrato en la poca clsica, en la Justinianea y su
clasificacin?
-------------------------------------------------------------------------------------------272) Qu son para los clsicos los contratos reales?
--------------------------------------------------------------------------------------------273) Cules contratos figuran en el Digesto como contratos reales?
---------------------------------------------------------------------------------------------.
33

274) Qu son contratos sinalagmticos perfectos e imperfectos?


--------------------------------------------------------------------------275)
Qu es el mutuo?
276)
Cules son los requisitos del mutuo?
--------------------------------------------------------------------------------------------277)
Qu es la datio?
--------------------------------------------------------------------------------------------278)
Qu es el comodato?
--------------------------------------------------------------------------------------------279)

Cules son los requisitos?


---------------------------------------------------------------------------------------

280)
Qu es la prenda?
----------------------------------------------------------------------------------------281)
Cul es el requisito necesario para el perfeccionamiento?
-----------------------------------------------------------------------------------------282)
Cules obligaciones eventuales podra tener el acreedor?
-----------------------------------------------------------------------------------------283)
Qu es la accin pignoraticia directa?
-------------------------------------------------------------------------284)

Qu es la accin pignoraticia contraria?


------------------------------------------------------------------------------------

285)
Qu es el depsito?
-------------------------------------------------------------------------------------------286)
Cules son los requisitos del depsito?
--------------------------------------------------------------------------------------------287)

Por qu se dice que el depsito es un contrato sinalagmtico imperfecto?


-----------------------------------------------------------------------------------

288)

Qu es la fiducia?

289)
Qu es la fiducia cum creditore?
--------------------------------------------------------------------------------------------290)

Qu es la fiducia cum amico?


34

--------------------------------------------------------------------------------------------291)
Qu es la actio fiduciae?
--------------------------------------------------------------------------------------------292)
293)

Qu es la actio fiduciae contraria?


---------------------------------------------------------------------------------------Qu son contratos consensuales?
---------------------------------------------------------------------------------------------

294)
Qu es compraventa?
--------------------------------------------------------------------------------------------295)
Cul es el objeto de la compraventa?
--------------------------------------------------------------------------------------------296)
Segn los sabinianos que puede servir como precio?
--------------------------------------------------------------------------------------------297)
Segn los proculeyanos que cosa puede servir como precio?
------------------------------------------------------------------------------------------298)
Cul fue la doctrina acogida por Justiniano?
--------------------------------------------------------------------------------------------299)
Cundo aparece declarada la justicia en el precio?
--------------------------------------------------------------------------------------------300)
Qu es la actio empti o ex empto o la actio venditi o exvendito.?
--------------------------------------------------------------------------------------------301)
Si luego de perfeccionada la venta y antes de la entrega perece la cosa
--------------------------------------------------------------------------------------------302)

Qu es la responsabilidad por eviccin?

303)
Qu es la responsabilidad por vicios ocultos?
--------------------------------------------------------------------------------------------304)
Qu es la actio de modo agri?
--------------------------------------------------------------------------------------------305)
Qu es la actio redhibitoria?
--------------------------------------------------------------------------------------------306)

Qu es la actio quanti minoris?


35

--------------------------------------------------------------------------------------------307)
Qu es el pactum de retro vendendo?
--------------------------------------------------------------------------------------------308)
Qu es el pacto in diem addictio?
--------------------------------------------------------------------------------------------309)
Qu es el pactum de retro emendo?
--------------------------------------------------------------------------------------------310)
Qu es la lex commisoria?
------------------------------------------------------------------------------------------311)

Qu es el pactum displicintiae?
-------------------------------------------------------------------------------------

312)
Qu es la locatio conductio?
-------------------------------------------------------------------------------------------313)
Qu es la locatio conductio rei?
--------------------------------------------------------------------------------------------314)
Es un derecho real o personal?
--------------------------------------------------------------------------------------------315)
Sobre qu clases de cosas debe recaer?
--------------------------------------------------------------------------------------------316)
Puede recaer el precio en una cosa que no sea dinero?
--------------------------------------------------------------------------------------------317)
Cules son las obligaciones del locator?
-------------------------------------------------------------------------------------------318)
Cules son las obligaciones del conductor?
--------------------------------------------------------------------------------------------319)
Qu es la locatio conductio operis?
--------------------------------------------------------------------------------------------320)

Qu es la locatio conductio operarum?


-------------------------------------------------------------------------------------------

321)
Qu es la sociedad?
-------------------------------------------------------------------------------------------36

322)
Qu deben aportar los socios?
--------------------------------------------------------------------------------------------323)
Qu es la societas leonina?
--------------------------------------------------------------------------------------------324)

Tiene la sociedad personalidad jurdca?


-------------------------------------------------------------------------------------------

325)
Qu es el mandato?
--------------------------------------------------------------------------------------------326)
El mandato es un contrato gratuito u oneroso?
--------------------------------------------------------------------------------------------327)

Cules son las causas de extincin?


---------------------------------------------------------------------------------------------

328)
Qu son contratos formales?
--------------------------------------------------------------------------------------------329)

Qu son contratos verbales?

330)
Qu son contratos literales?
--------------------------------------------------------------------------------------------331)

Cul es el contrato verbal ms antiguo?


---------------------------------------------------------------------------------------------

334) Qu es la stipulatio?
--------------------------------------------------------------------------------------------335) Cules
son
los
requisitos
formales
de
la
stipulatio?
--------------------------------------------------------------------------------------------336) Qu es la dotis dictio?
-------------------------------------------------------------------------------------------337) Qu es el iusiurandum liberti?
-----------------------------------------------------------------------------------------338)
Qu es la nmina transcripticia?
----------------------------------------------------------------------------------------339)
Qu son los syrigrafha?
-----------------------------------------------------------------------------------------37

340)
Qu son los chirographa?
-------------------------------------------------------------------------------------------341)
A qu se llaman contratos innominados?
------------------------------------------------------------------------------------------342)
Qu es el contrato estimatorio?
--------------------------------------------------------------------------------------------343)
Qu es la permutatio?
------------------------------------------------------------------------------------------344)
Qu es el precarium?
345)
Qu son los pactos?
-------------------------------------------------------------------------------------------346)
Qu es el pacto de non petendo?
--------------------------------------------------------------------------------------------347)

Qu es la exceptio pacti conventi?


------------------------------------------------------------------------------------------

348)
Qu es la promesa unilateral?
-------------------------------------------------------------------------------------------349)
Qu validez jurdica tiene la promesa unilateral pollicitatio?
--------------------------------------------------------------------------------------------350)

Qu validez jurdica tuvo en el Derecho justinianeo la pollicitatio?


---------------------------------------------------------------------------------------------

351)
Qu es la negotiorum gestio?
------------------------------------------------------------------------------------------352)
Cul es la obligacin del gestor?
-------------------------------------------------------------------------------------------353)
Cul es la obligacin del dominus negotii?
--------------------------------------------------------------------------------------------354)

En qu poca se desarrolla el concepto?


---------------------------------------------------------------------------------------------

38

355)
Cundo hay enriquecimiento injusto?
--------------------------------------------------------------------------------------------356)
Qu es la solutio indebii en el Derecho clsico?
--------------------------------------------------------------------------------------------357)

Qu es la condictio en el Derecho justinianeo?

358)
Qu es la condictio indebiti?
--------------------------------------------------------------------------------------------359)

Qu es la condictio sine causa?


---------------------------------------------------------------------------------------------

360)
Qu es la communio incidens?
--------------------------------------------------------------------------------------------361)

Qu es la actio communi dividundo?


---------------------------------------------------------------------------------------------DELITOS(FURTUMM, RAPINA, DAMNUM
INJURIA DATUM, INIURIA)
CUASIDELITOS
--------------------------------------------------------------------------------------------

362)
Qu es delito y como se dividen ?
--------------------------------------------------------------------------------------------363)
Qu son y cite delitos de carcter pblico?
--------------------------------------------------------------------------------------------364)
Qu son delitos de carcter privado y cul fue su evolucin?
--------------------------------------------------------------------------------------------365)
Con qu y quien castiga los delitos de carcter pblico?
--------------------------------------------------------------------------------------------366)
Con qu y quien castiga los delitos de carcter privado?
--------------------------------------------------------------------------------------------367)
Qu nombre reciben los delitos de carcter pblico?
--------------------------------------------------------------------------------------------368)

Qu nombre reciben los delitos de carcter privado?


39

369)
Quin comete furtum segn Gayo?
--------------------------------------------------------------------------------------------370)
Cmo se define el furtum en el Digesto?
--------------------------------------------------------------------------------------------371)
Cules tipos de acciones poda utilizar la vctima?
--------------------------------------------------------------------------------------------372)
Qu es la rapina segn Gayo?
--------------------------------------------------------------------------------------------373)
Qu es actio in cuadruplum?
--------------------------------------------------------------------------------------------374)

Cul fue el cambio que sufri en el Derecho justinianeo?


---------------------------------------------------------------------------------------------

375)
Qu es la damnun injuria datum?
-------------------------------------------------------------------------------------------376)
Qu es la lex aquilia?
------------------------------------------------------------------------------------------377)
Qu significa dao extracontractual?
-----------------------------------------------------------------------------------------378)
Cules son las causas del dao?
-------------------------------------------------------------------------------------------379)
Qu significa que debe ser corpori corpore?
--------------------------------------------------------------------------------------------380)
Qu significa damnum emergens y lucrum cessans?
-------------------------------------------------------------------------------------------381)

Cul fue el cambio que se oper en el Derecho Justinianeo?

382)
Qu es iniuria?
--------------------------------------------------------------------------------------------383)
Cules eran los casos en la Ley de las XII tablas?
--------------------------------------------------------------------------------------------384)

Cul fue el cambio que se oper en el Derecho imperial?


40

--------------------------------------------------------------------------------------------385)
Cules fueron los actos perseguidos por el pretor como ilcitos?
--------------------------------------------------------------------------------------------TEMA V
DERECHOS HEREDITARIOS y DONACIONES
386)
Cul es la definicin de testamento segn Mondestino?
-------------------------------------------------------------------------------------------387)
Cul es la definicin segn los intrpretes.
--------------------------------------------------------------------------------------------388)
Cules son las principales caractersticas del testamento?
--------------------------------------------------------------------------------------------389)
Por qu es un acto unilateral?
--------------------------------------------------------------------------------------------390)
Por qu es un acto personalsimo?
--------------------------------------------------------------------------------------------391)
Por qu es un acto formal?
--------------------------------------------------------------------------------------------392)
Por qu es un acto revocable?
--------------------------------------------------------------------------------------------393)

Por qu es indispensable la institucin de heredero?

394)
Cmo debe interpretarse el testamento en relacin con las formas y la
voluntad?
--------------------------------------------------------------------------------------------395)
Qu es la testamenti factio?
--------------------------------------------------------------------------------------------396)
Qu es la testamenti factio passiva?
--------------------------------------------------------------------------------------------397)
Cules con las causas de invalidez inicial?
--------------------------------------------------------------------------------------------398)
Cules son las causas de ineficacia posterior al testamento?
------------------------------------------------------------------------------------------41

399)
Qu es la capitis deminutio del testador?
--------------------------------------------------------------------------------------------400)

Qu es la repudiatio de la herencia?

--------------------------------------------------------------------------------------------401)
Qu es la revocacin?
-------------------------------------------------------------------------------------------402)
Qu es el legado?
--------------------------------------------------------------------------------------------403)
Qu es el legatum per vindicationem?
--------------------------------------------------------------------------------------------404)
Qu es el legatum sinendi modo?
------------------------------------------------------------------------------------------405)
Qu es el legatum per damnatiom?
-------------------------------------------------------------------------------------------406)

Qu es el legatum speciei?

407)
Qu es el legatum generis?
--------------------------------------------------------------------------------------------408)
Qu es el legatum partitionis?
--------------------------------------------------------------------------------------------409)

Qu es el fideicomiso?

410)
Qu es sucesin intestada?
--------------------------------------------------------------------------------------------411)
Cundo proceda la sucesin intestada?
--------------------------------------------------------------------------------------------412)
Cundo se abre la sucesin ab intestato?
--------------------------------------------------------------------------------------------413)
Cules son las tres categoras de herederos en el puro ius civile
--------------------------------------------------------------------------------------------414)
Qu son los heredes sui?
--------------------------------------------------------------------------------------------42

415)
Qu es el agnado ms prximo?
--------------------------------------------------------------------------------------------416)
Qu son los gentiles?
------------------------------------------------------------------------------------------417)
Cules eran los grupos de personas del Derecho pretorio?
--------------------------------------------------------------------------------------------418)
Qu es la bonorum possessio unde liberi?
-------------------------------------------------------------------------------------------419)
Qu es la bonorum possesio unde letgitimi?
--------------------------------------------------------------------------------------------420)

Por qu se dice en cuanto a este orden solo afectara a los agnados?

421)
Qu es la Bonorum possessio unde cognati?
--------------------------------------------------------------------------------------------422)
Cul fue el cambio que hizo Justiniano en la Novelas?
--------------------------------------------------------------------------------------------423)
Qu es la sucesin necesaria formal?
--------------------------------------------------------------------------------------------424)
En el antiguo ius civile cules son las personas que el testador tiene
necesariamente que mencionar?
--------------------------------------------------------------------------------------------425)
En el Derecho pretorio cuales son las personas que el testador tiene
necesariamente que mencionar?
--------------------------------------------------------------------------------------------426)
Qu es la sucesin necesaria sustancial?
--------------------------------------------------------------------------------------------427)
Cul era la sancin si no se institua a los que necesariamente deban
serlo?
--------------------------------------------------------------------------------------------428)
Qu es la adquisicin de la herencia?
--------------------------------------------------------------------------------------------429)

Quines podan aceptar o renunciar libremente?


43

--------------------------------------------------------------------------------------------430)
Qu es una hereditas damnosa?
--------------------------------------------------------------------------------------------431)
Qu es el ius abstinendi?
--------------------------------------------------------------------------------------------432)
Qu es el ius separationis?
--------------------------------------------------------------------------------------------433)
Qu es la separatio bonorum.
--------------------------------------------------------------------------------------------434)

Cules son los requisitos de la aceptacin?


-----------------------------------------------------------------------------------------

435)
Qu es la capacidad el aceptante?
--------------------------------------------------------------------------------------------436)
Qu es el ius capiendi
--------------------------------------------------------------------------------------------437)
Cules son las maneras de hacer la aceptacin?
--------------------------------------------------------------------------------------------438)
Qu es la aceptacin expresa?
--------------------------------------------------------------------------------------------439)
Qu es la aceptacin tcita?
--------------------------------------------------------------------------------------------440)
Qu es la delacin?
--------------------------------------------------------------------------------------------441)
Qu es la hereditas iacens?
--------------------------------------------------------------------------------------------442)
Cmo se consideraban los bienes en el Derecho antiguo?
----------------------------------------------------------------------------------------443)
Cmo se considera en el Derecho justinianeo?
--------------------------------------------------------------------------------------------444)
Qu es la Usucapio pro herede?
--------------------------------------------------------------------------------------------44

445)
Qu es la confusin hereditaria?
--------------------------------------------------------------------------------------------446)

Cules son las responsabilidades del heredero?

447)
Qu es el Beneficium inventarii?
--------------------------------------------------------------------------------------------448)
Qu es la pluralidad de herederos?
-------------------------------------------------------------------------------------------449)
Qu es el derecho de acrecer?
--------------------------------------------------------------------------------------------450)
Qu es la Collatio?
--------------------------------------------------------------------------------------------451)
Cul es la finalidad de tomar en cuenta las donaciones de los herederos
forzosos.
--------------------------------------------------------------------------------------------452)
Qu es la donacin?
--------------------------------------------------------------------------------------------453)
Cules son los tres elementos de la donacin?
--------------------------------------------------------------------------------------------454)
Qu son las donatio mortis causa?
--------------------------------------------------------------------------------------------455)
Cul fue la transformacin que hizo Justiniano?
---------------------------------------------------------------------------------------------

45

46