Vous êtes sur la page 1sur 35

1- Tablaturas? Que es eso?

Bueno, muchos de los que recien comienzan tendran esta duda, aqui la
respuesta
La guitarra tiene 6 cuerdas de distinto grosor, la ms fina y que est ms
abajo, es la denominada primera cuerda, la siguiente es la segunda, y as hasta
llegar a la sexta cuerda que es la ms gruesa.
......--Mi 1ra. ||---------|----------|----------|----------|---------|-- Cuerda mas fina (Primera)
Si 2da. ||---------|----------|----------|----------|---------|-Sol 3ra.||---------|----------|----------|----------|---------|-Re 4ta. ||---------|----------|----------|----------|---------|-La 5ta. ||---------|----------|----------|----------|---------|-Mi 6ta. ||--------@|----------|----------|----------|---------|-- Cuerda mas gruesa (Sexta)
......___/1 Traste . 2 Traste . 3 Traste . 4 Traste . 5 Traste

Definicion del tabulado para guitarra

Los siguientes simbolos son los mas frecuentes en las tablaturas para guitarra,
en algunos puede que estos no signifiquen lo mismo, de todas maneras es muy
usual que, en estos casos, la persona que lo ha hecho explique lo que
realmente quieren significar.

Se ponen en ingls, porque asi es como mayormente se conocen.

) = Bend
/ = Slide
~~ = Vibrato

h = Hammer on
p = Pullof
PM = Palm mute
xx = Pick scrape (rasgar con la pua)
NH = Armonico natural (Natural armonic)
+ = Tremelo Pick
) = Unison Bend
| = Ghost Bend (Bend fantasma)
| = Ghost Bend and release (Bend fantasma y soltar)
* = Retroalimentacion descontrolada (Uncontrolled feedback)

Aclaro q las tablaturas que veran acontinuacion sirven tanto para guitarra
electrica como para acustica/criolla

guitarra

2Tablaturas nivel facil

FELIZ CUMPLEAOS O EL PAYASO PLIM PLIM


con esta matas en los cumpleaos
e-------------1-0----------3-1-----8-5-1-1--0---6-6-5-1-3--1B-1-1-3--1-----1-1-3-1-----1-1---------------3--------------

La cucaracha

MI - E-----------1-5-----------1-5--1-1-0-0-----------------------

SI - B--1-1-1------1-1-1----------------------3-3-1----------------SOL- G-----------------------------------------------------RE - D-----------------------------------------------------LA - A-----------------------------------------------------MI - E------------------------------------------------------

--------0-3------------0-3--8-10-8-6-5-3-1-----------------1-1-1------1-1-1--------------------------------------------------------------------------------------------------------------------------------------------------------------------------------------------------------------------------------------------------------

------1-1-5-5-8-5--8-10-8-6-5-8-6-3--------------------1-1---------------------------------------------------------------------------------------------------------------------------------------------------------------------------------------------------------------------------------------------------------------------

------0-0-3-3-6-3--8-10-8-6-5-3-1----------------------1-1------------------------------------------------------------------------------------------------------

----------------------------------------------------------------------------------------------------------------------------------------------------------------

Los Simpsons theme (esta alreves)

Mi - E---------------------------------------------------La - A---------------------------------------------------Re - D----------------------------4-4-4------------------Sol- G------------------------2---------0----------------Si - B-1-------------------1-----------------------------Mi - e-----0---2--5-3-0-----------------------------------

----------------------------------------------------------------------------------------------------------------------------------------------4-4-4----4-4-4---------------------------------------2---------0----------0--------------1-------------------1------------------------0---2-2-2-3-----0---2--5-3-0-----------------------------------------

facil
3Tablaturas nivel medio

Smoke On The Water - Deep Purple

|----------------------------------------|
|----------------------------------------|
|-0-3-5---0-3-6-5---0-3-5---3-0----------|
|-0-3-5---0-3-6-5---0-3-5---3-0----------|
|----------------------------------------|
|----------------------------------------|

Twist And Shout - The Beatles (la de tineli )


Rif y casi toda la cancion
|--------------------------------------------|
|--------------------------------------------|
|--------------------------------------------|
|-----------7---7---------------------------|
|-------4---5---5--5--5--7--7--7--7--7|
|5--7---------------3--3--5--5--5--5--5|

CREAM - SUNSHINE OF YOUR LOVE


e----------------------------------------------------B----------------------------------------------------G----------------------------------------------------D------12--12---11---12---------------------------A--------------------------12--11--10------8^-----E------------------------------------------10--------10-

'The Godfather' / 'El Padrino', por Slash de los Guns N' Roses

e|----10-13-12-10-13-10-12-10-------------------------------------|
B|-10-------------------------11-13-10----------------------------|
G|----------------------------------------------------------------|
D|----------------------------------------------------------------|
A|----------------------------------------------------------------|
E|----------------------------------------------------------------|

|----10-13-12-10-13-10-12-10-------------------------------------|
|-10-------------------------/10-9-8-----------------------------|
|----------------------------------------------------------------|
|----------------------------------------------------------------|
|----------------------------------------------------------------|
|----------------------------------------------------------------|

|-----------/-------6-9-9----------------------------------------|
|----6-10-10-----/8---------------13-11-10-13-11-10-10-----------|
|-/7---------------------------10--------------------------------|
|--------------------------/12---------------------------11-12---|
|----------------------------------------------------------------|

THUNDERSTRUCK(para que suene bien deberan tocarla rapido)

e|-----------------------------------------------------------------B|0-4-0-7-0-4-0-7-0-4-0-7-0-4-0-7-0-4-0-7-0-4-0-7-0-4-0-7-0-4-0-7-0G|-----------------------------------------------------------------D|------------------------------------------------------------------

A|-----------------------------------------------------------------E|------------------------------------------------------------------

e|------------------------------------------------------------------B|0-5-0-8-0-5-0-8-0-5-0-8-0-5-0-8-0-5-0-8-0-5-0-8-0-5-0-8-0-5-0-8-0-G|------------------------------------------------------------------D|------------------------------------------------------------------A|------------------------------------------------------------------E|-------------------------------------------------------------------

dificil
4Tablaturas nivel dificil, estas se las dejo en links(puesto q son muy largas)

-Master Of Puppets/Metallica
http://www.tusacordes.com/secciones/ver_tema.php?id=16261
-One/Metallica http://www.tusacordes.com/secciones/ver_tema.php?id=17078
-Hotel California/Eagles http://www.tusacordes.com/secciones/ver_tema.php?
ver=4&id=27487
-Highway to Hell/ACDC http://www.tusacordes.com/secciones/ver_tema.php?
id=15948
-Johnny B. Good/Chuck Berry
http://www.tusacordes.com/secciones/ver_tema.php?id=22513

medio
5- Tecnica con la pua

Les dejo dos videos,donde explican distintas tecnicas de pua, estan en espaol:

http://www.videos-star.com/watch.php?video=my-vFYIfyEI&feature=related
http://www.videos-star.com/watch.php?video=iO4i1hq4pAU&feature=related

Nivel
6- Bueno, aqui unos consejos

-si son novatos en esto(como yo en taringa jaja), traten de empezar con las
faciles y despacio (pueden tratar antes ejercicios como la escala del tren para
ir entrenando las manos y el cerebro).
-Les sera de utilidad programas de pc como GuitarPro, una buena
pua(recomiendo tamao mediano) y ponerle ganas ;D
-Ah.. y comenten, den puntos y recomienden que seran muy bien agradecidos,
Gracias!

Espero que les halla gustado

http://www.taringa.net/posts/musica/10201281/Tablaturas-Guitarra-nivel-facilmedio-dificil-y-como-leerlas.html

Cancion de Mario Bros

E-0-0-0---0-3----|---------------------0-3-5-1-3-0-------|
B--------1--------|-1--------0----------------------1-3-0-|
G--------------0--|---0---2----3-2-0----------------------| X2
D-----------------|------2--------------------------------- |
A-----------------|-----------------------------------------|
E-----------------|-----------------------------------------|

E-3-2-1---0-----------|-3-2-1---0--8-8-8---3-2-1---0----------------------|
B--------4-------1---3|--------4--------------------4-------1---3-4-3-1----|
G------------1-2--2---|----------------------------------1-2--2-------------| X2
D----------------------|------------------------------------------------------|
A----------------------|------------------------------------------------------|
E----------------------|------------------------------------------------------|

E-------------0-----------------------0------------------0-----------0-0-0---03------------------------B-1-1-1-1-3---1----------1-1-1-1-3-------1-1-1-1-3----1---------------1----------------------------G-----------------2-0----------------------------------------2-0-----------------0----------------------D---------------------------------------------------------------------------------------------------------A--------------------------------------------------------------------------------------------------------E---------------------------------------------------------------------------------------------------------

E-0--------1-1------5-5-5-3-1-0---------0--------1-1-----1-1-1-0---------------------------------B--1--------------0---------------1--------1-------------0-----------3-1----------------------------G---0-1-2-----2---------------------2-0----0-1-2-----2---------------------------------------------D-----------------------------------------------------------------------------------------------------A-----------------------------------------------------------------------------------------------------E------------------------------------------------------------------------------------------------------

El padrino

E--9-12-11-9-12-9-11-9-5-7-4----9-12-11-9-12-9-11-9-4-3-2---2-5-9/11-2-5-89---------------B-9--------------------------------9-------------------------------------------------------------------G------------------------------------------------------------------------------------------------------D------------------------------------------------------------------------------------------------------A------------------------------------------------------------------------------------------------------E-------------------------------------------------------------------------------------------------------

E-4-5-4-7-5-4---------9-9-8-7-7-11----------------------------------------------------------------B---------------1-2--------------------12-10-9-9/10-9-7-7/8-8/9----------------------------------G-----------------------------------------------------------------------------------------------------D-----------------------------------------------------------------------------------------------------A-----------------------------------------------------------------------------------------------------E------------------------------------------------------------------------------------------------------

Tema de los simpsons

E---0-2-5-3-0---------------B-1------------1-------------G----------------2---------0-D-------------------4-4-4----A-----------------------------E------------------------------

Tema de bob esponja


E--7-6-7-9-7---7-6-7-9-7---7-6-7-9-7-7-6-7-9-7-11-11/12
B-------------0-------------0---------------------------------G-------------------------------------------------------------D-------------------------------------------------------------A-------------------------------------------------------------E--------------------------------------------------------------

Ahora algo diferente a los temas de tv y juegos...

Rolling stones-satisfaction

E--------------------B--------------------G--------------------D--------------------A--2-2-2-4-5-5-5-4E---------------------

Deep Purple (Smoke on the water)


Aca se tocan dos cuerdas al mismo tiempo

E-------------------------------------------------------------B---0---3--5--0--3--6--5--0--3--5--3--0-------------------G---0---3--5--0--3--6--5--0--3--5--3--0-------------------D-------------------------------------------------------------A-------------------------------------------------------------E--------------------------------------------------------------

Metallica- One

E|--------------------------------------------------------------------------B|--------------------------------------------------------------------------G|------------------------------------------------------------------------0-D|----4-----0----------4-----0------------4-----0-----------4-----0--------A|-2-----2------------------------------2-----2-----------------------------E|-------------------3-----3------------------------------3-----3------------

E---------------------------------------------------------------------B---------------------------------------------------------------------G---------------------------------------------------------------------D----4------0--------4-----0--------4-----0-------------------------A-2-----2---------0-----0-----------------------------2-----2---------

E----------------------------------------3-----3-----------0-----2-----

Red hot chili peppers-Californication

E----------------------------B-----0-1--------------------G---------------------0-2-2-0D---2-----2-0-2--------------- (x2)
A-0-------------3---3--------E-----------------1-----------

E----------------------------B-----5--------------------3-G------------4-------2-------D---5--5-----------------0---A-3--------5---5---3---3-----E--------3-------1------------

Otra mas de los rolling jaja...

Paint it black

E-1-3-4-6-4-3-1-0-0-1-3--0-1-3-3-1-0-1-B-------------------------------------------G-------------------------------------------

D------------------------------------------A------------------------------------------E---------------------------------------------

Aca les dejo las 10.000.000 de tablaturas para cualquier version del guitar pro :
10.000.000 De tablaturas!!!!!

chauuu puntuen

http://www.taringa.net/posts/musica/4888917/Tablaturas-faciles-sencillas-perotambien-buenas.html

Tablaturas

Saludos Taringueros fanticos de la msica. Ac les traigo un Post sobre las


Tablaturas de guitarra.

Primero: las tablaturas representan el brazo de la guitarra. Est marcado de


forma horizontal las cuerdas.
Cada cuerda se llama de una manera diferente:

Notacin latina: MI |-------------------------------------------------------------| -----> Primera


cuerda: Ms fina, ms aguda
Notacin latina: SI |-------------------------------------------------------------| -----> Segunda
cuerda
Notacin latina: SOL|-------------------------------------------------------------| -----> Tercera
cuerda
Notacin latina: RE |-------------------------------------------------------------| -----> Cuarta
cuerda
Notacin latina: LA |-------------------------------------------------------------| -----> Quinta
cuerda
Notacin latina: MI |-------------------------------------------------------------| -----> Sexta
cuerda: Ms gruesa, ms grave

Notacin inglesa: e |-------------------------------------------------------------|


Notacin inglesa: B |-------------------------------------------------------------|
Notacin inglesa: G |-------------------------------------------------------------|
Notacin inglesa: D |-------------------------------------------------------------|
Notacin inglesa: A |-------------------------------------------------------------|

Notacin inglesa: E |-------------------------------------------------------------|

Los nmeros que aparecen en la tablatura marcan el traste que se debe tocar.
Es decir, si aparece esto:
Definicin de traste: Saliente de metal, hueso u otro material que va colocado
junto con otros de manera transversal a lo largo del mstil de la guitarra o de
otros instrumentos de cuerda; indica el lugar donde se deben pulsar las
cuerdas para producir los diversos sonidos. Espacio que hay entre dos de esos
salientes.

e |---------3---------------0---------------------------------|
B |----------------1-------------------------------------------|
G |------------------------------------------------------------|
D |------------------------------------------------------------|
A |------------------------------------------------------------|
E |------------------------------------------------------------|

Quiere decir: en la primera cuerda tocamos el tercer traste, luego, tocamos en


la segunda cuerda, el segundo traste y por ltimo tocamos la primera cuerda
suelta, es decir, si apoyar el dedo en ningn traste.

Cules son las notas inglesas y cules las latinas? Comparacin.


Notacin Inglesa Notacin latina
C = DO
D = RE
E = MI
F = FA
G = SOL

A = LA
B = SI

Cmo se forman las notas?

Guitarra: tablaturas, acordes, canciones fciles y populare


(Gracias luisbc por brindarnos la imagen)

Bueno, les dejo una pgina, muy buena, donde tiene todas las notas. Se las
recomiendo.
http://lacuerda.net/Recursos/acordes/
En esta pgina, avems de ver todas las notas, pueden buscar letras,
tablaturas, partituras de casi todos los cantantes latinioamericanos:
http://lacuerda.net/

Canciones fciles para practicar y quedar bien con tus amigos

1- Feliz cumpleaos

E||-----------------|-------1----0----|-----------------|-------3----1----|
B||--1----1----3----|--1--------------|--1----1----3----|--1--------------|
G||-----------------|-----------------|-----------------|-----------------|
D||-----------------|-----------------|-----------------|-----------------|
A||-----------------|-----------------|-----------------|-----------------|

E||-----------------|-----------------|-----------------|-----------------|

------------8----|--5----1----1----|--0-------------|--6----6----5----|--1----3----1----|
--1----1---------|-----------------|-------3--------|-----------------|-------------------|
-----------------|-----------------|----------------|-----------------|-------------------|
-----------------|-----------------|----------------|-----------------|-------------------|
-----------------|-----------------|----------------|-----------------|-------------------|
-----------------|-----------------|----------------|-----------------|-------------------|

Ac un video de una persona tocando el feliz cumpleaos:

link: http://www.youtube.com/watch?v=yO2toRV9K8Q

2- Cancin de cuna

e||----0--0--3----0--0--3----0--3--8--7---5--5--3------0-1-1---------0-1--------B||----------------------------------------------------------3-------------3----------------G||------------------------------------------------------------------------------------------D||------------------------------------------------------------------------------------------A||------------------------------------------------------------------------------------------E||-------------------------------------------------------------------------------------------

e-----1--7--5--3----7--8--------|
B---3-------------------------------|
G-----------------------------------|
D-----------------------------------|
A-----------------------------------|
E-----------------------------------|

3- Rezo por vos - Charly Garca

e||---2-----3-2----------------------------|
B||-----3-------3---1---3---1---3-3-----|
G||-------2-------2-------2----------------|
D||------------------------------------------|
A||------------------------------------------|
E||------------------------------------------|

Ac les dejo la cancin completa:

link: http://www.youtube.com/watch?v=vV447V597n8
El punteo que nosotros vimos es la primera parte y cuando se hacen solos de
guitarra.

4- Himno de la alegra

e|-----------------------------------------------------B|-0--0--1--3--3--1--0--------------0--0----------G|----------------------2--0--0--2--------2--2----D|-------------------------------------------------------A|--------------------------------------------------------E|--------------------------------------------------------

e|----------------------------------------------------B|-0--0--1--3--3--1--0--------------0-------------G|----------------------2--0--0--2------2--0--0---D|-------------------------------------------------------A|------------------------------------------------------E|------------------------------------------------------

e|-----------------------------------------------------B|-----0------0--1--0------0--1--0----------------G|--2----0--2---------0--2----------2--0--2-------D|------------------------------------------0------------A|-------------------------------------------------------E|--------------------------------------------------------

e|------------------------------------------------------B|-0--0--1--3--3--1--0------------0---------------G|---------------------2--0--0--2---2--0--0-------D|-----------------------------------------------------A|-----------------------------------------------------E|-----------------------------------------------------

Ac les dejo un video tutorial:

link: http://www.youtube.com/watch?v=BSwpqQ-iqPw

Tambin est la versin que se toca en vez de en la segunda, tercera y cuarta


cuerda, en la primera, segunda y tercera cuerda manteniendo esta misma
cronologa y esos mismos trastes.

5- Humo sobre el agua - Deep Purple

|-0--3--5---0--3--6--5---0--3--5--3--0--------

Ac va otro video tutoria:

link: http://www.youtube.com/watch?v=znlXBXspPsE

Esta cancin se puede tocar en cuarlquier cuerda.


(Gracias usuario: Knaya08)

Ac les dejo otra versin, a pedido de dieguishituppp:

e|-----------------------------------|
B|-----------------------------------|
G|-----3--5-------3--6--5--------|
D|-5--3--5----5--3--6--5--------|
A|-5-----------5--------------------|
E|-----------------------------------|

6- Inspector Gadget

e||------------------------------------------------------------------------------------|
B||-------------------------------------------------------------------------3--2-----|

G||----------------------------------------------------------------4--3--------------|
D||---------0--2--4----0--3--------2--0----------0--2--4-----------------------|
A||--2--4-----------------------4-----------2--4-----------------------------------|
E||------------------------------------------------------------------------------------|

Ac les dejo un video de un maestro tocando la guitarra, toca toda la cancin


del Inspector Gadget

link: http://www.youtube.com/watch?v=hSyy3hEpmS8

7- Sweet Child O' Mine - Guns N' Roses

e|--------------15----14-----|--------------15----14---------------|
B|-----15--------------------|-----15------------------------------------|
G|:-------14-12----14----14--|--------14-12----14----14----|
D|--12-----------------------|--14----------------------------------|
A|---------------------------|-----------------------------------------|
E|---------------------------|------------------------------------------|

GD
e|--------------15----14-----|--------------15----14--------------|

B|-----15--------------------|-----15--------------------------------|
G|:-12----14-12----14----14--|--------14-12----14----14-|
D|---------------------------|--12-----------------------------------------|
A|---------------------------|---------------------------|
E|---------------------------|---------------------------|

e|--12------------12----14---|--15----14----12---------------14---|
B|---------15----------------|---------------------15--------15---|
G|-----14------14----14---14-|-----14----14----14------14----14---|
D|---------------------------|------------------------------------|
A|---------------------------|------------------------------------|
E|---------------------------|------------------------------------|

Ac les dejo a otro maestro tocando:

link: http://www.youtube.com/watch?v=v9oae5ClxaQ

8- El padrino

e|---0-3-2-0-3-0-2-0---------------0-3-2-0-3-0-2-0------------------0-2-----------0----3------------------------|
B|-0--------------------1-3-0---0------------------------0----------1------------0-4------------3-10-3-1-0-0-4---|
G|------------------------------------------------------------3-2-0-----------0---------------------------------------|
D|-----------------------------------------------------------------------------------------2---------------------------|
A|----------------------------------------------------------------------------------------------------------------------|
E|----------------------------------------------------------------------------------------------------------------------|

link: http://www.youtube.com/watch?v=D8y8uQj1lUU

9- Misin imposbile

e|----------------------------------------------------B|----------------------------------------------------G|----------------------------------------------------D|----------------------------------------------------A|--------2-4------------------------2-4---------------

E|-4-4-4-4----4-4-4-4-2-3-4--4-4-4-4------4-4-4-4-2-3-4

e|----------------|
B|-1---1--1-------|
G|--2---2--2------|
D|---2---1--0---0-|
A|-------------3--|
E|----------------|

link: http://www.youtube.com/watch?v=dDkhYGEEJ5Y&feature=related

10- El exorsista

e|---0--5--0--7--0--3--5--0--8--10--0--7--|

(Se repite)

link: http://www.youtube.com/watch?v=VzDYQ481vtM

11- Los simpsons

e|-----0---2--5-3-0------------------------------------|
B|--1-------------------1-------------------------------|
G|-------------------------2----------0-----------------|
D|-----------------------------4-4-4-------------------|
A|------------------------------------------------------|
E|------------------------------------------------------|

e|-----0---2--5-3-0------------------------------------------------|
B|-1-------------------1--------------------------0---2-2-2-3-----|
G|------------------------2---------0----------0--------------------|
D|----------------------------4-4-4----4-4-4-----------------------|
A|-------------------------------------------------------------------|
E|------------------------------------------------------------------- |

Nos es el mismo punteo, pero suena igual, disfrutenlo:

link: http://www.youtube.com/watch?v=smMmAZzJ6rI

12- El lago de los cisnes

E||-----------------------|----------------------|------------------------|
B||--0--------------------|--0---------0---------|--0---------------------|
G||-----------------0--2--|---------0---------0--|------------0--------0--|
D||-----------2--4--------|----------------------|---------2-----2--------|
A||-----------------------|----------------------|------------------3-----|
E||-----------------------|----------------------|------------------------|

----------------------|-----------------------|----------------------|
----------------------|--0--------------------|--0---------0---------|
-------------2--0-----|-----------------0--2--|---------0---------0--|
--2----------------4--|-----------2--4--------|----------------------|
----------------------|-----------------------|----------------------|
----------------------|-----------------------|----------------------|

------------------------|-------------------|-----------------------|
--0---------------------|--0----------------|-----------------0--1--|
------------0--------0--|-------------------|-------0----2----------|
---------2-----2--------|-------------------|--4--------------------|
------------------3-----|-------------------|-----------------------|
------------------------|-------------------|-----------------------|

-----------------------|--0-----------------0--|--2------0-----------|
--3------1--0----1--3--|---------3--1----3-----|------------0--------|
-----------------------|-----------------------|---------------------|
-----------------------|-----------------------|---------------------|
-----------------------|-----------------------|---------------------|
-----------------------|-----------------------|---------------------|

-----------------------|-----------------------|--0-----------------0--|
-----------------0--1--|--3------1--0----1--3--|---------3--1----3-----|
-------0----2----------|-----------------------|-----------------------|
--4--------------------|-----------------------|-----------------------|
-----------------------|-----------------------|-----------------------|
-----------------------|-----------------------|-----------------------|

--1-----------------1--|--2---------1---------||-----------------------|

---------1-------1-----|---------2------------||--0--------------------|
------------2----------|---------------------*||-----------------0--2--|
-----------------------|---------------------*||-----------2--4--------|
-----------------------|----------------------||-----------------------|
-----------------------|----------------------||-----------------------|

----------------------|------------------------|----------------------|
--0---------0---------|--0---------------------|----------------------|
---------0---------0--|------------0--------0--|-------------2--2-----|
----------------------|---------2-----2--------|--2----------------4--|
----------------------|------------------3-----|----------------------|
----------------------|------------------------|----------------------|

-----------------------|----------------------|------------------------|
--0--------------------|--0---------0---------|--0---------------------|
-----------------0--2--|---------0---------0--|------------0--------0--|
-----------2--4--------|----------------------|---------2-----2--------|
-----------------------|----------------------|------------------3-----|
-----------------------|----------------------|------------------------|

-------------------|-------------------|--0----------------||
-------------------|-------------------|-------------------||
-------------------|-------------------|-------------------||

--2----------------|--2----------------|------------------||
-------------------|-------------------|-------------------||
-------------------|-------------------|-------------------||

13- La Pantera Rosa

e------------------------------------------------------B------------------------------------------------------G------------------------------------------------------D------------------------------------------------------A-----------------------------3-2-------2-1---0--------E---1-2---4--5---1--2--4--5--------2-5----------5-2-0-2-

e--------------------------------------------------------B--------------------------------------------------------G-----------------------------------------------------7-9
D---2--0----------------------------------------------7-9
A---------2--0----------------------------------------5-7
E---------------5--2--/7--/7--/7--/7--52--0---2--2-------

link: http://www.youtube.com/watch?v=AoolpYJuJ-8&feature=related

14- Seven Nation Army - The White Stripes

e------------------------------------------------|
C#----------------------------------------------|
A------------------------------------------------|
E-------------------------------------------------|
A---7----7----10----7----5----3----2-------|
E------------------------------------------------|

link: http://www.youtube.com/watch?v=CBZjen8Kztw
http://www.taringa.net/posts/musica/11617449/Guitarra-tablaturas-acordescanciones-faciles-y-populare.html

tablaturas faciles para guitarra 2da parte


!HOLA A TODOS DE NUEVO

BIENVENIDOS A MI 2do POST DE TABLATURAS FACILES PARA GUITARRA Y EN EL


LES TRAIGO:

ESTRELLITA,ESTRELLITA

1 ---------0-0-------------------2 -----3-3----3-1-1-0-0-------3 0-0----------------------2-2-04 ----------------------------------5 ----------------------------------6 -----------------------------------

ESA ES LA 1RA PARTE Q SE REPITE 2 VECES

1 -----------------2 3-3-1-1-0-0-3 ----------------2

4 -----------------5 -----------------6 ------------------

ESA ES LA 2DA PARTE Q SE REPITE DOS VECES Y LUEGO SE REPITE LA 1RA


PARTE

FLACA - ANDRES CALAMARO

1 --------------------------------------------------------------------------------------2 -3--0-----0-3-4-0-----0-4-5-0--------0-3-1-1----0-3--0----------0-3-0---3 -------2-0-----------2-0----------2-0-2-----------------------2-0-2----------2-0


4 ----------------------------------------------------------------------------------------5 ----------------------------------------------------------------------------------------6 -----------------------------------------------------------------------------------------

Y ESTO ES EL FINAL DE LA CANCION:

1 ------------------------------2-0-0------------------------3---------2------2 ----------------------5-4-4---------0---0-3-1-1---0-3----0----3---0---3 ---------0-2-5--4-4------------------2------------2-----------2--------2-0


4 0-2-4-------------------------------------------------------------------------5 --------------------------------------------------------------------------------6 ---------------------------------------------------------------------------------

NAVIDAD

1 -0-0-0--0-0-0--0-3-----0-1-1-1-1-0-0-0----0---3-0-0-0--0-0-0-0-3----0-1-1-1-1-0-03-3-1---2 ------------------------1-3----------------------3-3--3-------------------------13--------------------------3-1
3
---------------------------------------------------------------------------------------------------------------------4
---------------------------------------------------------------------------------------------------------------------5
---------------------------------------------------------------------------------------------------------------------6
-----------------------------------------------------------------------------------------------------------------------

Y ESO FUE TODO EL POST LUEGO PONDRE MAS ENTREN A MI OTRO POST DE
TABLATURAS FACILES:

http://www.taringa.net/posts/musica/4516300/tablaturas-faciles-paraguitarra.html
http://www.taringa.net/posts/musica/4584257/Tablaturas-faciles-para-guitarra2da-parte.html