Vous êtes sur la page 1sur 6

Artist: Jimi Hendrix

Piece: Angel (Acoustic)


Instrument: Guitar
Submitter: HumanZoo

Mxtabs [http://www.mxtabs.net]

TAB UNDER CONTRUCTION!!!!!!!

HumanZ00@msn.com if you think somethings a mest


#1 HENDRIX FAN

-7-----------0-----------------5-----------0---------------------------------
-9-----9-----7-----------7-----7-----7-----5-----------5-----0-----------12--
-8--8-----8--4--------4-----4--6--6-----6--2--------2-----2--11-----------9--
-------------------6-----------------------------4--------------------9--11--
----------------6-----------------------------4--------------------11----11--
-0-----------0-----------------0-----------0--------------------0---------0--

-----0-----------------------------------0--------------------0-----7--5---
-14--5-----------------------5-----------5--0-----------0--3--------7--5---
-11--2-----2-----------------2--------2--2--2--------0--0--4-----4---------
-13--4--4--------4--------4-----4-----4--4--4--------0--------0------------
-13--4--------4-----4-----4-----4--4--4------------------------------------
-----0-----------------0-----------0-----------2/3-------------------------

-0H3P0--0-------------------------------------------------1--1--3--5--------
-1------1-----------------1--1-------------1--1--1P0H1P0--1--1--1--------0--
-2------2--0--2--0-----0--2--0----------0--0-----0---0----2--2--3--5--------
--------------------2--0-----0--2P1--0--------------------------------------
-0------------------------------2P0--------3--------------------------------
-------------------------------------3--------------------------------1--3--

----------------------------------------------------0-----7--5--0H3P0--0-----------
-------0-----------3-----1--1-----------------0--3--------7--5--1------1-----------
----0-----2--------2-----0--0-----0--------0--0--4-----4--------2------2--0--2--0--
-0--------------0-----0--------0-----0-----0--------0------------------------------
-----------------------------------------------------------------------------------
-------------3--------------------------3------------------------------------------

---------------------------------------1--1--3--5------------------------------------
-------1--1-------------1--1--1P0H1P0--2--2--1-----6--0--------0-----------1---------
----0--2--0----------0--0-----0---0----2--2--3--5-----------0-----2--0-----2---------
-2--0-----0--2P1--0--------------------------------------0--------------------0--2--0
-------------2P0--------3------------------------------------------------------------
------------------3-----------------------------------3-----------------3------------

-----------------------------------------------------------------------------------
----------1------------------------1-----1--0-----------3-----3--3--3-----------1--
----------0------------------0H3P0-------------2--0-----0-----0--2--0-----------2--
----0--------2--------0--1------------0-----0--------0-----------------2--0--------
-3-----3--------3--4---------------------------------------------------------0-----
-----------------------------------3-----------------------3-----------------------

-0H3P0----------2H5P2--
-------1-----3---------0
-------2-----4---------
-----------------------
----------2------------
-----------------------
-7-----------0-----------------5-----------0---------------------------------
-9-----9-----7-----------7-----7-----7-----5-----------5-----0-----------12--
-8--8-----8--4--------4-----4--6--6-----6--2--------2-----2--11-----------9--
-------------------6-----------------------------4--------------------9--11--
----------------6-----------------------------4--------------------11----11--
-0-----------0-----------------0-----------0--------------------0---------0--

-----0-----------------------------------0--------------------0-----7--5---
-14--5-----------------------5-----------5--0-----------0--3--------7--5---
-11--2-----2-----------------2--------2--2--2--------0--0--4-----4---------
-13--4--4--------4--------4-----4-----4--4--4--------0--------0------------
-13--4--------4-----4-----4-----4--4--4------------------------------------
-----0-----------------0-----------0-----------2/3-------------------------

-0H3P0--0-------------------------------------------------1--1--3--5--------
-1------1-----------------1--1-------------1--1--1P0H1P0--1--1--1--------0--
-2------2--0--2--0-----0--2--0----------0--0-----0---0----2--2--3--5--------
--------------------2--0-----0--2P1--0--------------------------------------
-0------------------------------2P0--------3--------------------------------
-------------------------------------3--------------------------------1--3--

----------------------------------------------------0-----7--5--0H3P0--0-----------
-------0-----------3-----1--1-----------------0--3--------7--5--1------1-----------
----0-----2--------2-----0--0-----0--------0--0--4-----4--------2------2--0--2--0--
-0--------------0-----0--------0-----0-----0--------0------------------------------
-----------------------------------------------------------------------------------
-------------3--------------------------3------------------------------------------

---------------------------------------1--1--3--5------------------------------------
-------1--1-------------1--1--1P0H1P0--2--2--1-----6--0--------0-----------1---------
----0--2--0----------0--0-----0---0----2--2--3--5-----------0-----2--0-----2---------
-2--0-----0--2P1--0--------------------------------------0--------------------0--2--0
-------------2P0--------3------------------------------------------------------------
------------------3-----------------------------------3-----------------3------------

-----------------------------------------------------------------------------------
----------1------------------------1-----1--0-----------3-----3--3--3-----------1--
----------0------------------0H3P0-------------2--0-----0-----0--2--0-----------2--
----0--------2--------0--1------------0-----0--------0-----------------2--0--------
-3-----3--------3--4---------------------------------------------------------0-----
-----------------------------------3-----------------------3-----------------------

-0H3P0----------2H5P2--
-------1-----3---------0
-------2-----4---------
-----------------------
----------2------------
-----------------------

Angel Acoustic Chords by Jimi Hendrix, www.Ultimate-Guitar.Com


F Cmaj6 Gmin Gmin (*)
Angel come down from heaven yesterday,

Bb Eb F (**)
She stayed with me just long enough for afternoon tea.

F Cmaj6 Gmin (*)


And she tell me a story yesterday,

Bb Eb F Eb
About the Love between the Moon & the deep blue sea.

Bb C# F F
And when it was time for her to go, She spread her wings high over me,

Gmin Amin Bbmaj


And she said, "I shall return tomorrow."

Bbmaj Bbmaj Bbmaj Bbmaj


And I said

Eb Eb Fmin Fmin
"Fly on my sweet angel

B A C# D Eb Eb
Fly on through the sky

Eb Fmin Fmin
Fly on my sweet angel

B Bb C# D Eb
Tomorrow I'll look for you by my side."

-
Eb F# C# D Eb
G# Bb G# Bb C
-

F Cmaj6 Gmin (*)


And sure enough this morning comes to me,

Bb Eb F
(**)
While silver wings silhouette against the glow of the child's sunrise.

F Cmaj6 Gmin (*)


And as the blue birds and the sparrows envy me,

Bb Eb F Eb
She says, "I Love you little boy and today you shall fly."

Bb C# F F
She kissed me once, And the feeling so good she made me cry.

Gmin Amin Bbmaj


And now we can fly together...

Eb Eb Fmin Fmin
And I said, "Fly on my sweet Angel,

B A C# D Eb Eb
Fly on through the sky,

Eb Fmin Fmin
Fly on my sweet angel,
B Bb C# D Eb
Together we shall always be alive."
-
B Bb C# D Eb
-

(*)

e| ---------------
B| ---------------
G| ---------------
D| ---------------
A| -3/5-3---------
E| -------4-3-1---

(**)

e| -------------------
B| -------------------
G| -------------------
D| -------------------
A| -----0-3-5h3-------
E| -1-1---------5-3-0-

ANGEL, JIMI HENDRIX


Transcription by Max
Send all comments to MaxxDaddy@aol.com

[lyrics removed -- see diet-olga policy]

Guitar tuned down 1/2 step:

Verse
Intro F# C#6 G#m
---0---0----0----0----0----0---|--2-----6-------4--------------------
---7---5----7---12---14----5---|--2-----6---4-7-4--------------------
---4---2----4----9---11----2---|--3-----6-------4-------------4---4--
---6---4----6---11---13----4---|--4-----6-------6--6--4-------4-6-4--
---6---4----6---11---13----4---|--4-----4-------6-------6-5-4--------
---0---0----0----0----0----0---|--2-------------4--------------------

B E C# B C# B D F#
-----------2--0----4---4----6---6-------------||----------------------
-----------4--0---------------------6---4---6-||--4---7-7-------------
-----------4--1--4---4----6---6-----6---4---6-||--4---7-6-------------
-----------4--2---------------------6---4---6-||--4---7-4--4-6-4------
-6-5-4---2-2------------------------4---4---4-||--2---5-4--------6--4-
--------------0-------------------------------||----------------------

Chorus
G# A# B Bsus E F#m7 C A D D# E
--4--------6--------7--7--|--0---0------------------------------------
--4-7-4----6-9-6----7--7--|--0---5--5--2---7--8--9--------------------
--4--------6--------8--9--|--1---2--5--2---7--8--9--------------------
--6-----6--8-----8--9--9--|--2---4--5--2---7--8--9--------------------
--6--------8--------9--9--|--2---4--3--0---5--6--7-----7-9-11-9-7-----
--4--------6--------7--7--|--0---0-----------------7-9----------------

F# C#6 G#m
Angel came down...
B E
F# C#6 G#m
B E
B D F#
G#m A#m
B Bsus

Chorus:

E F#m7/E
Fly on my...
C A D D# E
E F#m7/E
C A D D# E

Well, I don't know how the tab is going to look, since I only wrote it
in Windows Notepad. But if you line up the chords and bars vertically,
all the licks should fall into place. This song was originally played
through
a Leslie speaker, but sounds fine through a phaser or flanger.

---

Date: Fri, 24 Nov 1995 15:14:57 +0100


From: kleine@cs.utwente.nl (Erik E.F.J. Klein)

"Angel" from Jimi Hendrix.


Posted by Erik Klein (kleine@cs.utwente.nl) from the Netherlands.

I've only tabbed the intro yet. The rest will follow later.
The whole song is played with the guitar tuned down a half step.
A Leslie is used to get the 'spacy sound'. This effect can be emulated
with a chorus pedal at a medium slow rate.

Eb |0--0-------0------------0---|0---------------0-----------|
Bb |7-----7----7----7-------7s5-|5---5--------5--5--5--------|
Gb |4--------4---4--4-----------|2---2--------2--2--2s4------|
Db |6--------6---6--------6-----|4------4--4-----4--4--------|
Ab |6-----------------6---------|4------4--4-----------------|
Eb |0-------------------0-------|0---------0-----------------|

Eb |0-----0--0----0---0---0-------|0------------------------0----|
Bb |7-----7--7----12--12--14--14--|5---------------------5--5----|
Gb |4-----4--4----9---9---11--11--|2------2--------------2--2----|
Db |6--6-----6----11--11--13--13--|4--4---------4--------4-----4-|
Ab |--------------11--11----------|4---------4-----4-----------4-|
Eb |------------------------------|0------------------0----------|
>