Vous êtes sur la page 1sur 32

ARCAR GLADYS LILIANA MAIL: liarcar@yahoo.com.

ar

MES NOVIEMBRE/12

REMUNERACIN CONTRIBUCIONES
NETA DEL EMPLEADOR
APORTES
ORDEN

FECHA DE CONTRATO 29.50%


APELLIDOS Y NOMBRES SUELDO BSICO
INGRESO

JUBILACION OBRA SOCIAL LEY 19032 TOTAL

01 MORENO, MARIANO 6/1/2006 JORNADA COMPLETA 5,500.00 605.00 165.00 165.00 935.00 4,565.00 1,622.50
02 SARMIENTO, DOMINGO 6/1/2012 JORNADA COMPLETA 5,100.00 561.00 153.00 153.00 867.00 4,233.00 1,504.50
03 PASO, JUAN 9/1/2012 JORNADA COMPLETA 5,000.00 550.00 150.00 150.00 850.00 4,150.00 1,475.00
04 MOREAU, ALICIA 11/30/2011 MEDIA JORNADA 2,700.00 297.00 81.00 81.00 459.00 2,241.00 796.50
05 GUEMES, MARTIN 8/17/2012 MEDIA JORNADA 2,500.00 275.00 75.00 75.00 425.00 2,075.00 737.50
06 CABRAL, JUAN 12/3/2012 JORNADA COMPLETA 5,000.00 550.00 150.00 150.00 850.00 4,150.00 1,475.00

TOTALES S/. 25,800.00 2,838.00 774.00 774.00 4,386.00 21,414.00 7,611.00

MES DICIEMBRE/12

REMUNERACIN CONTRIBUCIONES
NETA DEL EMPLEADOR
APORTES
ORDEN

FECHA DE CONTRATO 29.50%


APELLIDOS Y NOMBRES SUELDO BSICO
INGRESO

JUBILACION OBRA SOCIAL LEY 19032 TOTAL

01 MORENO, MARIANO 6/1/2006 JORNADA COMPLETA 5,500.00 605.00 165.00 165.00 935.00 4,565.00 1,622.50
05 GUEMES, MARTIN 8/17/2012 MEDIA JORNADA 2,500.00 275.00 75.00 75.00 425.00 2,075.00 737.50
06 CABRAL, JUAN 12/3/2012 JORNADA COMPLETA 5,000.00 550.00 150.00 150.00 850.00 4,150.00 1,475.00

TOTALES S/. 13,000.00 1,430.00 390.00 390.00 2,210.00 10,790.00 3,835.00


ARCAR GLADYS PRACTICO 2 EFIP1 corregido.xls liarcar@yahoo.com.a

SALARIO SAC TOTAL

FECHA DE PROPORCIONAL PROPORCIONAL REMUNERATIVO APORTES REMUNERACIN


CAUSA DE EXTINCION DEL CONTRATO
EGRESO NETA

JUBILACION OBRA SOCIAL LEY 19032 TOTAL

5500.00 605.00 165.00 165.00 935.00 4,565.00


11/5/2012 DESPIDO SIN PREVIO AVISO 850.00 2238.34 3088.34 339.72 92.65 92.65 525.02 2,563.32
11/15/2012 DESPIDO SIN PREVIO AVISO 2500.00 1055.55 3555.55 391.11 106.67 106.67 604.44 2,951.10
11/20/2012 RENUNCIA CON PREAVISO LEY 1800.00 1072.50 2872.50 315.97 86.17 86.17 488.32 2,384.19
12/10/2012 2500.00 275.00 75.00 75.00 425.00 2,075.00
0.00

SALARIO SAC TOTAL

FECHA DE REMUNERACIN
CAUSA DE EXTINCION DEL CONTRATO PROPORCIONAL PROPORCIONAL REMUNERATIVO APORTES
EGRESO NETA

JUBILACION OBRA SOCIAL LEY 19032 TOTAL

2750.00 8250.00 907.50 247.50 247.50 1,402.50 6,847.50


12/10/2012 DESPIDO CON PREAVISO 30/11/12 833.34 798.61 1631.95 179.51 48.96 48.96 277.43 1,354.52
388.88 5388.88 592.78 161.67 161.67 916.12 4,472.76
ahoo.com.ar

CONTRIBUCIONES
INDEMNIZACION INTEGRACION INDEMNIZACION VACACIONES TOTAL
DEL EMPLEADOR

29.50% SUSTITUTIVA MES DE POR NO NO

DE PREAVISO DESPIDO ANTIGEDAD GOZADAS REMUNERATIVO

1,622.50
911.06 5,524.83 4604.02 5,524.83 1,356.94 17,010.62
1,048.89 2,708.32 ### 641.31 6,057.95
847.39 1,474.15 1,474.15
737.50 -

CONTRIBUCIONES
DEL EMPLEADOR
INDEMNIZACION INTEGRACION INDEMNIZACION VACACIONES TOTAL

29.50% SUSTITUTIVA MES DE POR NO NO

DE PREAVISO DESPIDO ANTIGEDAD GOZADAS REMUNERATIVO

2,433.75
481.43 2,708.25 902.75 2708.25 484.23 6,803.48
1,589.72
ASIENTO 1 Liquidacin de despido: sueldo proporcional y SAC proporcional
Fecha: 05/11/12

SARMIENTO DOMINGO DESPIDO 11/5/2012

FECHA INGRESO: 6/1/2012


FECHA EGRESO: 11/5/2012
BASICO: 5100
PREAVISO NO GOZADO
VACACIONES NO GOZADAS
APORTES: 17%
CONTRIBUCIONES: 29.50%
ANTIGEDAD: 5 MESES Y CINCO DIAS

SALARIO PROPORCIONAL:
(5) DIAS (5100/30)*5 = 850

SAC PROPORCIONAL

DIAS TRABAJADOS: JULIO A NOV 5100/2 = 2550 180 das


TOTAL: 850 + 1813,33 = 2663,33 128 das = 1813,33

INDEMNIZACION SUSTITUTIVA PREAVISO

ANTIGEDAD MAYOR A 3 MESES = UN SUELDO COMPLETO


5100

INTEGRACION MES DE DESPIDO:

(5100/30)*25 = 4250

INDEMNIZACION POR ANTIGEDAD:


UN MES POR CADA AO DE SERVICIO O FRACCION MAYOR DE 3 MESES
5100

VACACIONES NO GOZADAS
MENOS DE 5 AOS DE ANTIGEDAD: 14 DIAS DE LICENCIA
360 DIAS----- 14 DIAS
158 DIAS----- X
158*14/360 = 6,14
(5100/25)*6,14 = 1252,56
ASIENTO 2 Liquidacin de despido: sueldo proporcional y SAC proporcional
Fecha: 15/11/12

PASO JUAN DESPIDO 11/15/2012

FECHA INGRESO: 9/1/2012


FECHA EGRESO: 11/15/2012
BASICO: 5000
PREAVISO NO GOZADO
VACACIONES NO GOZADAS
APORTES: 17%
CONTRIBUCIONES: 29.50%
ANTIGEDAD: 2 MESES Y QUINCE DIAS

SALARIO PROPORCIONAL:
(15) DIAS (5000/30)*15 = 2500

SAC PROPORCIONAL

DIAS TRABAJADOS: JUNIO A NOV 76 DIAS (5000/360)*76 = 1055,55


TOTAL: 2500 + 1055,55 = 3555,55

INDEMNIZACION SUSTITUTIVA PREAVISO

ANTIGEDAD MENOR A 3 MESES = MEDIO SUELDO


2500

INTEGRACION MES DE DESPIDO:

no corresponde. Perodo de prueba

INDEMNIZACION POR ANTIGEDAD:

NO CORRESPONDE

VACACIONES NO GOZADAS
MENOS DE 5 AOS DE ANTIGEDAD: 14 DIAS DE LICENCIA
360 DIAS----- 14 DIAS
76 DIAS----- X

76*14/360 = 2,96
(5000/25)*2,96 = 592

ASIENTO 3 Liquidacin de renuncia: sueldo proporcional y SAC proporcional


Fecha: 20/11/12

MOREAU ALICIA RENUNCIA 11/5/2012

FECHA INGRESO: 30/11/12


FECHA EGRESO: 20/11/12
BASICO: 2700
VACACIONES NO GOZADAS
APORTES: 17%
CONTRIBUCIONES: 29.50%
ANTIGEDAD: 11 MESES Y VEINTE DIAS

SALARIO PROPORCIONAL:
(20) DIAS (2700/30)*20 = 1800

SAC PROPORCIONAL

DIAS TRABAJADOS: JUNIO A NOV 143 DIAS (2700/360)*143 = 1072,50


TOTAL: 1800 + 1072,50 = 2872,50

SAC SOBRE PREAVISO:


NO CORRESPONDE

INTEGRACION MES DE DESPIDO:


NO CORRESPONDE

SAC SOBRE INTEGRACION MES DE DESPIDO:


NO CORRESPONDE

INDEMNIZACION POR ANTIGEDAD:


NO CORRESPONDE

SAC SOBRE INDEMNIZACION POR ANTIGEDAD

NO CORRESPONDE

VACACIONES NO GOZADAS
MENOS DE 5 AOS DE ANTIGEDAD: 14 DIAS DE LICENCIA
360 DIAS----- 14 DIAS
324 DIAS----- X

324*14/360 = 12,60
(2700/25)*12,60 = 1360,80

ASIENTO 4 DEVENGAMIENTO DE LOS SUELDOS Y CARGAS SOCIALES DE NOVIEMBRE DE 2

ASIENTO 5 Pago de Cargas Sociales y Contribuciones

ASIENTO 6 Pago de sueldos y cargas sociales mes noviembre/12

ASIENTO 7 Liquidacin de despido: sueldo proporcional y SAC proporcional


Fecha: 10/12/12

GUEMES MARTIN DESPIDO 12/10/2012

FECHA INGRESO: 17/08/12


FECHA EGRESO: 10/12/12
BASICO: 2500
APORTES: 17%
CONTRIBUCIONES: 29.50%
ANTIGEDAD: 3 MESES Y VEINTITRES DIAS
CONTABILIZACION MES DICIEMBRE/12
SALARIO PROPORCIONAL:
(10) DIAS (2500/30)*10 = 833,34

SAC PROPORCIONAL

DIAS TRABAJADOS: JUNIO A NOV 115 (2500/360)*115 = 798,61


TOTAL: 833,34 + 798,61 = 1631,95

INDEMNIZACION SUSTITUTIVA PREAVISO

ANTIGEDAD MAYOR A 3 MESES = 1 SUELDO


2500
INTEGRACION MES DE DESPIDO:

(2500/30)*10 = 833,33
INDEMNIZACION POR ANTIGEDAD:
UN MES POR CADA AO DE SERVICIO O FRACCION MAYOR DE 3 MESES
2500

VACACIONES NO GOZADAS
MENOS DE 5 AOS DE ANTIGEDAD: 14 DIAS DE LICENCIA
360 DIAS----- 14 DIAS
115 DIAS----- X

115*14/360 = 4,47
(2500/25)*4,47 = 447

ASIENTO 8

Sueldos = 5500 + 5000 = 10500


SAC Proporcional Cabral
5000/2 = 2500
180 das = 2500
28 das = 388,88
SAC Proporcional Moreno
5500/2 = 2750
180 das = 2750
TOTAL 2750 + 388,88 = 3138,88

ASIENTO 9

pago de Cargas Sociales y contribuciones


proporcional
C proporcional
CIALES DE NOVIEMBRE DE 2012

proporcional
CONTRIBUCIONES: 29.50%
ANTIGEDAD: 3 MESES Y VEINTITRES DIAS
CONTABILIZACION MES DICIEMBRE/12
SALARIO PROPORCIONAL:
(10) DIAS (2500/30)*10 = 833,34

DIAS TRABAJADOS: JUNIO A NOV 115 (2500/360)*115 = 798,61


TOTAL: 833,34 + 798,61 = 1631,95

ANTIGEDAD MAYOR A 3 MESES = 1 SUELDO


2500
SAC SOBRE PREAVISO: 2500*0,0833 = 208,25
TOTAL: 2500+208,25 = 2708,25
SAC SOBRE INTEGRACION MES DE DESPIDO: 833,33*0,0833 = 69,42
TOTAL: 833,33+69,42 = 902,75

INDEMNIZACION POR ANTIGEDAD:

UN MES POR CADA AO DE SERVICIO O FRACCION MAYOR DE 3 MESES


2500
SAC POR ANTIGEDAD
360 DIAS----- 14 DIAS
115 DIAS----- X

115*14/360 = 4,47
(2500/25)*4,47 = 447

SAC SOBRE VACACIONES NO GOZADAS

447*0,0833 = 37,23
TOTAL: 447+37,23 = 484,23
DEVENGAMIENTO DE LOS SUELDOS Y CARGAS SOCIALES DE OCTUBRE DE
----------------------------------31/10/2012-----------------------------------

----------------------------------05/11/2012-----------------------------------
ASIENTO 1 SUELDOS Y JORNALES
CARGAS SOCIALES
INDEMNIZACION SUSTITUTIVA DE PREAVISO
INTEGRACION MES DE DESPIDO
INDEMNIZACION POR ANTIGEDAD
VACACIONES NO GOZADAS

PAGO SUELDOS Y SAC PROPORCIONALES POR DESPIDO SARMIENTO DOMINGO


----------------------------------05/11/2012-----------------------------------

Abonado el 05/12

----------------------------------05/11/2012-----------------------------------

Realizado en un solo asiento

----------------------------------15/11/2012-----------------------------------
ASIENTO 2 SUELDOS Y JORNALES
CARGAS SOCIALES
INDEMNIZACION SUSTITUTIVA DE PREAVISO
VACACIONES NO GOZADAS

PAGO SUELDOS Y SAC PROPORCIONALES POR DESPIDO DE PASO JUAN


----------------------------------15/11/2012-----------------------------------
Abonado el 05/12

----------------------------------15/11/2012-----------------------------------

INTEGRACION MES DE DESPIDO ( NO CORRESPONDE)


Realizado en un solo asiento

----------------------------------20/11/2012-----------------------------------
ASIENTO 3 SUELDOS Y JORNALES
CARGAS SOCIALES
VACACIONES NO GOZADAS

PAGO SUELDOS Y SAC PROPORCIONALES POR RENUNCIA DE MOREAU ALICIA


----------------------------------20/11/2012-----------------------------------

Abonado el 05/12

----------------------------------20/11/2012-----------------------------------

Realizado en un solo asiento

---------------------------------- -----------------------------------
DEVENGAMIENTO DE LOS SUELDOS Y CARGAS SOCIALES DE NOVIEMBRE
ASIENTO 4 ----------------------------------30/11/2012-----------------------------------
SUELDOS Y JORNALES
CARGAS SOCIALES

---------------------------------- -----------------------------------
PAGO DE CARGAS SOCIALES Y CONTRIBUCIONES
----------------------------------05/12/2012-----------------------------------
ASIENTO 5 CARGAS SOCIALES A PAGAR
APORTES A DEPOSITAR

---------------------------------- -----------------------------------
PAGO DE SUELDOS Y CARGAS SOCIALES DE NOVIEMBRE DE 2012
ASIENTO 6 SUELDOS Y JORNALES A PAGAR
CARGAS SOCIALES A PAGAR
APORTES A DEPOSITAR
---------------------------------- -----------------------------------
REGISTRACION POR LAS NOVEDADES DE DICIEMBRE DE 2012
----------------------------------10/12/2012-----------------------------------
ASIENTO 7 SUELDOS Y JORNALES
CARGAS SOCIALES
INDEMNIZACION SUSTITUTIVA DE PREAVISO
INTEGRACION MES DE DESPIDO
INDEMNIZACION POR ANTIGEDAD
VACACIONES NO GOZADAS

PAGO SUELDOS Y SAC PROPORCIONALES POR DESPIDO GUEMES MARTIN


---------------------------------- -----------------------------------

Realizado en un solo asiento

---------------------------------- ------------------------------------------------
DEVENGAMIENTO DE LOS SUELDOS Y CARGAS SOCIALES DE DICIEMBRE D
----------------------------------31/12/2012-----------------------------------
ASIENTO 8 SUELDOS Y JORNALES
CARGAS SOCIALES

SUELDOS DE MORENO MARIANO Y CABRAL JUAN


-------------------------------05/01/13 -----------------------------------
ASIENTO 9 CARGAS SOCIALES A PAGAR
APORTES A DEPOSITAR

PAGO DE CARGAS SOCIALES Y CONTRIBUCIONES

BANCO
APORTES A DEPOSITAR
CARGAS SOCIALES A PAGAR
SUELDOS Y JORNALES A PAGAR
SUELDOS Y JORNALES
CARGAS SOCIALES
INDEMNIZACION SUSTITUTIVA DE PREAVISO
INTEGRACION MES DE DESPIDO
INDEMNIZACION POR ANTIGEDAD
VACACIONES NO GOZADAS
AMIENTO DE LOS SUELDOS Y CARGAS SOCIALES DE OCTUBRE DE 2012
---------------------------------31/10/2012-----------------------------------

---------------------------------05/11/2012-----------------------------------
Y JORNALES 2,663.33
785.68
ACION SUSTITUTIVA DE PREAVISO 5,100.00
ION MES DE DESPIDO 4,250.00
ACION POR ANTIGEDAD 5,100.00
ES NO GOZADAS 1,252.56
a CARGAS SOCIALES A PAGAR 785.68
a APORTES A DEPOSITAR 452.77
A BANCO 17913.12
S Y SAC PROPORCIONALES POR DESPIDO SARMIENTO DOMINGO
---------------------------------05/11/2012-----------------------------------

---------------------------------05/11/2012-----------------------------------

en un solo asiento

---------------------------------15/11/2012-----------------------------------
Y JORNALES 3,555.55
1,048.89
ACION SUSTITUTIVA DE PREAVISO 2,500.00
ES NO GOZADAS 592.00
a CARGAS SOCIALES A PAGAR 1048.89
a APORTES A DEPOSITAR 604.44
a BANCO 6043.11
S Y SAC PROPORCIONALES POR DESPIDO DE PASO JUAN
---------------------------------15/11/2012-----------------------------------
---------------------------------15/11/2012-----------------------------------

ION MES DE DESPIDO ( NO CORRESPONDE)


en un solo asiento

---------------------------------20/11/2012-----------------------------------
Y JORNALES 2872.50
847.38
ES NO GOZADAS 1360.8
a CARGAS SOCIALES A PAGAR 847.38
a APORTES A DEPOSITAR 488.32
a BANCO 3744.98
S Y SAC PROPORCIONALES POR RENUNCIA DE MOREAU ALICIA
---------------------------------20/11/2012-----------------------------------

---------------------------------20/11/2012-----------------------------------

en un solo asiento

---------------------------------- -----------------------------------
AMIENTO DE LOS SUELDOS Y CARGAS SOCIALES DE NOVIEMBRE DE 2012
---------------------------------30/11/2012-----------------------------------
Y JORNALES 8000.00
2360.00
A SUELDOS Y JORNALES A PAGAR 6640.00
A CARGAS SOCIALES A PAGAR 2360.00
A APORTES A DEPOSITAR 1360.00
---------------------------------- -----------------------------------
E CARGAS SOCIALES Y CONTRIBUCIONES
---------------------------------05/12/2012-----------------------------------
OCIALES A PAGAR 2681.95
A DEPOSITAR 1545.53
A CAJA 4227.48
--------------------- -----------------------------------
E SUELDOS Y CARGAS SOCIALES DE NOVIEMBRE DE 2012
Y JORNALES A PAGAR 6640.00
OCIALES A PAGAR 2360.00
A DEPOSITAR 1360.00
A BANCO 6640.00
A CAJA 3720.00
--------------------- -----------------------------------
RACION POR LAS NOVEDADES DE DICIEMBRE DE 2012
---------------------------------10/12/2012-----------------------------------
Y JORNALES 1,631.95
481.43
ZACION SUSTITUTIVA DE PREAVISO 2,500.00
CION MES DE DESPIDO 833.33
ZACION POR ANTIGEDAD 2,500.00
NES NO GOZADAS 447.00
a CARGAS SOCIALES A PAGAR 481.43
a APORTES A DEPOSITAR 277.43
A BANCO 7634.85
S Y SAC PROPORCIONALES POR DESPIDO GUEMES MARTIN
--------------------- -----------------------------------

en un solo asiento

------------------------------ ------------------------------------------------
AMIENTO DE LOS SUELDOS Y CARGAS SOCIALES DE DICIEMBRE DE 2012
---------------------------------31/12/2012-----------------------------------
Y JORNALES 13638.88
4023.47
A SUELDOS Y JORNALES A PAGAR 11320.27
a CARGAS SOCIALES A PAGAR 4023.47
a APORTES A DEPOSITAR 2318.61
MORENO MARIANO Y CABRAL JUAN
-------------------------------05/01/13 -----------------------------------
SOCIALES A PAGAR 481.43
A DEPOSITAR 277.43
A CAJA 758.86
GAS SOCIALES Y CONTRIBUCIONES

A DEPOSITAR
OCIALES A PAGAR
Y JORNALES A PAGAR
Y JORNALES

ACION SUSTITUTIVA DE PREAVISO


ION MES DE DESPIDO
ACION POR ANTIGEDAD
ES NO GOZADAS
No se pide

Revisar

Se abonan el 05/12

Porque dos asientos ?


Idem

Por que ?
Falta devengar SAC