Vous êtes sur la page 1sur 3

Tabs by Kikol

(/) Slide Up (\) Slide Down (h) Hammer On (p) Pull Off (b) Bend (r) Release (v) Vibrato (ph) Pinch Harmonic

Port Lux

First Solo
E|-----------------------------------------------------------------------------------------
B|--------------------9-----------------------------11b13-13r11--8---------8--11--8--------
G|-------------10b12-----1010ph--8----8ph+b10----------------------10b12------------10-10p
D|--1/13v---------------------------10-----------------------------------------------------
A|-----------------------------------------------------------------------------------------
E|-----------------------------------------------------------------------------------------

E|-----------------------------------------------------------------------------3/6\3------
B|-----------------------------------------------------------------------3/6\3------------
G|--8------8ph+b10----3h5--3h5-------------------------------------3/7\3------------------
D|-----10----------------------8--5--8-----------------------5/8\5------------------------
A|-------------------------------------10--8--6--8----------------------------------------
E|----------------------------------------------------------------------------------------

E|--6/10\6--11/15\11--18----------17/15-------
B|--------------------------------------------
G|--------------------------------------------
D|--------------------------------------------
A|--------------------------------------------
E|--------------------------------------------
Second Solo

E|---------------------------------------------------------18v--------------------------
B|-------------------------------------13/16--13/15---------------19b21r1917-17--19v---
G|-----------5/8--5/7-------5/15--------------------12/15-------------------------------
D|--1/8----------------5/8--------------------------------------------------------------
A|--------------------------------------------------------------------------------------
E|--------------------------------------------------------------------------------------

Third Solo

E|--------------------------------------------------13-----------------------------------
B|--------------------------------15--15b17v------------15b17r15--13------13h15v---13\1--
G|----------------------14-15-17--------------------------------------14-----------------
D|------------13-15-17-------------------------------------------------------------------
A|--13-15-17-----------------------------------------------------------------------------
E|---------------------------------------------------------------------------------------

E|-----------------------------------------------------------------------
B|-----------------------------------------------------------------------
G|--16v----16b17--14--12\1---------12------12--14--7------10--7-----5h7--
D|--------------------------12/14------14---------------7---------7------
A|-----------------------------------------------------------------------
E|-----------------------------------------------------------------------
E|-----------------------------------------------15--15--15--15/1715v-----
B|---------------------------------------------------------------------13\1
G|---------------------------------16/17\16--------------------------------
D|-----------9/10\9------15/17\15------------17----------------------------
A|--7/8\7------------10----------------------------------------------------
E|-------------------------------------------------------------------------

E|--1715h17p15p13--15--13h15p13------12h13p12--------12---------------------------------
B|--------------------------------17----------------13------13h17p13----13---------------
G|-------------------------------------------------------------------16------16--12------
D|-----------------------------------------------------------------------------------12--
A|---------------------------------------------------------------------------------------
E|---------------------------------------------------------------------------------------

E|-----------------------------------------------------------------------------------------------
B|-----------------------------------------------------------------------------------------------
G|--14--10------14--10------14--10------15--10------14--10------12b14--12b14--12--10------10/12--
D|----------10----------10----------10----------10----------10------------------------12---------
A|-----------------------------------------------------------------------------------------------
E|-----------------------------------------------------------------------------------------------

E|--------------------------------------------------------------15--17--17b18--
B|--------------------------------------------------15--16--18-----------------
G|--------------------------------------14--15--17-----------------------------
D|--------------------------13--15--17-----------------------------------------
A|--------------13--15--17-----------------------------------------------------
E|--13--15--17-----------------------------------------------------------------

http://www.guitartabcreator.com