Vous êtes sur la page 1sur 5

Stitches

ShawnMendes

Tom: C#

Introduo:

Parte 1 de 1:

A#m G# C# F#
E|----------------------------------------------------------|
B|----18-18-18----16-16-16-----18-18-18-----14-14-14--------|
G|----18-18-18----17-17-17-----18-18-18-----15-15-15--------|
D|----------------------------------------------------------|
A|--------------------------16------------------------------|
E|-18----------16------------------------14-----------------|

A#m G# C# F#

Primeira Parte:

A#m G#
I thought that I've been hurt
C# F#
Before
A#m G#
But no one's ever left me
C# F#
Quite this sore
A#m G#
Your words cut deeper than
C# F#
A knife
A#m G#
Now I need someone to breathe me
C# F#
Back to life

Segunda Parte:

F# G#
Got a feeling that I'm going under
A#m
But I know that I'll make it out alive
F# G#
If I quit calling you my lover
A#m G#
Move on

Refro:

Tema 2 violo:

P.M. . . . .

E|------------------------------------------------------------|
B|----16--19-18-16--------------------------------------------|
G|-18--------------18-----------------------------------------|
D|------------------------------------------------------------|
A|------------------------------------------------------------|
E|------------------------------------------------------------|

A#m
You watch me bleed until
G#
I can't breathe
C# F#
Shaking, falling onto my knees
A#m
And now that I'm
G#
Without your kisses
F# C#
I'll be needing stitches
A#m G#
Tripping over myself
C# F#
Aching, begging you to come help
A#m
And now that I'm
G#
Without your kisses
F# C#
I'll be needing stitches
Terceira Parte:

A#m G# C# F#
Just like a moth drawn to a flame
A#m
Oh, you lured me in
G# C# F#
I couldn't sense the pain
A#m G# C# F#
Your bitter heart cold to the touch
A#m G#
Now I'm gonna reap what I saw
C# F#
I'm left seeing red on my own

Repete a Segunda Parte:

F# G#
Got a feeling that I'm going under
A#m
But I know that I'll make it out alive
F# G#
If I quit calling you my lover
A#m G#
Move on

Repete o Refro:

A#m
You watch me bleed until
G#
I can't breathe
C# F#
Shaking, falling onto my knees
A#m
And now that I'm
G#
Without your kisses
F# C#
I'll be needing stitches
A#m G#
Tripping over myself
C# F#
Aching, begging you to come help
A#m
And now that I'm
G#
Without your kisses
F# C#
I'll be needing stitches

Quarta Parte:

A#m G# C# F#

A#m
Needle and the thread
G#
Gotta get you out of my head
C#
Needle and the thread
F#
Gonna wind up dead
A#m
Needle and the thread
G#
Gotta get you out of my head
C#
Needle and the thread
F#
Gonna wind up dead

A#m
Needle and the thread
G#
Gotta get you out of my head
C#
Needle and the thread
F#
Gonna wind up dead
A#m
Needle and the thread
G#
Gotta get you out of my head
C# F#
Get you out of my head

Refro Final:
A#m
You watch me bleed until
G#
I can't breathe
C# F#
Shaking, falling onto my knees
A#m
And now that I'm
G#
Without your kisses
F# C#
I'll be needing stitches
A#m G#
Tripping over myself
C# F#
Aching, begging you to come help
A#m
And now that I'm
G#
Without your kisses
F# C#
I'll be needing stitches

I'm without your kisses

I'll be needing stitches

I'm without your kisses

I'll be needing stitches

F# G# A#m C#
4
2
2 2 3 4 2 3 4
3 4 3 4