Vous êtes sur la page 1sur 2

01/01/2017 CifraClubTheBeatlesNorwegianWood(Thisbirdhasflown)

NorwegianWood(Thisbirdhasflown)
TheBeatles
Composio:JohnLennon/PaulMcCartney

Tom: E (com acordes na forma de D)


Capotraste na 2 casa

Tocar com Capo na segunda casa do Dm


instrumento. e|--1---1-1-1---1---0-0-0---0---------------
B|--3---3-3-3---3---3-3-3---3---3-3-3-------
D + Solo da Ctara (veja o fim da tablatura) G|--2---2-2-2---2---0-0-0---0---2-2-2---2---
e|------2-2-2-------------------2-2-2------- D|--0-----------0-----------0-----------3---
B|--3---3-3-3---3---3---3-------3-3-3------- A|--0-----------0-----------0---------------
G|--2---2-2-2---4---2---0---2---2-2-2---0--- E|------------------------------------------
D|--0-----------------------4-----------2---
A|------------------------------------------ e|---------|
E|------------------------------------------ B|---------|
G|0---2----|
e|---------| D|0---3----|
B|3--------| A|---------|
G|0---2----| E|---------|
D|----4----|
A|---------| She asked me to stay and she told me to sit
E|---------| an- y -

I once had a girl, or G


should I e|--3---3-3-3-3-----3-3-3-3-----3-3-3-3-----
B|--3---3-3-3-3-----3-3-3-3-----3-3-3-3-----
D C G D G|--0---0-0-0-0-----0-0-0-0-----0-0-0-0-----
e|------2-2-2-------------------2-2-2-2----- D|--0---0-0-0-0-0---0-0-0-0-----0-0-0-0-0---
B|--3---3-3-3-------3-------3---3-3-3-3----- A|--2---------------------------------------
G|--2---2-2-2-------0-------2---2-2-2-2-2--- E|--3-----------------------3---------------
D|--0-------------------0---0-----------0---
A|--------------3-------2---0--------------- e|3--------|
E|------------------------------------------ B|3--------|
G|0--------|
e|2--------| D|0--------|
B|3--------| A|----0----|
G|2--------| E|---------|
D|---------|
A|---------| where.
E|---------| So

say, she once had me;

She showed me her room isn't it good,


Norwegian wood.

-----------------------------------------------------

https://www.cifraclub.com.br/thebeatles/norwegianwoodthisbirdhasflown/imprimir.html 1/2
01/01/2017 CifraClubTheBeatlesNorwegianWood(Thisbirdhasflown)

Dm
e|--1---1-1-1---1---0-0-0---0---------------
B|--3---3-3-3---3---3-3-3---3---3-3-3-------
G|--2---2-2-2---2---0-0-0---0---2-2-2---2---
D|--0-----------0-----------0-----------3---
A|--0-----------0-----------0-----------0---
E|------------------------------------------

e|---------|
B|---------|
G|0---2----|
D|0---3----|
A|---------|
E|---------|

I looked a round and I noticed there


was-n't a

Em7 A7|
e|--0---0-0-0-0-----0-----0-0---0-0-0-0-0----|
B|--3---3-3-3-3-----3-----3-2---2-2-2-2-2----|
G|--0---0-0-0-0-----0-----0-0---0-0-0-0-0----|
D|--2---2-2-2-2-2-----------2---2-2-2-2-2----|
A|--2-----------2-----------0-----------0----|
E|-------------------------------------------|

chair.

https://www.cifraclub.com.br/thebeatles/norwegianwoodthisbirdhasflown/imprimir.html 2/2