Vous êtes sur la page 1sur 6

Z Ramalho - Garoto de Aluguel

Intro: F#m7(9) C#m7 Bm7 C#7

Primeira Parte:

F#m7(9)
Baby
C#m7
D-me seu dinheiro que eu quero viver
Bm7
D-me seu relgio que eu quero saber
C#7
Quanto tempo falta para lhe esquecer
F#m7(9)
Quanto vale um homem para amar voc

C#m7
Minha profisso suja e vulgar
Bm7
Quero um pagamento para me deitar
C#7
E junto com voc estrangular meu riso
F#m7(9)
D-me seu amor que dele no preciso

C#m7
Oh, oh..
Bm7 C#7
Oh, oh..

Segunda Parte:

F#m7(9)
Baby
C#m7
Nossa relao acaba-se assim
Bm7
Como um caramelo que chega-se ao fim
C#7
Na boca vermelha de uma dama louca
F#m7(9)
Pague meu dinheiro e vista sua roupa

C#m7
Deixe a porta aberta quando for saindo
Bm7
Voc vai chorando e eu fico sorrindo
C#7
Conte pras amigas que tudo foi mal
F#m7(9)
Nada me preocupa de um marginal

C#m7
Oh, oh..
Bm7 C#7
Oh, oh..

Solo:
Segunda Parte:

F#m7(9)
Baby
C#m7
Nossa relao acaba-se assim
Bm7
Como um caramelo que chega-se ao fim
C#7
Na boca vermelha de uma dama louca
F#m7(9)
Pague meu dinheiro e vista sua roupa

C#m7
Deixe a porta aberta quando for saindo
Bm7
Voc vai chorando e eu fico sorrindo
C#7
Conte pras amigas que tudo foi mal
F#m7(9)
Nada me preocupa de um marginal

C#m7
Oh, oh..
Bm7 C#7
Oh, oh..

Final:

F#m7(9)
Baby, baby, baby
C#m7
Baby, baby, baby
Bm7 C#7
Oh, oh, oh, oh, oh, oh, oh

F#m7(9)
Baby, baby, baby
C#m7
Baby, baby, baby
Bm7 C#7
Oh, oh, oh, oh, oh, oh, oh

Solo Intro Violo I:

Parte 1

E|-5-----5-----5--5-----5-----5-----------------------|
B|---7-----7--------7-----7---------------------------|
G|-----6-----6--------6-----6-------------------------|
D|----------------------------------------------------|
A|----------------------------------------------------|
E|----------------------------------------------------|

Parte 2
E|-4-----4-----4--4-----4-----4-----------------------|
B|---5-----5--------5-----5---------------------------|
G|-----6-----6--------6-----6-------------------------|
D|----------------------------------------------------|
A|----------------------------------------------------|
E|----------------------------------------------------|

Parte 3

E|-2-----2-----2--2-----2-----2-----2-----------------|
B|---3-----3--------3-----3-----3-----3---------------|
G|-----4-----4--------4-----4-----4-----4-------------|
D|----------------------------------------------------|
A|----------------------------------------------------|
E|----------------------------------------------------|

Parte 4

E|-4-----4-----4--4-----4-----4-----4------4----------|
B|---6-----6--------6-----6-----6-----6------6--------|
G|-----6-----6--------6-----6-----6-----6------6------|
D|----------------------------------------------------|
A|----------------------------------------------------|
E|----------------------------------------------------|

Solo Intro Violo II:

Parte 1

E|-9-------9-------9--9-------9-------9---------------|
B|---10------10---------10------10--------------------|
G|------11------11---------11------11-----------------|
D|----------------------------------------------------|
A|----------------------------------------------------|
E|----------------------------------------------------|

Parte 2

E|-7-----7-----7--7-----7-----7-----------------------|
B|---9-----9--------9-----9---------------------------|
G|-----9-----9--------9-----9-------------------------|
D|----------------------------------------------------|
A|----------------------------------------------------|
E|----------------------------------------------------|

Parte 3
E|-5-----5-----5--5-----5-----5-----5-----------------|
B|---7-----7--------7-----7-----7-----7---------------|
G|-----7-----7--------7-----7-----7-----7-------------|
D|----------------------------------------------------|
A|----------------------------------------------------|
E|----------------------------------------------------|

Parte 4

E|-7-----7-----7--7-----7-----7-----7------7----------|
B|---9-----9--------9-----9-----9-----9------9--------|
G|-----10----10-------10----10----10----10-----10-----|
D|----------------------------------------------------|
A|----------------------------------------------------|
E|----------------------------------------------------|

Solo Violo I:

Parte 1 (2x)

E|-9-7----9-7----9-7----9-7----9~---------------------|
B|-----10-----10-----10-----10------------------------|
G|----------------------------------------------------|
D|----------------------------------------------------|
A|----------------------------------------------------|
E|----------------------------------------------------|

Parte 2 (2x)

E|-7------7------7------7------7~---------------------|
B|---10-9---10-9---10-9---10-9------------------------|
G|----------------------------------------------------|
D|----------------------------------------------------|
A|----------------------------------------------------|
E|----------------------------------------------------|

Parte 3 (2x)

E|----------------------------------------------------|
B|-10-9-10-9-7--9-10-9-10-9-7~------------------------|
G|----------------------------------------------------|
D|----------------------------------------------------|
A|----------------------------------------------------|
E|----------------------------------------------------|

Parte 4

E|----------------------------------------------------|
B|-9-7-9-7-6--7-9-7-9-7-6~----------------------------|
G|----------------------------------------------------|
D|----------------------------------------------------|
A|----------------------------------------------------|
E|----------------------------------------------------|

Parte 5

E|------------------7----9-7--------------------------|
B|-----7-6-9-7-10-9---10-----10-9-10~-----------------|
G|-7-6------------------------------------------------|
D|----------------------------------------------------|
A|----------------------------------------------------|
E|----------------------------------------------------|

Solo Violo II:

Parte 1 (2x)

E|-12-10-9--12-10-9--12-10-9--12-10-9--12~------------|
B|----------------------------------------------------|
G|----------------------------------------------------|
D|----------------------------------------------------|
A|----------------------------------------------------|
E|----------------------------------------------------|

Parte 2 (2x)

E|-10-9----10-9----10-9----10-9----10~----------------|
B|------12------12------12------12--------------------|
G|----------------------------------------------------|
D|----------------------------------------------------|
A|----------------------------------------------------|
E|----------------------------------------------------|

Parte 3 (2x)

E|-9-7-9-----7-9-7-9-7--------------------------------|
B|-------10------------10~----------------------------|
G|----------------------------------------------------|
D|----------------------------------------------------|
A|----------------------------------------------------|
E|----------------------------------------------------|

Parte 4

E|----------------------------------------------------|
B|-12-10-12-10-9--10-12-10-12-10-9~-------------------|
G|----------------------------------------------------|
D|----------------------------------------------------|
A|----------------------------------------------------|
E|----------------------------------------------------|

Parte 5

E|------------------9----10-9-13-10-9----9~-----------|
B|-------10-9-12-10---12--------------12--------------|
G|-11-10----------------------------------------------|
D|----------------------------------------------------|
A|----------------------------------------------------|
E|----------------------------------------------------|

----------------- Acordes -----------------


Bm7 = X 2 4 2 3 5
C#7 = X 4 3 4 2 X
C#m7 = X 4 6 4 5 4
F#m7(9) = 2 4 2 2 2 4

Centres d'intérêt liés