Vous êtes sur la page 1sur 4

I Won't Give Up

Jason Mraz
Composio: Jason Mraz / Michael Natter

Tom: A (com acordes na forma de G)

Capotraste na 2 casa
Afinao [D A D G B E] G/D D
To be right where you are
Intro: A A4 A
G/D D How old is your soul?
e|-----------------------------------------
B|---------------5----5-------------------- Primeira Parte:
G|-----------6--------4--------------------
D|-2-2-2-4-6-7--------6--6--6--6--2-4-6---- Parte 1:
A|--------------------2-------------------- G/D D G/D D
D|-----------2-2---2--2-2-2-2-2-2-2-2-2---- e|-----------------------------------------
B|----5--------------------------5---------
G|-6------4------------------6------4------
D|-7------6--6--6--2--2-4-6--7------6--6---
G/D D G/D D A|-----------------------------------------
e|----------------------------------------- D|-2-2-2--2-2-2-2-2-2-2------2-2--2-2-2--2-
B|----5---5----------------------5--5------
G|-6------4------------------6------4------
D|-7------6--6--6--2--2-4-6--7------6--6--- Parte 2:
A|--------2-------------------------2------ G/D D
D|-2-2-2--2-2-2-2-2-2-2-2-2--2-2--2-2-2-2-- e|-----------------------------------------
B|-------------------5---------------------
G|----------------6-----4------------------
D|-6---2-2-2-4-6--7-----6--6--6--6--6\4-2--
A A4 A| A|-----------------------------------------
e|-------------------------------------------| D|-2-2------------2-2-2-2-2-2-2-2-2-2------
B|------------4h5--5-5-5-5-5-5-5-4-----------|
G|------------4----4-4-4-4-4-4-4-4-----------|
D|6--6--6\4-2-4----4-4-4-4-4-4-4-4-----------| Parte 3:
A|------------2----2-2-2-2-2-2-2-2-----------| A A4 A
D|2-2-2-2------------------------------------| e|-----------------------------------------
B|--------4h5--5-5-5-5-5-5-5-4-------------
G|--------4----4-4-4-4-4-4-4-4-------------
D|--------4----4-4-4-4-4-4-4-4-------------
G/D D A|--------2----2-2-2-2-2-2-2-2-------------
When I look into your eyes D|-----------------------------------------
G/D D
Its like watching the night sky
G/D D
Or a beautiful sun__rise Parte 4:
A A4 A
Theres so much they hold
G/D D
And just like them old stars
G/D D
I See that youve come so far
G/D D G/D D
e|----------------------------------------- Ill be here patiently waiting
B|----------5------------------------------ A A4 A
G|-------6-----4--4--4---4----------------- To see what you find
D|-2-4-6-7-----6-----------2-4-6-----------
A|----------------------------------------- Segunda Parte:
D|-2-----2-2-2-2-2-2-2-2---2--------------- G/D D
e|-----------------------------------------
B|--------------5--------------------------
Parte 5: G|-----------6-----4-----------------------
G/D D G/D D D|-2-4-6-2---7-----6--6--6--6--2-4-6-------
e|----------------------------------------- A|-----------------------------------------
B|---5-----------------------------5------- D|-2---------2-2-2-2-2-2-2-2-2-2-----------
G|6-----4---------------------6--------4---
D|7-----6--6--6---6----2-4-6--7--------6--- G/D D
A|----------------------------------------- e|-----------------------------------------
D|2-2-2-2-2-2-2-2---2--2------2-2---2--2--- B|------5----------------------------------
G|--6--------4-----------------------------
D|--7--------6--6--6--6--2-4-6-------------
Parte 6: A|-----------------------------------------
e|----------------------------------------- D|--2-2---2--2-2-2-2-2-2-2-----------------
B|-----------------------------------------
G|----------------------------------------- G/D D
D|--6--6---6----6\4-2---------------------- e|-----------------------------------------
A|----------------------------------------- B|------5----------------------------------
D|-2-2-2-2---2--2-------------------------- G|---6-----4-------------------------------
D|---7-----6--6--6--6--6\4-2---------------
A|-----------------------------------------
Parte 7: D|---2-2-2-2-2-2-2-2-2-2-------------------
A A4 A
e|----------------------------------------- A A4 A
B|--------4h5--5-5-5-5-5-5-5-4------------- e|-----------------------------------------
G|--------4----4-4-4-4-4-4-4-4------------- B|--------4h5--5-5-5-5-5-5-5-4-------------
D|--------4----4-4-4-4-4-4-4-4------------- G|--------4----4-4-4-4-4-4-4-4-------------
A|--------2----2-2-2-2-2-2-2-2------------- D|--------4----4-4-4-4-4-4-4-4-------------
D|----------------------------------------- A|--------2----2-2-2-2-2-2-2-2-------------
D|-----------------------------------------

Refro 1: Refro 2:
G5 D5(9) G5 D5(9)
I wont give up on us Cause even the stars, they burn
Bm11 A Bm11 A
Even if the skies get rough Some even fall to the earth
G5 D5(9) G5 D5(9)
Im giving you all my love We got a lot to learn
A A4 A A A4 A
Im still looking up God knows were worthy
( C9/5- C9 ) (2x) [Passagem]
Segunda Parte: No I wont give up
G/D D
And when youre needing your space Passagem:
G/D D
To do some navi__gating
e|-------------------- D5(9)
B|-9--------7---------- And who I am
G|---------------------
D|--------------------- Refro:
A|-----7--------------- G5 D5(9)
D|-7-7---7--7-7---7---- I wont give up on us
Bm11 A
Terceira Parte: Even if the skies get rough
Em G5 D5(9)
I dont wanna be someone who walks away so Im giving you all my love
easily Bm11 A
Im here to stay and make the difference that Im still looking up
A A4 A
I can make G5 D5(9)
Em I wont give up on us
Our differences they do a lot to teach us how Bm11 A
to use God knows Im tough, he knows
The tools, the skills weve got G5 D5(9)
A A4 A We got a lot to learn
Yeah we got a lot at stake A4 A
C7M God knows were worthy
And in the end, youre still my friend
At least we didnt tend G5 D5(9)
A9/C# I wont give up on us
For us to work we didnt break, we didnt Bm11 A
burn Even if the skies get rough
We had to learn how to bend G D5(9)
Without the world caving in Im giving you all my love
C7M A9/C# A
I had to learn what I got, and what Im not Im still looking up

A* A4* A9/C#* Bm11* C7M* C9*


2 2 2 2 2 2

1 2 3 1 2 1 2 1
3 3 2
3 4
3 4

*B com *B4 com *B9/D# com *C#m11 *D7M com *D9 com
forma de A forma de A4 forma de com forma forma de forma de C9
A9/C# de Bm11 C7M

C9/5-* D* D5(9)* Em* G* G/D*


2 2 2 2 2 2
5 1
1 2 1 2 1 2 1
3 4 3 3 2 3 1
2
4 3 4

*D9/5- com *E com *E5(9) com *F#m com *A com *A/E com
forma de forma de D forma de forma de forma de G forma de
C9/5- D5(9) Em G/D
G5*
2

3 4

*A5 com
forma de
G5

Centres d'intérêt liés