Vous êtes sur la page 1sur 9

Starship Trooper (Bass Tablature)

Taken from the "Starship Trooper" midi file

||--------------|--------------|--------------|--------|--------------
||--------2-----|--------2-----|--------2-----|--------|--------------
||-----------4--|-----------4--|-----------4--|--4--2--|--------------
||--2--4--------|--2--4--------|--2--4--------|--------|--4--0--0-----

---|--------------------|--------|--------------|-----|--------|------
---|--------------------|-----2--|--------2-----|-----|--------|------
---|-----2--2--2--2--2--|--4-----|-----------4--|--4--|--2-----|------
0--|--4-----------------|--------|--2--4--------|-----|-----4--|------

---------------|-----------------|--------------|--------|------------
---------------|--------------2--|--------2-----|--4--2--|-----2------
------------2--|--2--2--2--4-----|-----2-----4--|--------|--4---------
0--0--0--4-----|-----------------|--0-----------|--------|------------

|-----|--7--5--|--4-----|-----------6--|--9--6--|-----1--|--2--1------
|--0--|--------|-----5--|-----6--9-----|--------|--4-----|------------
|-----|--------|--------|--7-----------|--------|--------|------------
|-----|--------|--------|--------------|--------|--------|------------

2--1-----|--------4--4--4--4--------|-----4--4--4--4--------|---------
------2--|--2--2--------------2--2--|--2--------------2--2--|--2------
---------|--------------------------|-----------------------|---------
---------|--------------------------|-----------------------|---------

---4--4--4--4--------|-----4--4--4--4-----|-----9--6--|--6-----|------
2--------------2--2--|--2--------------2--|--9--------|-----9--|------
---------------------|--------------------|-----------|--------|------
---------------------|--------------------|-----------|--------|------

1--------0--1--|--------6--9-----6--|--9--------9--6--|--6--|--4------
---2--2--------|--9--9--------9-----|--------9--------|-----|---------
---------------|--------------------|-----7-----------|-----|---------
---------------|--------------------|-----------------|-----|---------

1-----|--------1--4--4--6--|--9-----6--9-----|-----9--11--|--11--|----
---2--|--2--2--------------|-----9-----------|--9---------|------|----
------|--------------------|--------------7--|------------|------|----
------|--------------------|-----------------|------------|------|----
11--|--------4--|-----|--7--5--4--|--0--|--------9--6--|------|-------
----|--2--2-----|--0--|-----------|-----|-----9--------|--16--|-------
----|-----------|-----|-----------|-----|--7-----------|------|-------
----|-----------|-----|-----------|-----|--------------|------|-------

13--14--13--|--14--13-----------|--4--4--4--4-----------|--4--4--4----
------------|----------2--2--2--|--------------2--2--2--|-------------
------------|-------------------|-----------------------|-------------
------------|-------------------|-----------------------|-------------

4-----|-----0--|--5--4--------|-----------|-----------|--2--4--2------
------|--2-----|--------4--0--|--------0--|--2-----2--|---------------
---3--|--------|--------------|--2--2-----|-----0-----|---------------
------|--------|--------------|-----------|-----------|---------------

4--2--|--4--4--4--4-----4--|------------------14--|--16--18--19-------
------|--------------4-----|--14------14--16------|-------------------
------|--------------------|------16--------------|-------------------
------|--------------------|----------------------|-------------------

18--|--16--18--16------16------|------------------|-------------------
----|--------------19------16--|--12--------------|-----2--2--2--2----
----|--------------------------|------14--11------|-------------------
----|--------------------------|--------------12--|--0----------------

---|--------------------|--------------------|--------2--2--2---------
---|--2--2--2-----------|--------------------|-----------------4------
2--|--------------------|--------------------|------------------------
---|-----------0--0--0--|--0--0--0--0--0--0--|--0--0------------------

|--------------------------|-----------------------2--|--2--2--0------
|--4--4--2--2--2--1--1--1--|--------------------------|---------------
|--------------------------|--4--4--4--4--3--3--3-----|---------------
|--------------------------|--------------------------|---------------

0--0--9--14--12--|-------------------------------|--------------------
-----------------|--14--12--10----------3--3-----|--------------------
-----------------|--------------12---------------|--------5--5--5-----
-----------------|------------------13--------5--|--5--5--------------

---------|--------------------------|--------------------|------------
---------|--------------------------|--------------------|-----3------
3--3--3--|--------3--3--1--1--1--0--|--0--0--1--1--3--3--|--3---------
---------|--5--5--------------------|--------------------|------------

------------|-----------------------|-----------------|---------------
------------|-----------------------|-----------------|---------------
------------|-----------------------|-----6--8--8--8--|---------------
4--4--4--3--|--3--3--4--4--4--6--6--|--6--------------|--5--5--5------

---------------|-----2--2--2-----------|------------------------------
---------------|--------------4--4--4--|--2--2--2--1--1--1------------
---3--3--3--3--|-----------------------|--------------------4--4------
5--------------|--5--------------------|------------------------------

|-----------------2--2--2--|--0--0--0------14--12----------|----------
|--------------------------|-----------14----------14--12--|----------
|--4--4--3--3--3-----------|-------------------------------|--15------
|--------------------------|-------------------------------|----------

---------------------|--------------------------|---------------------
7--3--3--3-----------|--------------------------|---------------------
---------------------|--5--5--5--3--3--3--------|--3--3--1--1--1------
------------5--5--5--|--------------------5--5--|---------------------

---------|-----------------|--------------------------|---------------
---------|-----------------|--3--3--------------------|---------------
0--0--0--|--1--1--3--3--3--|--------------------------|---------------
---------|-----------------|--------4--4--4--3--3--3--|--4--4--4------

---------|--------------------|------------------|--------------------
---------|--------------------|------------------|--------------------
---------|--6--8--8--8--8--8--|--8--8------------|--------2--3--5-----
6--6--6--|--------------------|--------10--8--5--|--3--5--------------

---|--------2--4--5--7--5--|--4---------------9------|-----|----------
2--|--4--5-----------------|--------2--9--11-----11--|--2--|--9-------
---|-----------------------|-------------------------|-----|----------
---|-----------------------|-----5-------------------|-----|----------

----9------|--------------|--6--4--------|-----------------|----------
11-----11--|--------2-----|--------6-----|-----------------|--2-------
-----------|-----2-----4--|-----------7--|-----------2--2--|-----2----
-----------|--2-----------|--------------|--0--0--4--------|----------
------|-----------|--------|-----------------|--------------|---------
2-----|-----2-----|--------|-----------------|--------2-----|--2------
------|--2-----4--|--4--2--|-----------------|--2--2-----2--|---------
---2--|-----------|--------|--4--0--0--0--4--|--------------|---------

------9--11--|--11--|--11-----|-----4-----|--7--|--5--4--0--|---------
2--9---------|------|------2--|--2-----0--|-----|-----------|--2------
-------------|------|---------|-----------|-----|-----------|---------
-------------|------|---------|-----------|-----|-----------|---------

|-----9--6--|--11--13--|--14--13--14--13--|------|-----|-----|--------
|--9--------|----------|------------------|--14--|-----|-----|--------
|-----------|----------|------------------|------|-----|-----|--------
|-----------|----------|------------------|------|--5--|--3--|--1-----

|-----|--2--2--2-----------------|--------------------------|---------
|-----|-----------4--4--4--2--2--|--2--1--1--1--------------|---------
|-----|--------------------------|--------------4--4--4--4--|--3------
|--1--|--------------------------|--------------------------|---------

------2--2--2--0--0--|--14--12--------------|-------------------------
---------------------|----------14--12------|--3--3--3----------------
3--3-----------------|------------------15--|--------------------5----
---------------------|----------------------|-----------5--5--5-------

---|--------------------------|--------------------------|------------
---|--------------------------|--------------------------|------------
5--|--5--3--3--3--------3--3--|--1--1--1--0--0--0--1--1--|--1--3------
---|--------------5--5--------|--------------------------|------------

---------|--2--2--2-----------------|--------------------------|------
------3--|-----------4--4--4--2--2--|--2--1--1--1--------------|------
3--3-----|--------------------------|--------------4--4--4--4--|------
---------|--------------------------|--------------------------|------

---------2--2--2--0--0--|--14--12--------------|----------------------
------------------------|----------14--12--10--|--3--3--3-------------
3--3--3-----------------|----------------------|----------------------
------------------------|----------------------|-----------5--5--5----
------|--------------------------|--------------------------|---------
------|--------------------------|--------------------------|---------
5--5--|--5--3--3--3--------3--3--|--1--1--1--0--0--0--1--1--|--1------
------|--------------5--5--------|--------------------------|---------

------------|--2--2--2-----------------|------------------------------
---------3--|-----------4--4--4--2--2--|--2--1--1--1------------------
3--3--3-----|--------------------------|--------------4--4--4--4------
------------|--------------------------|------------------------------

|-----------2--2--2--0--0--|--14--12--------------|-------------------
|--------------------------|----------14--12--10--|--3--3--3----------
|--3--3--3-----------------|----------------------|-------------------
|--------------------------|----------------------|-----------5--5----

---------|--------------------------|--------------------------|------
---------|--------------------------|--------------------------|------
---5--5--|--5--3--3--3--------3--3--|--1--1--1--0--0--0--1--1--|------
5--------|--------------5--5--------|--------------------------|------

---------------|--------------------------|-----------------|---------
------------3--|--------------------------|-----------------|---------
1--3--3--3-----|--------------------------|--------------6--|--8------
---------------|--4--4--4--3--3--3--4--4--|--4--6--6--6-----|---------

------------------|-----------------2--2--|--2------------------------
------------------|-----------------------|-----4--4--4--2--2--2------
8--8--------------|--3--3--3--3-----------|---------------------------
------5--5--5--5--|--------------5--------|---------------------------

---|--------------------------|-----2--2--2--0--0--14--|--12----------
1--|--1--1--------------------|------------------------|------14------
---|--------4--4--4--4--3--3--|--3---------------------|--------------
---|--------------------------|------------------------|--------------

--------------|--------------------------|----------------------------
12--10--3--3--|--3-----------------------|----------------------------
--------------|--------------5--5--5--3--|--3--3--------3--3--1--1----
--------------|-----5--5--5--------------|--------5--5----------------

|-----------------------|--------------------|------------------------
|-----------------------|--------3--3--------|------------------------
|--1--0--0--0--1--1--3--|--3--3--------------|------------------------
|-----------------------|--------------4--4--|--4--3--3--3--4--4------

------|--------------|------------------------|--------------|--------
------|--------------|------------------------|--------------|--------
------|--------6--8--|--8--8--8--8--8--8------|--------------|--2-----
4--6--|--6--6--------|--------------------10--|--8--5--3--5--|--------

---------------2--|--4--5--7--9--11--|--0--7--|--7--7--3--3--|--3-----
------2--4--5-----|------------------|--------|--------------|--------
3--5--------------|------------------|--------|--------------|--------
------------------|------------------|--------|--------------|--------

3--3--3--|--12--|--7--7--|--7--7--7--7--7--3--3--|--3--3--3--3--------
---------|------|--------|-----------------------|--------------5-----
---------|------|--------|-----------------------|--------------------
---------|------|--------|-----------------------|--------------------

|-----------------|--------------7--|--7--7--3--3--|--3--3--3---------
|--5--5--5--5--5--|--5--5--5--5-----|--------------|-----------5------
|-----------------|-----------------|--------------|------------------
|-----------------|-----------------|--------------|------------------

|-----------------|--------------7--|--7--7--3--3--|--3--3--3---------
|--5--5--5--5--5--|--5--5--5--5-----|--------------|-----------5------
|-----------------|-----------------|--------------|------------------
|-----------------|-----------------|--------------|------------------

|-----------------|--------------7--|--7--7--3--3--|--3--3--3--3------
|--5--5--5--5--5--|--5--5--5--5-----|--------------|------------------
|-----------------|-----------------|--------------|------------------
|-----------------|-----------------|--------------|------------------

---|-----------------|--------------7--|--7--7--3--3--|--3--3--3------
5--|--5--5--5--5--5--|--5--5--5--5-----|--------------|---------------
---|-----------------|-----------------|--------------|---------------
---|-----------------|-----------------|--------------|---------------

---|-----------------|-----------7--|--7--7--7--3--3--|--3--3---------
5--|--5--5--5--5--5--|--5--5--5-----|-----------------|--------5------
---|-----------------|--------------|-----------------|---------------
---|-----------------|--------------|-----------------|---------------
|--------------|-----------7--|--7--7--3--3--|--3--3--3-----|---------
|--5--5--5--5--|--5--5--5-----|--------------|-----------5--|--5------
|--------------|--------------|--------------|--------------|---------
|--------------|--------------|--------------|--------------|---------

------------|-----------7--|--7--7--3--3--|--3--3-----|---------------
5--5--5--5--|--5--5--5-----|--------------|--------5--|--5--5--5------
------------|--------------|--------------|-----------|---------------
------------|--------------|--------------|-----------|---------------

|-----------7--|--7--7--3--3--|--3--3--3--3-----|--------------|------
|--5--5--5-----|--------------|--------------5--|--5--5--5--5--|------
|--------------|--------------|-----------------|--------------|------
|--------------|--------------|-----------------|--------------|------

---------7--|--7--7--7--3--3--|--3--3--3-----|-----------------|------
5--5--5-----|-----------------|-----------5--|--5--5--5--5--5--|------
------------|-----------------|--------------|-----------------|------
------------|-----------------|--------------|-----------------|------

---------------|--------3--3--|--3--3-----|-----------|---------------
5--5--5--5--5--|--5--5--------|--------5--|--5--5--5--|--5--5--5------
---------------|--------------|-----------|-----------|---------------
---------------|--------------|-----------|-----------|---------------

7--|--7--7--3--3--|--3--3--3--3-----|--------------|-----------7------
---|--------------|--------------5--|--5--5--5--5--|--5--5--5---------
---|--------------|-----------------|--------------|------------------
---|--------------|-----------------|--------------|------------------

|--7--7--3--3--|--3--3-----|-----------|-----------7--|--7--7--3------
|--------------|--------5--|--5--5--5--|--5--5--5-----|---------------
|--------------|-----------|-----------|--------------|---------------
|--------------|-----------|-----------|--------------|---------------

3--|--3--3--3--3-----|--------------|-----------7--|--7--7--3--3------
---|--------------5--|--5--5--5--5--|--5--5--5-----|------------------
---|-----------------|--------------|--------------|------------------
---|-----------------|--------------|--------------|------------------

|--3--3-----|-----------|--------7--|--7--7--3--3--|--3--3--3--3------
|--------5--|--5--5--5--|--5--5-----|--------------|------------------
|-----------|-----------|-----------|--------------|------------------
|-----------|-----------|-----------|--------------|------------------

---|--------------|--------|--7--7--3--3--|--3--3-----|---------------
5--|--5--5--5--5--|--5--5--|--------------|--------5--|--5--5--5------
---|--------------|--------|--------------|-----------|---------------
---|--------------|--------|--------------|-----------|---------------

|-----------7--|--7--7--3--3--|--3--3--3--3-----|--------------|------
|--5--5--5-----|--------------|--------------5--|--5--5--5--5--|------
|--------------|--------------|-----------------|--------------|------
|--------------|--------------|-----------------|--------------|------

---------7--|--7--7--3--3--|--3--3-----|-----|-----7--|--7--7--3------
5--5--5-----|--------------|--------5--|--5--|--5-----|---------------
------------|--------------|-----------|-----|--------|---------------
------------|--------------|-----------|-----|--------|---------------

3--|--3--3--3--3-----|--------------|-----------7--|--7--7--3--3------
---|--------------5--|--5--5--5--5--|--5--5--5-----|------------------
---|-----------------|--------------|--------------|------------------
---|-----------------|--------------|--------------|------------------

|--3--3--3--3-----|--------------|--------7--7--7--|--7--7--7--7------
|--------------5--|--5--5--5--5--|--5--5-----------|------------------
|-----------------|--------------|-----------------|------------------
|-----------------|--------------|-----------------|------------------

7--3--|--3--3--3--3--3-----|--------------|-----------7--|--7--7------
------|-----------------5--|--5--5--5--5--|--5--5--5-----|------------
------|--------------------|--------------|--------------|------------
------|--------------------|--------------|--------------|------------

3--3--|--3--3--3--3-----|--------------|--------7--7--7--|--7--7------
------|--------------5--|--5--5--5--5--|--5--5-----------|------------
------|-----------------|--------------|-----------------|------------
------|-----------------|--------------|-----------------|------------

7--7--7--3--3--3--|--3--3--3--3--3--3-----|-----------------|---------
------------------|--------------------5--|--5--5--5--5--5--|--5------
------------------|-----------------------|-----------------|---------
------------------|-----------------------|-----------------|---------
---------7--7--|--7--7--7--3--3--|--3--3--3--3--3--|----------17------
5--5--5--------|-----------------|-----------------|------17----------
---------------|-----------------|-----------------|--15--------------
---------------|-----------------|-----------------|------------------

------------17------17------|-----|-----|-----|-----|-----|-----|-----
17------17------17------17--|-----|-----|--5--|-----|-----|--5--|-----
----15----------------------|--6--|-----|-----|--6--|-----|-----|-----
----------------------------|-----|--8--|-----|-----|--8--|-----|-----

---|-----|-----|-----|-----|-----|-----|-----|-----|-----|-----|------
---|-----|--5--|-----|-----|--5--|-----|-----|--5--|-----|-----|------
6--|-----|-----|--6--|-----|-----|--6--|-----|-----|--6--|-----|------
---|--8--|-----|-----|--8--|-----|-----|--8--|-----|-----|--8--|------

---|-----|-----|-----|-----|-----|-----|-----|-----|-----|-----||-----
5--|-----|-----|--5--|-----|-----|--5--|-----|-----|--5--|-----||-----
---|--6--|-----|-----|--6--|-----|-----|--6--|-----|-----|--6--||-----
---|-----|--8--|-----|-----|--8--|-----|-----|--8--|-----|-----||-----