Vous êtes sur la page 1sur 5

Te Regalo Key of C

Ulices Chaidez
E|------------10--10/12-------------
B|--13-13-13--12--12/13-------------
G|----------------------12--12--12--
D|----------------------------------
A|----------------------------------
E|----------------------------------

E|--12--12------12-12--12--12/13--13----13--
B|--13--13------13-13--13--13/15-----15-----
G|----------12------------------------------
D|------------------------------------------
A|------------------------------------------
E|------------------------------------------

E|------15----------12--10--10/12--12--12--
B|--17------15--13------12--12/13--13--13--
G|------------------------------------------
D|------------------------------------------
A|------------------------------------------
E|------------------------------------------

E|--10--10/12--10--10/12--10--10/12--12--12--12--12--
B|--12--12/13--12--12/13--12--12/13--13--13--13--13--
G|---------------------------------------------------
D|---------------------------------------------------
A|---------------------------------------------------
E|---------------------------------------------------

E|--10--8---7--7-----7-----7-----7--7/8---
B|--12--10--8--8-----8-----8-----8--8/10--
G|----------------------9-----9-----------
D|----------------------------------------
A|----------------------------------------
E|----------------------------------------
E|-----7--7-----7--7-----7--7|-7--7--
B|--8--------8--------8------|-8-----
G|---------------------------|-------
D|---------------------------|-------
A|---------------------------|-------
E|---------------------------|-------
|estos son tripletes........|

E|-----7--------6-----5--5--5--5--3-------------
B|--8-----8--7-----7--6--6--6--6--3h5--5--3--3--
G|----------------------------------------------
D|----------------------------------------------
A|----------------------------------------------
E|----------------------------------------------

Page 1
E|-----0-----1--0--3--1--5--3--8-----7--5--3--0--
B|--1-----3--------------------------------------
G|-----------------------------------------------
D|-----------------------------------------------
A|-----------------------------------------------
E|-----------------------------------------------

E|------------------------------------------------
B|--0h1--1--------------------------------0h1--1--
G|----------2--2--0--0-----------------0----------
D|----------------------2--2-----2--2-------------
A|----------------------------3-------------------
E|------------------------------------------------

English-Spanish Conversion: Ingles a Espaol Conversion:


A=LA
B=Si
C=DO
D=RE
E=Mi
F=FA
G=SOL
"#"=sostenido
"b"=bemol

Intro Acordes:
C G G#m Am F G C
G F# F G C

C G
Me perd en algn extrao punto
G#m Am
Entre tus lindas caderas tu manera
F G C
Y tus caricias y esa forma tan gentil
G
Con la que me haces feliz

C G
Te ped que si queras ser mi novia
G#m Am
T me arrebataste un beso
F
Fue un momento tan bonito
G C
Que no supe qu decir
G
Yo te pertenezco a ti

C G
Te regalo un pedacito de cielo

Page 2
G#m Am
De mis labios un t quiero
F
De mis manos las caricias
G C
Que te van a hacer sentir
G
Lo que yo siento por ti

C G
Te regalo mi esencial todo mi mundo
G#m Am
Y aunque les parezca absurdo
F
Nunca haba encontrado a nadie
G C
Que se te asemeje a ti
G
Tienes diez en tu perfil

F G C
Te regalo del corazn solo a ti

(intro acordes con el requinto, si notan que es la misma progresion


de acordes???)

C G
Te ped que si queras ser mi novia
G#m Am
T me arrebataste un beso
F
Fue un momento tan bonito
G C
Que no supe qu decir
G
Yo te pertenezco a ti

C G
Te regalo un pedacito de cielo
G#m Am
De mis labios un t quiero
F
De mis manos las caricias
G C
Que te van a hacer sentir
G
Lo que yo siento por ti

C G
Te regalo mi esencial todo mi mundo

Page 3
G#m Am
Y aunque les parezca absurdo
F
Nunca haba encontrado a nadie
G C
Que se te asemeje a ti
G
Tienes diez en tu perfil

F G C
Te regalo del corazn solo a ti

-----------------------------------

KEY/CLAVE:
Left Side Numbers = Fret numbers
Bottom Numbers = Finger numbers (index finger is 1, middle finger is
2, ring finger is 3, pinky is 4)
X on top = don't play the string, mute it
'O' on top = this string is played openly
If theres not a number on the bottom (usually on the 6th string, the
fat one), this means to use your thumb if you can.

Numeros al izquierda = los trastes


Numeros debajo = los dedos (primer dedo, segundo dedo, tercer dedo, y
el dedo chico que viene siendo el cuarto dedo)
'X' arriba = No toques esta cuerda, que no suene para nada
'O' arriba = esta cuerda se toca al aire o "abierta"
- Si no hay numero debajo de la cuerda (la sexta cuerda, la cuerda
mas gorda) esto quiero decir que uses tu dedo pulgar si es que
puedes.

C G G#m Am F

1 3 4 5 1
2 4 5 6 2
3 5 6 7 3
4 6 7 8 4
5 7 8 9 5
3 2 1 3 2 1 1 3 1 1 1 3 1 1 1 3 2 1 1

Page 4
F#

1
2
3
4
5
3 2 1 1

Page 5