Vous êtes sur la page 1sur 6

More Than Words

Extreme

Tono: F# (con los acordes en la forma G)Afinacin: Eb Ab Db Gb Bb Eb

Intro 2x: G G/B C9 Am7 C D D4

G G/B C9 Am7 C D D4 G
Saying "I love you" is not the words I want to hear from you
G/B C9 Am7 C D D4 Em
It's not that I want you not to say, but if you only knew
Am7 D7 G D9/F# Em
How easy it would be to show me how you feel
Am7
More than words
D7 G7 C
Is all you have to do to make it real
Cm G Em7
Then you wouldn't have to say that you love me
Am7 D7 G
Cause I'd already know

D9/F# Em Bm C
What would you do if my heart was torn in two
Am7
More than words to show you feel
D7 G
That your love for me is real
D9/F# Em Bm C
What would you say if I took those words away
Am7
Than you couldn't make things new
D7 G G/B
Just by saying I love you

C9 Am7 C D D4 G G/B
Da ri da la ri ra ri la la ri la, more than words
C9 Am7 D7
Da ri da la ri ra

G G/B C9 Am7 C D D4 G G/B


Now that I've tried to talk to you and make you understand
C9 Am7 C D D4 Em
All you have to do is close your eyes and just reach out your hands
Am7 D7 G D/F# Em
And touch me, hold me close, don't ever let me go
Am7
More than words

D7 G7 C
Is all I ever needed you to show
Cm G Em7
Then you wouldn't have to say that you love me
Am7 D7 D7(b9) G
Cause I'd already know

D9/F# Em Bm C
What would you do if my heart was torn in two
G/B Am7
More than words to show you feel
D7 G
That your love for me is real
D9/F# Em Bm C
What would you say if I took those words away
Am7
Than you couldn't make things new
D7 G G/B
Just by saying I love you

C9 Am7 C D D4 G G/B
Da ri da la ri ra ri la la ri la, more than words (4x)

(no final da 4 vez, dedilhado)

( G D9/F# Dm9/F E4 Am7 + tapping )

G C9 G/B Gm/Bb Am7 G


More than words

TAB:
Intro / Parte 1:

"Saying i love you..."

G G/B C9 Am7 C D
D4
E|----3--x-|-3--3--x--3--3--x-----3-----x-|----0--x-----3-----x-----0--x-|-2-----
3--x-|
B|----3--x-|-3--3--x--3--3--x-----3--3--x-|-1--1--x-----1--1--x--1--1--x-|-3-----
3--x-|
G|----0--x-|-0--0--x--0--0--x-----0--0--x-|-0--0--x-----0--0--x--0--0--x-|----2--
2--x-|
D|-------x-|-------x--------x-----------x-|-------x-----------x--------x-|-
0--------x-|
A|-------x-|-2-----x--3-----x--3--3--3--x-|-0-----x--0--0--0--x--3-----
x-|----------x-|
E|-3-----x-|-------x--------x-----------x-|-------x-----------x--------
x-|----------x-|
i i i i i i
G G/B C9 Am7 C D
D4
E|-3--3--x-|-3--3--x--3--3--x-----3-----x-|----0--x-----3-----x-----0--x-|-2-----
3--x-|
B|-3--3--x-|-3--3--x--3--3--x-----3--3--x-|-1--1--x-----1--1--x--1--1--x-|-3-----
3--x-|
G|-0--0--x-|-0--0--x--0--0--x-----0--0--x-|-0--0--x-----0--0--x--0--0--x-|----2--
2--x-|
D|-------x-|-------x--------x-----------x-|-------x-----------x--------x-|-
0--------x-|
A|-------x-|-2-----x--3-----x--3--3--3--x-|-0-----x--0--0--0--x--3-----
x-|----------x-|
E|-3-----x-|-------x--------x-----------x-|-------x-----------x--------
x-|----------x-|
i i i i i i

Parte 2:

"How easy..."
Em Am7 D7 G D9/F#
E|-0--0--x-----0--x-----0--x-----3-----x-----2--x--2--2--x-|-3--x--3--x-----x--0--
x-|
B|-0--0--x--0--0--x--1--1--x-----1--1--x-----1--x--1--1--x-|-3--x--3--x--3--x--3--
x-|
G|-0--0--x--0--0--x--0--0--x-----0--0--x-----2--x--2--2--x-|-0--x--0--x--2--x--2--
x-|
D|-------x--------x--------x-----------x-----0--x--0-----x-|----x-----x-----x-----
x-|
A|-------x--2-----x--0-----x--0--0--0--x--0-----x--------x-|----x-----x-----x-----
x-|
E|-0-----x--------x--------x-----------x--------x--------x-|-3--x--3--x--2--x--2--
x-|
i i i i
Em Am7 D7
E|-0--0--x-----0--x-----0--x-----3-----x-----2--x--2--2--x-|
B|-0--0--x--0--0--x--1--1--x-----1--1--x-----1--x--1--1--x-|
G|-0--0--x--0--0--x--0--0--x-----0--0--x-----2--x--2--2--x-|
D|-------x--------x--------x-----------x-----0--x--0-----x-|
A|-------x--2-----x--0-----x--0--0--0--x--0-----x--------x-|
E|-0-----x--------x--------x-----------x--------x--------x-|
i i i i
G7 C Cm
E|-1--1--x--1--1--x-----0--x-----0-----x-----3--x-----3-----x-|
B|-0--0--x--0--0--x--1--1--x-----1--1--x--4--4--x-----4--4--x-|
G|-0--0--x--0--0--x--0--0--x-----0--0--x--5--5--x-----5--5--x-|
D|-------x--------x--------x-----------x--------x-----------x-|
A|-------x--2-----x--3-----x--3--3--3--x--3-----x--3--3--3--x-|
E|-3-----x--------x--------x-----------x--------x-----------x-|
i i i i
G Em7 Am7 D7
E|-3--3--x-----3---------3--x--3--x--3--x--3--x---0----2--|
B|-3--3--x-----3--3------3--x--3--x--3--x--3--x---1----1--|
G|-0--0--x-----0--0------0--x--0--x--0--x--0--x---0----2--|
D|-------x------------------x-----x--2--x-----x---2----0--|
A|-------x------------------x--2--x-----x--2--x---0-------|
E|-3-----x--3--3--3--2---0--x-----x-----x-----x-----------|
i

Parte 3:

"What would you do..."

G D9/F#
E|----3--x--3--3--x--3--3--x--3--3--x--------0-----0--x--0--x-----x--------2--x-|
B|----3--x--3--3--x--3--3--x--3--3--x-----3--3--3--3--x--0--x--0--x--3-----3--x-|
G|----0--x--0--0--x--0--0--x--0--0--x-----2-----2-----x--0--x--0--x--4-----4--x-|
D|-------x--------x--------x--------x-----------------x-----x-----x-----4-----x-|
A|-------x--2-----x--------x--2-----x-----------------x-----x--2--x--2--------x-|
E|-3-----x--------x--3-----x--------x--0--2-----2-----x--0--x-----x-----------x-|
i i i i i
C Am7
E|----0--x-----0-----x-----0--x--0--x--0--x-|----0--x-----3-----x-|
B|-1--1--x-----1--1--x--1--1--x--1--x--1--x-|-1--1--x-----1--1--x-|
G|-0--0--x-----0--0--x--0--0--x--0--x--0--x-|-0--0--x-----0--0--x-|
D|-------x-----------x--------x-----x-----x-|-------x-----------x-|
A|-3-----x--3--3--3--x--3-----x--3--x--2--x-|-0-----x--0--0--0--x-|
E|-------x-----------x--------x-----x-----x-|-------x-----------x-|
i i i
D7
E|-2--x--2--x--2--x--2--x-|
A|-1--x--1--x--1--x--1--x-|
G|-2--x--2--x--2--x--2--x-|
D|-0--x-----x--0--x-----x-|
A|----x-----x-----x-----x-|
E|----x-----x-----x-----x-|
G D9/F#
E|----3--x--3--3--x--3--3--x--3--3--x--------0-----0--x--0--x-----x--------2--x-|
B|----3--x--3--3--x--3--3--x--3--3--x-----3--3--3--3--x--0--x--0--x--3-----3--x-|
G|----0--x--0--0--x--0--0--x--0--0--x-----2-----2-----x--0--x--0--x--4-----4--x-|
D|-------x--------x--------x--------x-----------------x-----x-----x-----4-----x-|
A|-------x--2-----x--------x--2-----x-----------------x-----x--2--x--2--------x-|
E|-3-----x--------x--3-----x--------x--0--2-----2-----x--0--x-----x-----------x-|
i i i i i
C Am7 D7
E|----0--x-----0-----x-----0--x--0--x--0--x-|----0--x-----3-----x--2--|
B|-1--1--x-----1--1--x--1--1--x--1--x--1--x-|-1--1--x-----1--1--x--1--|
G|-0--0--x-----0--0--x--0--0--x--0--x--0--x-|-0--0--x-----0--0--x--2--|
D|-------x-----------x--------x-----x-----x-|-------x-----------x--0--|
A|-3-----x--3--3--3--x--3-----x--3--x--2--x-|-0-----x--0--0--0--x-----|
E|-------x-----------x--------x-----x-----x-|-------x-----------x-----|
i

Refro:

"Da ri da la ri ra..."

G G/B C9
E|----3--x-|-3--3--x--3--3--x-----3-----x-|
B|----3--x-|-3--3--x--3--3--x-----3--3--x-|
G|----0--x-|-0--0--x--0--0--x-----0--0--x-|
D|-------x-|-------x--------x-----------x-|
A|-------x-|-2-----x--3-----x--3--3--3--x-|
E|-3-----x-|-------x--------x-----------x-|
i i i
Am7 C D D4
E|----0--x-----3-----x-----0--x-|-2-----3--x-|
B|-1--1--x-----1--1--x--1--1--x-|-3-----3--x-|
G|-0--0--x-----0--0--x--0--0--x-|----2--2--x-|
D|-------x-----------x--------x-|-0--------x-|
A|-0-----x--0--0--0--x--3-----x-|----------x-|
E|-------x-----------x--------x-|----------x-|
i i i
G G/B C9 Am7 D7
E|-3--3--x-|-3--3--x--3--3--x-----3-----x----0----2---|
B|-3--3--x-|-3--3--x--3--3--x-----3--3--x----1----1---|
G|-0--0--x-|-0--0--x--0--0--x-----0--0--x----0----2---|
D|-------x-|-------x--------x-----------x----2----0---|
A|-------x-|-2-----x--3-----x--3--3--3--x----0--------|
E|-3-----x-|-------x--------x-----------x-------------|
i i i

(repete tudo)

(variao de ritmo na repetio da msica)

Parte 2 - variao:
Em Am7 D7
E|-0--0--x-----0--x-----0--x-----3-----x-----2--x--2--2--x-|
B|-0--0--x--0--0--x--1--1--x-----1--1--x-----1--x--1--1--x-|
G|-0--0--x--0--0--x--0--0--x-----0--0--x-----2--x--2--2--x-|
D|-------x--------x--------x-----------x-----0--x--0-----x-|
A|-------x--2-----x--0-----x--0--0--0--x--0-----x--------x-|
E|-0-----x--------x--------x-----------x--------x--------x-|
i i i i
G D/F# Em Am7 D7
E|-3--x--3--x--2--x--2--x--0---0--x-|-0--x-----3-----x-----2--x--2--2--x-|
B|-3--x--3--x--3--x--3--x--0---0--x-|-1--x-----1--1--x-----1--x--1--1--x-|
G|-0--x--0--x--2--x--2--x--0---0--x-|-0--x-----0--0--x-----2--x--2--2--x-|
D|-0--x--0--x--0--x--0--x--2---2--x-|-2--x-----------x-----0--x--0-----x-|
A|-2--x--2--x--0--x--0--x--2---2--x-|-0--x--0--0--0--x--0-----x--------x-|
E|-3--x--3--x--2--x--2--x--0---0--x-|----x-----------x--------x--------x-|
i

Final:

"More than... words..."

G D9/F# Dm9/F E4 Am7


E|---------3----------------0----------------0------------------0--------------
0-------|
B|-----3-----3----------3-----3----------3-----3--------------0---0----------1---
1-----|
G|---0---0-----0------2---2-----2------2---2-----2----------2-------2------0-------
0---|
D|--------------------------------------------------------2--------------
2-----------2-|
A|------------------------------------------------------2--------------
0---------------|
E|-3-------------3--2-------------2--1-------------1--
0--------------------------------|
(tapping)
t t
E|---2-h3-h5--17--p5-p3-p2-h3-h5--15--p5-p3-p2-h3-h5-|
B|---------------------------------------------------|
G|---------------------------------------------------|
D|-0-------------------------------------------------|
A|---------------------------------------------------|
E|---------------------------------------------------|
t t
E|-17--p5-p3-p2-h3-h5--15--p5-p3-p2-h3-h5--|
B|-----------------------------------------|
G|-----------------------------------------|
D|-----------------------------------------|
A|-----------------------------------------|
E|-----------------------------------------|
t t
E|-14--p5-p3-p2-h3-h5--15--p5-p3-p2-h3-h5--|
B|-----------------------------------------|
G|-----------------------------------------|
D|-----------------------------------------|
A|-----------------------------------------|
E|-----------------------------------------|
t t
E|-14--p5-p3-p2-h3-h5--12--p5-p3-p2-h3-h5--|
B|-----------------------------------------|
G|-----------------------------------------|
D|-----------------------------------------|
A|-----------------------------------------|
E|-----------------------------------------|
t t t
E|-10--p5-p3-p2-h3-h5--7--p5-p3-p2--h5-7-p5-p2-|
B|---------------------------------------------|
G|---------------------------------------------|
D|---------------------------------------------|
A|---------------------------------------------|
E|---------------------------------------------|
t t
E|---------------------------------------|
B|-h5-7-p5-p3----------------------------|
G|-------------h4-7-p4-p2-p0-------------|
D|---------------------------h4-p2-p0-h4-|
A|---------------------------------------|
E|---------------------------------------|
t t har
E|------------------------------x---7--|
B|------------------------------x---7--|
G|-7-p4-p2-p0-------------------x---7--|
D|------------h4-p2-p0----------x---7--|
A|---------------------h2-------x---7--|
E|------------------------7-p0--x---7--|
G C9 G/B Gm/Bb Am7 G
E|---------3------------3--------3--------3------------0--3/5-p3-h5-p3---3---|
B|-------3---3------3-----3--3-----3--3-----3--------1-------------------3---|
G|-----0-------0------0--------0--------0----------0---------------------0---|
D|-----------------------------------------------2-----------------------0---|
A|---2-----------2--3--------2--------1--------0-------------------------2---|
E|-3---------------------------------------------------------------------3---|

Centres d'intérêt liés