Vous êtes sur la page 1sur 3

Tuning: Standard

[Intro]

Guitar 1: Clean
e|---------------------------------------------------------------------------|
B|------0----0---0-------1---1-3-1-------------------------------------------|
G|-----1----1-----------2---2------------------------------------------------|2x
D|---------------------------------------------------------------------------|
A|---------------------0---0-------------------------------------------------|
E|---0-----0----0------------------------------------------------------------|

[1st Verse 2x]

Guitar 1: Clean

I'm telling you, I softly whisper Tonight tonight You are my angel
Aishiteru yo, Futari wa hitotsu ni Tonight tonight I just say

e|---------------------------------------------------------------------------|
B|---------------------------------------------------------------------------|
G|-----9--9---9------9--9---9------6--6---6-----4--4---4---------------------|
D|----9--9----------9--9----------6--6---------6--6--------------------------|
A|---7--7---7------6--6---6------4--4---4------------------------------------|
E|--------------------------------------------4--4---4-----------------------|

e|---------------------------------------------------------------------------|
B|---------------------------------------------------------------------------|
G|-----6--6---6-----9--9---9------6--6---6-----8--8---8----------------------|
D|----7--7---------9--9----------7--7---------9--9---------------------------|
A|----------------7--7---7---------------------------------------------------|
E|---5--5---5-------------------5--5---5-----7--7---7------------------------|

[Chorus 1]

Wherever you are, I always make you smile, Wherever you are, I'm always by your side
Whatever you say, kimi wo omou kimochi, I promise you "forever" right now

e|---------------------------------------------------------------------------|
B|---------------------------------------------------------------------------|
G|-----9--9---9-----9--9---9-----6--6---6----5--5---5------------------------|
D|----9--9---------9--9---------6--6--------4--4-----------------------------|
A|---7--7---7-----6--6---6-----4--4---4--------------------------------------|
E|-----------------------------------------4--4---4--------------------------|

e|---------------------------------------------------------------------------|
B|---------------------------------------------------------------------------|
G|-----6--6---6-----9--9---9-----6--6---6-----8--8---8-----------------------|
D|----7--7---------9--9---------7--7---------9--9----------------------------|
A|----------------7--7---7---------------------------------------------------|
E|---5--5---5------------------5--5---5-----7--7---7-------------------------|

[Interlude]

e|---------------------------------------------------------------------------|
B|-----0--0--0--------0--0--0------------------------------------------------|
G|----1-------1------1-------1-----------------------------------------------|
D|---------------------------------------------------------------------------|
A|---------------------------------------------------------------------------|
E|---0--0--0--------0--0--0--------------------------------------------------|
[Verse 2]

Guitar 1:Clean(play verse 1)


Guitar 2:Light Distortion: Palm mute.

I don't need a reason , I just want you baby Alright alright Day after day
Kono saki nagai koto zutto, Douka konna boku to zutto Shinu made Stay with me, We carry
on....

P.M ........ ........ ........ ........


e|---------------------------------------------------------------------------|
B|---------------------------------------------------------------------------|
G|---99999999--99999999--66666666--------------------------------------------|
D|---99999999--99999999--66666666--66666666----------------------------------|
A|---77777777--66666666--44444444--66666666----------------------------------|
E|---------------------------------44444444----------------------------------|

P.M ........ ........ ........ ........


e|--------------------------------------------|-------------------------------|
B|--------------------------------------------|-------------------------------|
G|-------------99999999-----------------------|-------------------------------|
D|---77777777--99999999--77777777--99999999---|--99999999---------------------|
A|---77777777--77777777--77777777--99999999---|--99999999---------------------|
E|---55555555------------55555555--77777777---|--77777777---------------------|

[Chorus 2]

Guitar 2:Full Distortion

Wherever you are, I always make you smile, Wherever you are, I'm always by your side
Whatever you say, kimi wo omou kimochi, I promise you "forever" right now

e|-----------------------------------------------------------------------------------|
B|-----------------------------------------------------------------------------------|
G|---99999999--99999999--66666666----------------------99999999----------------------|2
x
D|---99999999--99999999--66666666--66666666--77777777--99999999--77777777--99999999--|
A|---77777777--66666666--44444444--66666666--77777777--77777777--77777777--99999999--|
E|---------------------------------44444444--55555555------------55555555--77777777--|

[Bridge]

Bokura ga deatta hi wa futari ni totte ichibanme no kinen subeki hi da ne


Soshite kyou to iu hi wa futari ni totte nibanme no kinen subeki hi da ne

e|----------|B |---------------------------------| |--------------------------------|


B|----------|B |---------------------------------| |--------------------------------|
G|---6666---|R |---------------------------------| |--------------------------------|
D|---6666---|E |---66666666--77777777--99999999--|2x|---99999999---------------------|
A|---4444---|A |---66666666--77777777--99999999--| |---99999999---------------------|
E|----------|K |---44444444--55555555--77777777--| |---77777777---------------------|
Guitar 1: Play [Chorus 2]
Guitar 2:

[Solo]

e|-----------------------------------------------------------------------------------|
B|------7--9--7---7--------7--9--7---7-------7----9/10b-9-7-5-4-5-4------------------|
G|---/9--9------9-------/9--9------9------/9---9-------------------4b----------------|
D|-----------------------------------------------------------------------------------|
A|-----------------------------------------------------------------------------------|
E|-----------------------------------------------------------------------12\3--------|

e|-------------------------------------------------------------------------------------
----|
B|---------------------------------/12--9-9--5-5--3-3----3/12-12b--9-12b-16-17--19b\---
----|
G|-------------------------------------------------------------------------------------
----|
D|---2--------2-0-2-4-4/5-4-2----------------------------------------------------------
----|
A|---0---2--4--------------------------------------------------------------------------
----|
E|-------------------------------------------------------------------------------------
----|

[Chorus 3]

Full Distortion

Kokoro kara aiseru hito


Kokoro kara itoshii hito
Kono boku no ai no mannaka ni wa itsumo kimi ga iru kara,

Wherever you are, I always make you smile


Wherever you are, I'm always by your side
Whatever you say, kimi wo omou kimochi
I promise you "forever" right now

e|-----------------------------------------------------------------------------------|
B|-----------------------------------------------------------------------------------|
G|---99999999--99999999--66666666----------------------99999999----------------------|2
x
D|---99999999--99999999--66666666--66666666--77777777--99999999--77777777--99999999--|
A|---77777777--66666666--44444444--66666666--77777777--77777777--77777777--99999999--|
E|---------------------------------44444444--55555555------------55555555--77777777--|

e|----------------------------------------------------------------------------|
B|------------(14b-12)--------------------(17br-------------------------------|
G|---99999999----------99999999--66666666-------16)------------------------9--|
D|---99999999----------99999999--66666666--------------66666666--77777777--9--|
A|---77777777----------66666666--44444444--------------66666666--77777777--7--|
E|-----------------------------------------------------44444444--55555555-----|
************************************
| / slide up
| \ slide down
| . Palm mute
| b Bend
| br Bend release
| ph Pilipinas

************************************