Vous êtes sur la page 1sur 3

Guitar Tab Universe - http://www.guitartabs.

cc

Everybody's Changing by Keane - http://www.keanemusic.com

With thanks to Chris Flynn


http://www.keaneshaped.co.uk

_____ __ __
/ \____/ / / /
/ / / \ / _ / /
/ __ \ * //_/ \_/ /
/___/ /_/_/\_\___/____/

*Intro*
C Cmaj7 C Cmaj7
F Fmaj7 F Fmaj7
Dm Dsus2 G G6
C Cmaj7 C Cmaj7

*Verse 1*
C F
You say you wander your own land
Dm
But when I think about it
G C Cmaj7 C Cmaj7
I don't see how you can
C
You're aching, you're breaking
F
And I can see the pain in your eyes
Dm
Says everybody's changing
G Am Asus2 Am Asus2
And I don't know why

*Chorus*
F G
So little time
C F
Try to understand that I'm
Dm G
Trying to make a move just to stay in the game
Em7 A7
I try to stay awake and remember my name
Dm G C Cmaj7 C Cmaj7
But everybody's changing and I don't feel the same

*4 bar link*
Em Em Em G

*Verse 2*
C
You're gone from here, Soon you will disappear
F
Fading into beautiful light
Dm
'cos everybody's changing
G Am Asus2 Am Asus2
And I don't feel right

*Chorus*
F G
So little time
C F
Try to understand that I'm
Dm G
Trying to make a move just to stay in the game
Em7 A7
I try to stay awake and remember my name
Dm G
But everybody's changing and I don't feel the same

*Intro again (_lead solo_)*


C Cmaj7 C Cmaj7
F Fmaj7 F Fmaj7
Dm Dsus2 G G6
C Cmaj7 C Cmaj7

*Chorus*
F G
So little time
C F
Try to understand that I'm
Dm G
Trying to make a move just to stay in the game
Em7 A7
I try to stay awake and remember my name
Dm
But everybody's changing and
G Am Asus2 Am Asus2
I don't feel the same

*Outro*
Dm G C
Ohh everybody's changing and I don't feel the same

*Lead Tab*

*over intro and fills where needed*


b -13-13-13-13---12-12-12-12---15-15-15-15---12-12-12-12----

b -13-13-13-13---12-12-12-12---17-17-17-17---12-12-12-12----

b -13-13-13-13---12-12-12-12---18-18-18-18---12-12-12-12----

b -13-13-13-13---12-12-12-12---15-15-15-15---12-12-12-12----

*solo bit leading to last chorus*


Play this over repeated intro
b -13-13-13-13---12-12-12-12---15-15-15-15---12-12-12-12----

b -13-13-13-13---12-12-12-12---17-17-17-17---12-12-12-12----

b -13-13-13-13---12-12-12-12---18-18-18-18---12-12-12-12----

b -13-12-13---15-13-15---17-15-17---18-17-18-20

Then into final chorus