Vous êtes sur la page 1sur 3

_________________________ wwww.tablaturas.com.

br ____________________________

All Screwed Up

Main riff:
E|---------------------------|
B|---------------------------|
G|--4-4-4-4-4-4-4-4-4--------|
D|--4-4-4-4-4-4-4-4-4--------|
A|--0-2-2-0-2-2-0-2-2--------|
E|---------------------------|
Verse:
You think you're kinda tough
|---------------------------|---------------------------|
|---------------------------|---------------------------|
|--4-4-4-4-4-4-4-4-4--------|--4-4-4-4-4-4-4-4-4--------|
|--4-4-4-4-4-4-4-4-4--------|--4-4-4-4-4-4-4-4-4--------|
|--0-2-2-0-2-2-0-2-2--------|--0-2-2-0-2-2-0-2-2--------|
|---------------------------|---------------------------|
you're walking kinda rough
|---------------------------|---------------------------|
|---------------------------|---------------------------|
|--4-4-4-4-4-4-4-4-4--------|--4-4-4-4-4-4-4-4-4--------|
|--4-4-4-4-4-4-4-4-4--------|--4-4-4-4-4-4-4-4-4--------|
|--0-2-2-0-2-2-0-2-2--------|--0-2-2-0-2-2-0-2-2--------|
|---------------------------|---------------------------|

when you want any more

|---------------------------|---------------------------|
|---------------------------|---------------------------|
|---------------------------|---------------------------|
|--4-4-4-4-4-4-4-4-4--------|--4-4-4-4-4-4-4-4-4--------|
|--4-4-4-4-4-4-4-4-4--------|--4-4-4-4-4-4-4-4-4--------|
|--0-2-2-0-2-2-0-2-2--------|--0-2-2-0-2-2-0-2-2--------|
you go fast wo' wo' things go
|---------------------------|---------------------------|
|---------------------------|---------------------------|
|--4-4-4-4-4-4-4-4-4--------|--4-4-4-4-4-4-4-4-4--------|
|--4-4-4-4-4-4-4-4-4--------|--4-4-4-4-4-4-4-4-4--------|
|--0-2-2-0-2-2-0-2-2--------|--0-2-2-0-2-2-0-2-2--------|
|---------------------------|---------------------------|
tough and you strut your stuff and
I want your
|-----------------------|-------------------|-----------------------|----------
---------|
|----7----9----------8--|----7--------------|----7----9----------8--|----7-----
---------|
|----7----9----9--7--7--|----7--------------|----7----9----9--7--7--|----7-----
---------|
|--------------9--7-----|-------------------|--------------9--7-----|----------
---------|
|-----------------------|-------------------|-----------------------|----------
---------|
|-----------------------|-------------------|-----------------------|----------
---------|
| | | |
|
|-----------------------|-------------------|-----------------------|----------
---------|
|-----------------------|-------------------|-----------------------|----------
---------|
|-----------------------|-------------------|-----------------------|----------
---------|
|-----------------------|-------------------|-----------------------|----------
---------|
|----4----2----2--4--5--|----5--------------|----4----2----2--4--5--|----5-----
---------|
|----2----0----0--2--3--|----2--------------|----2----0----0--2--3--|----2-----
---------|
thing then you're out of luck
all screwed
|-----------------------|-------------------|
|----7----9----------8--|----7--------------|
|----7----9----9--7--7--|----7--------------|
|--------------9--7-----|-------------------|
|-----------------------|-------------------|
|-----------------------|-------------------|
| | |
|-----------------------|-------------------|-------------------|--------------
----------|
|-----------------------|-------------------|-------------------|--------------
----------|
|-----------------------|-------------------|-------------------|--------------
----------|
|-----------------------|-------------------|--2----------------|--2----2--2---
-2--2--2--|
|----4----2----2--4--5--|----5--------------|--2----------------|--2----2--2---
-2--2--2--|
|----2----0----0--2--3--|----2--------------|--0----------------|--0----0--0---
-0--0--0--|

Chorus:
up all screwed
|---------------------------|---------------------------|
|---------------------------|---------------------------|
|--4-4-4-4-4-4-4-4-4--------|--4-4-4-4-4-4-4-4-4--------|
|--4-4-4-4-4-4-4-4-4--------|--4-4-4-4-4-4-4-4-4--------|
|--0-2-2-0-2-2-0-2-2--------|--0-2-2-0-2-2-0-2-2--------|
|---------------------------|---------------------------|

up all screwed
|-----------------------------|---(0)---------------|
|-----------------------------|---(0)---------------|
|--4-4-4-4-4-4-4-4-4----------|---(1)---7----7------|
|--4-4-4-4-4-4-4-4-4----4--2--|---------7----7------|
|--0-2-2-0-2-2-0-2-2----2--2--|---------5----4------|
|--------------------------0--|---------------------|

up all screwed
|---------------------------|---------------------------|
|---------------------------|---------------------------|
|--4-4-4-4-4-4-4-4-4--------|--4-4-4-4-4-4-4-4-4--------|
|--4-4-4-4-4-4-2-4-4--------|--4-4-4-4-4-4-4-4-4--------|
|--0-2-2-0-2-2-0-2-2--------|--0-2-2-0-2-2-0-2-2--------|
|---------------------------|---------------------------|

up 2nd verse:

|-----------------------------|--------------------|---------------------------
|
|-----------------------------|--------------------|---------------------------
|
|--4-4-4-4-4-4-4-4-4----------|--------7----7------|--4-4-4-4-4-4-4-4-4--------
|
|--4-4-4-4-4-4-4-4-4----4--2--|--------7----7------|--4-4-4-4-4-4-4-4-4--------
|
|--0-2-2-0-2-2-0-2-2----2--2--|--------5----4------|--0-2-2-0-2-2-0-2-2--------
|
|--------------------------0--|--------------------|---------------------------
|

end of 2nd chorus:

|---------------------------|----------------------|----------|
|---------------------------|----------------------|----------|
|--4-4-4-4-4-4-4-4-4--------|----------------------|----------|
|--4-4-4-4-4-4-4-4-4--------|----------------------|----------|
|--0-2-2-0-2-2-0-2-2--------|----2--4--5----7------|----------|
|---------------------------|----0--2--3----5------|----------|
solo part starts with these chords:
(play single string first, then two strings, then full chords)
B D A E
|----------------------------------|----------------------------------|
|----------------------------------|----------------------------------|
|--4-4-4-4-4-4-4-4-7-7-7-7-2-2-2-2-|----------------------------------|
|--4-4-4-4-4-4-4-4-7-7-7-7-2-2-2-2-|--2-2-2-2-2-2-2-2-2-2-2-2-2-2-2-2-|
|--2-2-2-2-2-2-2-2-5-5-5-5-0-0-0-0-|--2-2-2-2-2-2-2-2-2-2-2-2-2-2-2-2-|
|----------------------------------|--0-0-0-0-0-0-0-0-0-0-0-0-0-0-0-0-|

here's the same pattern with additional chords at the end:


B D A E D A

|----------------------------------|----------------------------|
|----------------------------------|------------------3----2----|
|--4-4-4-4-4-4-4-4-7-7-7-7-2-2-2-2-|------------------2----2----|
|--4-4-4-4-4-4-4-4-7-7-7-7-2-2-2-2-|--2-2-2-2-2-2-2-2-0----2----|
|--2-2-2-2-2-2-2-2-5-5-5-5-0-0-0-0-|--2-2-2-2-2-2-2-2------0----|
|----------------------------------|--0-0-0-0-0-0-0-0-----------|
Tab mandada por e-mail por xande@bewnet.com.br