Vous êtes sur la page 1sur 9

Moonspell - Alma Mater tab

Artist: Moonspell
Title: Alma Mater

Tabulature by Wooniak

RIFF 1

E|-------------------------------------------------------------------------|
B|-------------------------------------------------------------------------|
G|-------------------------------------------------------------------------|
D|--12-12-12-12--10-9--10-10-10-10--9-10--12-12-12-12--10-9--7-7-7-7-7-7---|
A|--0--0--0--0---0--0--0--0--0--0---0-0---0--0--0--0---0--0--0-0-0-0-0-0---|
E|-------------------------------------------------------------------------|

E|--------------------------------------------------------|
B|--------------------------------------------------------|
G|--------------------------------------------------------|
D|--12-12-12-12--10-9--10-10-10-10-9---------9--------7---|
A|--0--0--0--0---0--0--0--0--0--0--0---10-10--10--8-8-----|
E|--------------------------------------------------------|

RIFF 2

E|-----------------------------------------------------------------|
B|-----------------------------------------------------------------|
G|-----------------------------------------------------------------|
G|--9-9-9-9-9-9-9-9-9-9-9-9-9-9-9-9-9-9---10--10--10--10--10--10---|
D|--9-9-9-9-9-9-9-9-9-9-9-9-9-9-9-9-9-9---10--10--10--10--10--10---|
A|--7-7-7-7-7-7-7-7-7-7-7-7-7-7-7-7-7-7---9---9---9---9---9---9----|

RIFF 3

E|------------------------------------|
B|------------------------------------|
G|------------------------------------|
D|----------222-555-33333-2-----------|
A|------333-----------------333-555---|
E|--555-------------------------------|

RIFF 4

E|-----------------------------------------------------------------------|
B|-----------------------------------------------------------------------|
G|-----------------------------------------------------------------------|
D|-----------------------------------------------------------------------|
A|--5555-7-55555-3-2-3333-2---222222---5555-7-55555-3-2-3333-2---2-2-2---|
E|--------------------------5----------------------------------5---------|

E|-------------------------------------------------------------------|
B|-------------------------------------------------------------------|
G|-------------------------------------------------------------------|
D|-------------------------------------------------------------------|
A|--5555-7-55555-3-2-3333-2---222222---5555-7-55555-3-2-3333-2---2---|
E|--------------------------5----------------------------------5-----|

RIFF 5

E|--------------------------------------------------------------------|
B|--------------------------------------------------------------------|
G|--------------------------------------------------------------------|
D|--14-14-14-12-12-12-10-10-10-9-9-9--12-12-12-10-10-10-9-9-9-7-7-7---|
A|--0--0--0--0--0--0--0--0--0--0-0-0--0--0--0--0--0---0-0-0-0-0-0-0---|
E|--------------------------------------------------------------------|

E|-------------------------------------------------------|
B|-------------------------------------------------------|
G|-------------------------------------------------------|
D|--14-14-14-12-12-12-10-10-10-10-9---------9--------7---|
A|---0--0--0--0--0--0--0--0--0--0-0---10-10--10--8-8-----|
E|-------------------------------------------------------|

RIFF 1 7x
RIFF 2 4x
RIFF 1 6x
RIFF 2 4x
RIFF 3 4x
RIFF 4 1x
RIFF 1 4x
RIFF 2 4x
RIFF 1 2x
RIFF 5 4x

OU

ALMA MATER!!!!!
E-------------------------------------------------------------
B-------------------------------------------------------------
G-------------------------------------------------------------
C--12-12-12-12-10-9-10-10-10-10-9-10-12-12-12-12-10-9-7-7-7-7-
A---0--0--0--0--0-0--0--0--0--0-0--0--0--0--0--0--0-0-0-0-0-0-
E-------------------------------------------------------------
E---------------------------------------------------I
B---------------------------------------------------I
G---------------------------------------------------I X8
C--12-12-12-12-10-9-10-10-10-10--9---7-7--7--5-5--5-I
A---0--0--0--0--0-0--0--0--0--0--0-------9-------7--I
E---------------------------------------------------I
OU

Music:ALMA MATER
Album:Wolfheat
Lyrics:LANGSUYAR
Tuning:E A D G B E

Intro

Guitar1
--------------------------------------------
--------------------------------------------
--------------------------------------------
--------------------------------------------
--55555532--33333323--55555532--0-000-0-000-
--------------------------------------------
Guitar2
--------------------------------------------------
--------------------------------------------------
--------------------------------------------------
--12--12-10-9-10---9-10-12--12-10-9--7-777-7-777--
--0---0--0--0-0----0-0--0---0--0--0--0-000-0-000--
--------------------------------------------------

Guitar1
----------------------------------------
----------------------------------------
----------------------------------------
----------------------------------------
--55555532--33333323--------2--------0--
----------------------333333---111111---
Guitar2
-------------------------------------------
-------------------------------------------
-------------------------------------------
--12--12-10-9-10---9-10--------8--------6--
--0---0--0--0-0----0-0---999999---777777---
-------------------------------------------
Guitar3
------------------------------------------
------------------------------------------
------------------------------------------
--12---12-10-9--10---9-10--5------3-------
--12---12-10-9--10---9-10--5------3-------
--10---10-8--7--8----7-8---3------1-------

Main Riff

Guitar1
--------------------------------------------
--------------------------------------------
--------------------------------------------
--------------------------------------------
--55555532--33333323--55555532--0-000-0-000-
--------------------------------------------
Guitar2
--------------------------------------------------
--------------------------------------------------
--------------------------------------------------
--12--12-10-9-10---9-10-12--12-10-9--7-777-7-777--
--0---0--0--0-0----0-0--0---0--0--0--0-000-0-000--
--------------------------------------------------
Guitar3
---------------------------------------------
---------------------------------------------
---------------------------------------------
--12---12-10-9--10----9-10--12--12/10/9/-----
---------------------------------------------

Guitar1
----------------------------------------
----------------------------------------
----------------------------------------
----------------------------------------
--55555532--33333323--------2--------0--
----------------------333333---111111---
Guitar2
-------------------------------------------
-------------------------------------------
-------------------------------------------
--12--12-10-9-10---9-10--------8--------6--
--0---0--0--0-0----0-0---999999---777777---
-------------------------------------------
Guitar3
------------------------------------------
------------------------------------------
------------------------------------------
--12--12-10-9-10---9-10--5555552--3333332-
-------------------------5555552--3333332-
-------------------------3333330--1111110-

Chorus

Guitar1,2
---------------------------------------------------
---------------------------------------------------
---------------------------------------------------
--9-9-9-9-------9-9-9-9------9-9-9-9------10---7---
--9-9-9---9-----9-9-9---9----9-9-9---9----10---7---
--7-7-7-----7---7-7-7-----7--7-7-7-----7--8----5---

Solo

Guitar1
------------------------------------------------------
------------------------------------------------------
------------------------------------------------------
----------22225555-3333-3-32-----0000--------22225555-
--00003333-------------------3333----00003333---------
------------------------------------------------------
Guitar2
------------------------------------------------------
------------------------------------------------------
------------------------------------------------------
----------2---5---3----3-32------0----------2----5----
--0---3---------------------3--------0---3------------
------------------------------------------------------

Guitar1
--------------------
--------------------
--------------------
-3333-3-32----------
-----------33333333-
--------------------
Guitar2
--------------------
--------------------
--------------------
-3----3-32-3---3----
--------------------
--------------------

Guitar1
---------------------------------------------------------------
---------------------------------------------------------------
---------------------------------------------------------------
--0000-0-20-0000-0------------------------0000-0-20-0000-0-----
-------------------32-3333-3-32-2222-2222------------------32--
---------------------------------------------------------------
Guitar2
---------------------------------------------------------------
---------------------------------------------------------------
---------------------------------------------------------------
-0-----0-20-0----0------------------------0---0-20-0-----0-----
-------------------32-3----3-32-2---2----------------------32--
---------------------------------------------------------------

Guitar1
-------------------------------------------------------
-------------------------------------------------------
-------------------------------------------------------
-------------2-2-2-0000-0-20-0000-0--------------------
--3333-3-20--2-2-2------------------32-3333-3-20-2222--
-------------0-0-0-------------------------------------
Guitar2
-------------------------------------------------------
-------------------------------------------------------
-------------------------------------------------------
-------------2-2-2-0---0-20-0-----0--------------------
--3----3-20--2-2-2------------------32-3----3-20-2-----
-------------0-0-0-------------------------------------

Guitar1
-----------------------------------------
-----------------------------------------
-----------------------------------------
------0000-0-20-0000-0-------------------
--2222-----------------32-3333-3-20-2----
-----------------------------------------
Guitar2
-----------------------------------------
-----------------------------------------
-----------------------------------------
------0----0-20-0----0-------------------
--2--------------------32-3----3-20-2----
-----------------------------------------

Outro

Guitar3
-----------------------------------------------------
-----------------------------------------------------
-----------------------------------------------------
--12--10--9--7--10--9--7--5--12--10--9--7--3----1----
-----------------------------------------------------
-----------------------------------------------------

OU

Alma Mater

Intro

Guitar1
--------------------------------------------
--------------------------------------------
--------------------------------------------
--------------------------------------------
--55555532--33333323--55555532--0-000-0-000-
--------------------------------------------
Guitar2
--------------------------------------------------
--------------------------------------------------
--------------------------------------------------
--12--12-10-9-10---9-10-12--12-10-9--7-777-7-777--
--0---0--0--0-0----0-0--0---0--0--0--0-000-0-000--
--------------------------------------------------

Guitar1
----------------------------------------
----------------------------------------
----------------------------------------
----------------------------------------
--55555532--33333323--------2--------0--
----------------------333333---111111---
Guitar2
-------------------------------------------
-------------------------------------------
-------------------------------------------
--12--12-10-9-10---9-10--------8--------6--
--0---0--0--0-0----0-0---999999---777777---
-------------------------------------------
Guitar3
------------------------------------------
------------------------------------------
------------------------------------------
--12---12-10-9--10---9-10--5------3-------
--12---12-10-9--10---9-10--5------3-------
--10---10-8--7--8----7-8---3------1-------

Main Riff

Guitar1
--------------------------------------------
--------------------------------------------
--------------------------------------------
--------------------------------------------
--55555532--33333323--55555532--0-000-0-000-
--------------------------------------------
Guitar2
--------------------------------------------------
--------------------------------------------------
--------------------------------------------------
--12--12-10-9-10---9-10-12--12-10-9--7-777-7-777--
--0---0--0--0-0----0-0--0---0--0--0--0-000-0-000--
--------------------------------------------------
Guitar3
---------------------------------------------
---------------------------------------------
---------------------------------------------
--12---12-10-9--10----9-10--12--12/10/9/-----
---------------------------------------------

Guitar1
----------------------------------------
----------------------------------------
----------------------------------------
----------------------------------------
--55555532--33333323--------2--------0--
----------------------333333---111111---
Guitar2
-------------------------------------------
-------------------------------------------
-------------------------------------------
--12--12-10-9-10---9-10--------8--------6--
--0---0--0--0-0----0-0---999999---777777---
-------------------------------------------
Guitar3
------------------------------------------
------------------------------------------
------------------------------------------
--12--12-10-9-10---9-10--5555552--3333332-
-------------------------5555552--3333332-
-------------------------3333330--1111110-

Chorus

Guitar1,2
---------------------------------------------------
---------------------------------------------------
---------------------------------------------------
--9-9-9-9-------9-9-9-9------9-9-9-9------10---7---
--9-9-9---9-----9-9-9---9----9-9-9---9----10---7---
--7-7-7-----7---7-7-7-----7--7-7-7-----7--8----5---

Solo

Guitar1
----------------------------------------------------
----------------------------------------------------
----------------------------------------------------
--------22225555-3333-3-32-----0000--------22225555-
00003333-------------------3333----00003333---------
----------------------------------------------------
Guitar2
----------------------------------------------------
----------------------------------------------------
----------------------------------------------------
--------2---5---3----3-32------0----------2----5----
0---3---------------------3--------0---3------------
----------------------------------------------------

Guitar1
--------------------
--------------------
--------------------
-3333-3-32----------
-----------33333333-
--------------------
Guitar2
--------------------
--------------------
--------------------
-3----3-32-3---3----
--------------------
--------------------

Guitar1
----------------------------------------------------
----------------------------------------------------
----------------------------------------------------
--0000-0-20-0000-0-----------------------0000-0-20-0000-0-
-------------------32-3333-3-32-2222-2222-----------------32--
----------------------------------------------------
Guitar2
---------------------------------------------------------------
---------------------------------------------------------------
---------------------------------------------------------------
-0-----0-20-0----0------------------------0---0-20-0-----0-----
-------------------32-3----3-32-2---2----------------------32--
---------------------------------------------------------------

Guitar1
-------------------------------------------------------
-------------------------------------------------------
-------------------------------------------------------
-------------2-2-2-0000-0-20-0000-0--------------------
--3333-3-20--2-2-2------------------32-3333-3-20-2222--
-------------0-0-0-------------------------------------
Guitar2
----------------------------------------------------
----------------------------------------------------
----------------------------------------------------
----------2-2-2-0---0-20-0-----0--------------------
3---3-20--2-2-2------------------32-3----3-20-2-----
----------0-0-0-------------------------------------

Guitar1
-----------------------------------------
-----------------------------------------
-----------------------------------------
------0000-0-20-0000-0-------------------
--2222-----------------32-3333-3-20-2----
-----------------------------------------
Guitar2
-----------------------------------------
-----------------------------------------
-----------------------------------------
------0----0-20-0----0-------------------
--2--------------------32-3----3-20-2----
-----------------------------------------

Outro

Guitar3
----------------------------------------------------
----------------------------------------------------
----------------------------------------------------
-12--10--9--7--10--9--7--5--12--10--9--7--3----1----
----------------------------------------------------
----------------------------------------------------