Vous êtes sur la page 1sur 1

>= acentuar nota

intro
|----------------|----------------|----------------|----------------|
|5------5/7-5----|9---------------|----------------|----------------|
|----------------|----------------|7-------------2-|3---------------|
|----------------|--------7-------|----------------|----------------|

|----------------|----------------|----------------|----------------|
|----------------|----------------|----------------|----------------|
|--------------2-|5-----------2---|----------------|5-5-5-5-5-5-5-5-|
|3-----------3---|--------------5-|3---------------|----------------|
> > > >

Resto de la cancion
|----------------|----------------|----------------|----------------|
|----------------|----------------|----------------|----------------|
|----------------|2-2-2-2-2-2-2-2-|7-7-7-7-7-7-7-7-|3-3-3-3-3-3-3-3-|
|3-3-3-3-3-3-3-3-|----------------|----------------|----------------|
> > > > > > > > > > > > > > > >

|----------------|----------------|----------------|----------------|
|----------------|----------------|----------------|----------------|
|----------------|5-5-5-5-5-5-5-5-|----------------|5-5-5-5-5-5-5-5-|
|3-3-3-3-3-3-3-3-|----------------|3-3-3-3-3-3-3-3-|----------------|
> > > > > > > > > > > > > > > >