Vous êtes sur la page 1sur 14

Como olvidarme de ti ANTOLOGIA

Lam Mi Lam
Vuelvo a tu puerta mi dulce bien
Lam Mi Lam
vuelvo a tocarla con emoción
Rem
quize alejarme de ti,
Fa Do
buscando quien sabe que, pero volvi.

Mi Lam
No puedo estar sin ti

Rem
quize alejarme de ti,
Fa Do
buscando quien sabe que, pero volvi.

Mi Lam
No puedo estar sin ti

Mi Lam
como querer olvidar tu amor
Mi Lam
si en el lugar de mi corazón
Rem
habita viva tu imagen, como
Fa Do
una guia en mi vida, vida mia.

Mi Lam
Como olvidarme de ti
Rem
habita viva tu imagen, como
Fa Do
una guia en mi vida, vida mia.

Mi Lam
Como olvidarme de ti

Mi Lam
Como olvidarme de ti
Rem Fa Do
si hallo la calma en tu piel, vida mia.

Mi Lam
Como olvidarme de ti

Mi Lam
Como olvidarme de ti
Rem Fa Do
si hallo la calma en tu piel, vida mia.

Mi Lam
Como olvidarme de ti

REPETIR TODO OTRA VEZ


En Otra Piel- ANTOLOGIA
Verso 1:

Lam Rem Fa Sol Do


Te conoci, me enamore, perdidamente en tí crei
Rem Do
Haz cambiado mi vida, Yo ya no soy el de ayer
Mi
si vivo es solo por tí,
Sol Mi Lam
eres mas fuerte que toda razón. [Bis]

Lam Rem
Si alguna vez me faltas tú
Fa Sol Do
no seria igual que ayer
Rem Do
Sin sentido mi vida, viviendo de aventuras
Mi Sol Mi Lam
perdido en otra piel... a ese pasado no quiero volver. [Bis]

Rem Do
Haz cambiado mi vida, Yo ya no soy el de ayer
Mi
si vivo es solo por tí,
Sol Mi Lam
eres mas fuerte que toda razón.

Fa
I si la gente te dice que soy un perdido
Sol Do
Amor, tu lo sabes
Mi
Eso quedo en el pasado esta enterrado
Lam
Amor, tu lo sabes

Fa
I es que la gente solo sabe hablar
Sol Do
mas no sabe amar, como nos amamos
Mi
es la envidia quizas porque nunca lo haran
Sol Lam
como nos amamos,

Mi Lam Do
contigo amor quiero vivir,
Mi Lam
ya ese pasado yo nunca quisiera volver.
ALEJATE – ANTOLOGIA

1)-9—-9--7----------9-10-|—12/10-12-11-11/12--|
2)-10-10-9-10-----10-----|--------------------|
3)---------11---11-------|--------------------|
4)-----------------------|--------------------|
5)-----------------------|--------------------|
6)-----------------------|--------------------|...(I)

1)-9—-9--7---------9-10—|-10-12-14-12^14—|-16-16-14/12-12-----|
2)-10-10-9-10----10-----|----------------|---------------15v--|
3)---------11--11-------|----------------|--------------------|
4)----------------------|----------------|--------------------|
5)----------------------|----------------|--------------------|
6)----------------------|----------------|--------------------|...(II)

1)-------12-14----|---------------|------------------|
2)--15-15-----12v-|-12-12^14-10---|-10-10^9----------|
3)--------- ------|------------11-|--------11-11/13--|
4)----------------|---------------|------------------|
5)----------------|---------------|------------------|
6)----------------|---------------|------------------|...(III)

1)-16-16-14/12-12----|------12-14----|---------------|
2)---------------15v-|-15-15-----12v-|-12-12^14-10---|
3)-------------------|---------------|------------11-|
4)-------------------|---------------|---------------|
5)-------------------|---------------|---------------|
6)-------------------|---------------|---------------|...(IV)

LA MI Fam#
Aléjate por el amor que yo te daba
LA Mi Fam#
Y lleva ya aquel puñal de tu mal pago
RE LA
Se llevara todo mi amor
Dom# Sim Fam#
Mi juventud mi vida entera
RE LA
Te llevaras todo mi amor
Dom# Sim Fam#
Mi juventud mi vida entera

LA MI Fam#
Pido perdón por este ser que esta muriendo
LA MI Fam#
Mi corazón se niega amar a otro cariño
RE LA
Te llevare como una luz
Dom# Sim Fam#
Prendida a mí es mi martirio
RE LA
Te llevare como una luz
Dom# Sim Fam# MI
Prendida a mí es mi tormento
ACA ENTRA LA QUENA Y SIGUE ...(I)(II)(III)(IV) y despues esto :

1)-9—-9—-7--9-|-9--9--9--7-|-7-9--7-5----|
2)------------|------------|----------7v-|
3)------------|------------|-------------|
4)-11-11-9-11-|-11-11-11-9-|-9-11-9-7----|
5)------------|------------|----------9v-|
6)------------|------------|-------------|

1)-9—-9—-7--9-|-9--12-9--7-|-7-9--7-5----|
2)------------|------------|----------7v-|
3)------------|------------|-------------|
4)-11-11-9-11-|-11-14-11-9-|-9-11-9-7----|
5)------------|------------|----------9v-|
6)------------|------------|-------------|

LA MI Fam#
Perdóname si te ame con gran delirio
LA MI Fam#
Es que el amor solo una ves toco mi alma
RE LA
Te llevare dentro de mí
Dom# Sim Fam#
En alma y piel con gran ternura
RE LA
Te llevare dentro de mí
Dom# Sim Fam#
En alma y piel con gran ternura

LA MI Fam#
Pido perdón por este ser que esta muriendo
La MI Fam#
Mi corazón se niega amar a otro cariño
RE LA
Te llevare como una luz
Dom# Sim Fam#
Prendida a mí es mi martirio
RE LA
Te llevare como una luz
Dom# Sim Fam#
Prendida a mí es mi martirio

Fam# MI Fam#
Aléjate por el amor que yo te daba.
PROMESAS DE AMOR

tonalidad
Imprimir

Intro
F#m - C# - F#m
C# - Bm - D
D - A - D - A - F#m - E

A
puede apagarse un día el sol
D A
puede la lluvia dejar de caer, puede acabarse la vida
A
puede el recuerdo el tiempo borrar
D A
y hasta la tierra dejar de girar, romperse el mundo en pedazos
C# D C#m F#m
pero mi amor amor, nunca te ha de faltar
C# D C#m F#m
pero mi amor amor, nunca te ha de faltar
Rep Intro

A
puede el poeta dejar de escribir
D A
y hasta las flores perder su color, secarse mares y ríos
A
puede el reloj detenerse en su andar y
D A
las palomas dejar de volar quedarse todo en tinieblas
C# D C#m F#m
pero mi amor amor, nunca te ha de faltar
C# D C#m F#m
pero mi amor amor, nunca te ha de faltar
F#
Bm D A F#m A F#m E
y como prueba de amor amor sabes te ofrezco mi vida mis manos mis besos
Bm D A F#m A F#m
y como prueba de amor amor sabes te ofrezco mi vida mis manos mis besos
A F#m
mi corazón y sus versos..

Tengan en cuenta que es mi primera transcripción que realizo


Es simple: "Esto es sentimiento hecho canción"
Con todo mi amor, a mi inspiración Katy...
CAMILA- Alejate

Espero que les guste esta


cancion yo la modifiqué un poco
suena igual a la cancion original
si quieren pueden usar el capo en
el 2º traste o solamente asi B ok
y el A#m es en el 6º traste ok
en el primer verso entra arpegiando como en el inicio abajo se los dejo
INTRO:

e------------------------------------------------------
B---6-7----7--6-------4-----(3)---6-7----7--6-----4----
G-8---8---8---6---6---4---4------8--8---8---6--6--4--4-
D-----8--8----6--6----4--4----------8--8----6-6---4-4--
A------------------------------------------------------
E------------------------------------------------------

D#m C# B
Alejate de mi y hazlo pronto antes de que te mienta.
e----------------------------------------------------------------
B---6-7-----------7----------6-------------------------4-----(3)-
G-8---8----------8-----------6-------------6-----------4---4-----
D-----8---------8------------6------------6------------4--4------
A----------------------------------------------------------------
E----------------------------------------------------------------
D#m C# B
Tu cielo se hace gris , yo ya camino bajo la tormenta.
e----------------------------------------------------------------
B---6-7-----------7----------6-------------------------4-----(3)-
G-8---8----------8-----------6-------------6-----------4---4-----
D-----8---------8------------6------------6------------4--4------
A----------------------------------------------------------------
E----------------------------------------------------------------
D#m C# B
Alejate de mi, escapa ve que ya no debo verte.
e----------------------------------------------------------------
B---6-7-----------7----------6-------------------------4-----(3)-
G-8---8----------8-----------6-------------6-----------4---4-----
D-----8---------8------------6------------6------------4--4------
A----------------------------------------------------------------
E----------------------------------------------------------------
D#m C# B
Entiende que aunque pida que te vayas, no quiero perderte.
e----------------------------------------------------------------
B---6-7-----------7----------6-------------------------4-----(3)-
G-8---8----------8-----------6-------------6-----------4---4-----
D-----8---------8------------6------------6------------4--4------
A----------------------------------------------------------------
E----------------------------------------------------------------

VERSO:

A#m D#m
La luz ya, no alcanza?..

B C#
No quieras caminar sobre el dolor descalza?

A#m D#m
Un Angel te cuida??.

B C#
Y puso en mi boca la verdad para mostrarme la salida?.

CORO:

B C# F#
Y alejate de mi amor?.

C#
Yo se que aun estas a tiempo?.

D#m
No soy quien en verdad parezco?.

C# B C#
y perdon no soy quien crees yo no cai del cielo

B C# F#
Si aun no me lo crees amor??

C#
y quieres tu correr el riesgo

D#m
veras que soy realmente bueno

C# B C#
en engañar y hacer sufrir uooo
B------------
D#m C# B G---10h12--10
a quien mas quiero (x2) D------------

D#m C# B
Alejate de mi pues tu bien sabes que no te merezco

D#m C# B
quiciera arrepentirme, ser el mismo y no decirte esto

D#m C# B
Alejate de mi, escapa, vete ya no debo verte

D#m C# B
Entiende que aunque pida que te vayas no quiero perderte.

VERSO:
Palm mute en todas las notas de este verso

A#m D#m
La luz ya, no alcanza?..

B C#
No quieras caminar sobre el dolor descalza?

A#m D#m
Un Angel te cuida??.

B C#
Y puso en mi boca la verdad para mostrarme la salida?.

CORO:

B C# F#
Y alejate de mi amor?.

C#
Yo se que aun estas a tiempo?.

D#m
No soy quien en verdad parezco?.

C# B C#
y perdon no soy quien crees yo no cai del cielo

B C# F#
Si aun no me lo crees amor??

C#
y quieres tu correr el riesgo

D#m
veras que soy realmente bueno

C# B C#
en engañar y hacer sufrir y hacer llorar

D#m C# B C#
a quien mas quiero uooo uooo uoo

B C# F#
Y alejate de mi amor?.

C#
Yo se que aun estas a tiempo?.

D#m
No soy quien en verdad parezco?.

C# B C#
y perdon no soy quien crees yo no cai del cielo

B C# F#
Si aun no me lo crees amor??

C#
y quieres tu correr el riesgo

D#m
veras que soy realmente bueno

C# B C#
en engañar y hacer sufrir uoo

B------------
D#m C# B G---10h12--10
a quien mas quiero D------------

D#m C# B F#
a quien mas quiero
coleccionista de canciones- CAMILA

Intro:

C#
e----------------------------------------------|
B--2/4--4/6--1--2/4------2/4--4/6--1--2/4------|
G--3----------------1/3--3----------------1/3--|
D--4---------------------4---------------------|
A----------------------------------------------|
E----------------------------------------------|

C# A#m
e-------------------------------------------------------|
B-------2-1------------------------2h1------------------|
G-------------------------------------------------------|
D---4-------------------------3-------------------------|
A-3-------------------------1---------------------------|
E-------------------------------------------------------|
Tu...coleccionista de canciones
F# G#
e----------------------------------------------3h4------|
B-------------2------------------------------4----------|
G------------4------------------------------6-----------|
D-----------3------------------------------5------------|
A----------4------------------------------6-------------|
E---------2------------------------------4--------------|
dame razones para vivir
C# A#m F#
e---------------------------------------------------------|
B----2-1----------------------2---------------------------|
G----------------------------3---------------------3------|
D--4------------------------3---------------------4-------|
A-3------------------------1---------------------4--------|
E-----------------------------------------------2---------|
tu.........la dueña de mis sueños, quedate en ellos
G# F A#m
e-------------------------------------------------------|
B-----------------6--------3--------2-------------------|
G---------------6---------3--------3--------------------|
D-------------6----------3--------3---------------------|
A--------------------------------1----------------------|
E-----------4----------1--------------------------------|
y hasme sentir y asi
D#m A#m
e-------1------------2----------------------------------------|
B-2--4-----------4-------------------------2------------------|
G------------3-----------2----------------3-------------------|
D--------1--------------1----------------3--------------------|
A---------------------------------------1---------------------|
E----------------------1--------------------------------------|
en tu misterio poder descubrir
D#m
e-------1------------2---------------------------------------|
B-2--4-----------4-------------------------------------------|
G-------------3--------------2-------------------------------|
D---------1----------------1---------------------------------|
A------------------------------------------------------------|
E------------------------1-----------------------------------|
el sentimiento eterno.........
F# C#
Tu con la luna en la cabeza
F#
El lugar en donde empieza
D#m G#
El motivo y la ilusion de mi existir

C# A#m
Tan solo tu solamente quiero que seas tu
F# D#m
Mi locura mi tranquilidad y mi delirio
F# G#
Mi compas y mi camino

C# A#m
Y solo tu solamente quiero que seas tu
F#
Yo pongo en tus manos mi destino
F# F# G# C#
Porque vivo para estar siempre, siempre contigo amor

e------------------------------------------------------
B-2/4--4/6--1--2/4---------2-3---2-2/4--4/6--1--2/4----
G-3----------------1/3----3------3------------------1/3
D-4----------------------4-------4---------------------
A------------------------------------------------------
E------------------------------------------------------

C# A#m F#
Tu coleccionista de canciones, mil emociones
G#
son para ti
C# A#m F#
Tu lo que soñe mi vida entera, quedate en ella
G#
Y hazme sentir
D#m A#m
e------1------------2--------------------------------------|
B--2-4-----------4------------------------2----------------|
G-------------3-------------2------------3-----------------|
D---------1----------------1------------3------------------|
A--------------------------------------1-------------------|
E-------------------------1--------------------------------|
Y asi ir transformando la magia de ti
D#m F
e------1-----------2---------------------------------------|
B--2-4----------4------------------------------------------|
G------------3-----------2---------------------------------|
D---------1-------------1----------------------------------|
A----------------------------------------------------------|
E---------------------1------------------------------------|
En un respiro del alma

F# C#
Tu con la luna en la cabeza
F#
El lugar en donde empieza
D#m G#
El motivo y la ilusion de mi existir
C# A#m
Tan solo tu solamente quiero que seas tu
F# D#m
Mi locura, mi tranquilidad y mi delirio
F# G#
Mi compas y mi camino.
C# A#m
Y solo tu solamente quiero que seas tu
F#
Yo pongo en tus manos mi destino
F# G#
Porque vivo para estar siempre contigo......

A B
Ya no queda mas espacio en mi interior
A
Has llenado con tu luz cada rincon
F# G#
Es por ti que con el tiempo mi alma siente diferente
F# G#
So..Lo..

A#m
Tu solamente quiero que seas tu
F# D#m
Mi locura mi tranquilidad y mi delirio
F# G#
Mi compas y mi camino
C# A#m
Solo tu solamente quiero que seas tu
F#
Yo pongo en tus manos mi destino
F# F# G# C#
Porque vivo para estar siempre, siempre, siempre contigo amor

El final es asi :
e--9-11-13---9-11---|-9-11-13--9-11---|
B---------13-----11-|--------13----11-|
G-------------------|-----------------|
D-------------------|-----------------|
A-------------------|-----------------|
E-------------------|-----------------|

C# A#m F# D#m G# X2

ACORDES

F# 244322
G# 466544
D#m x68876
A#m x13321
A x02220
B x24442
C# x46664

Esta Cancion Va dedicada para liz tu sabes lo q siento por ti


un saludo para mi parche
MARIACHI

Em: |022000| |x79987|


B7: |x21202| |797877| |x24242|
Am: |x02210| |577555|

============================== INTRODUCCION ===============================

-------7-7--7-7--8-7--7----8-7-7----5--|-- 5-5--5-5-7-5--5-5-7-5-5----
-----8-8-8--8-8--8-8--8----8-8-8----7--|- -7-7--7-7-7-7--7-7-7-7-7-7-8
---9--------------------9--------9----|-7------------------------8-9
-9-------------------------------------|------------------------------
---------------------------------------|------------------------------
---------------------------------------|------------------------------

Em
Soy un hombre muy honrado,
B7
Que me gusta lo mejor
B7
A mujeres no me faltan,
Em
Ni al dinero, ni el amor

jineteando en mi caballo
por la sierra yo me voy
las estrellas y la luna
ellas me dicen donde voy

Am Em
ay, ay, ay, ay
B7 Em
ay, ay mi amor
Am Em
ay mi morena,
B7 Em
de mi corazon

---> INTRODUCCION <---

me gusta tocar guitarra


me gusta cantar el son
un mariachi me acompaña
cuando canto my cancion

me gusta tomar mis copas


aguardiente es lo mejor
tambien la tequila blanco
con su sal le da sabor

ay, ay, ay, ay


ay, ay mi amor
ay mi morena,
de mi corazon
---> SOLO <---
--------------12---------------------11-------------------------------
----12-----12----12----12--------12------12--10--12-------------------
-9------12----------12------------------------------------------------
---------------------------9------------------------9-----------------
----------------------------------------------------------------------
----------------------------------------------------------------------

----11------------------12-----------------12-------------------------
-12----12-10-12------12----12----12-----12----12----12----------------
------------------------------12-----------------12-------------------
-----------------9------------------9------------------9--------------
----------------------------------------------------------------------
----------------------------------------------------------------------

----11----------------|--11-------------------------12--------------12
-12----12-10-12--------------10--12--------10-12-------------12-------
----------------------------------------------------------12----------
-----------------9--------------------9-----------9--------------9----
----------------------------------------------------------------------
----------------------------------------------------------------------

-----------12---|---------10----10---8------8---7---7---5---5--3--3---
-----12----------------12----12---------10--------8-------7------5----
-12-----------------12------------------------------------------------
---------9------------------------------------------------------------
----------------------------------------------------------------------
----------------------------------------------------------------------

-2---3---0---0--------------------------------------------------------
---3-------0----3--0--1--0--------------------------------------------
-------------------------------4-----2--4--5-4-2-------2--------------
-------------------------------------------------5-4-----5-4-2-~~~----
-------------------------------------------------------------------2--
----------------------------------------------------------------------

----------------------------------------------------------------------
----------------------------------------------------------------------
-------8--9--11----------10--11--12-----------8--9--11----------------
-9--9--------------9--9-----------------9--9-------------9------------
----------------------------------------------------------------------
----------------------------------------------------------------------

---7--5--3--2--0------------------------------------------------------
----------------------------------------------------------------------
---8--5--4--2--0------------------------------------------------------
----------------------------------------------------------------------
----------------------------------------------------------------------
----------------------------------------------------------------------

*golpendo la guitarra sin tocar*

me gusta tocar guitarra


me gusta cantar el sol
mariachi me acompana
quando canto my cancion *comienza a tocar en Em*

me gustan tomar mis copas


aguardiente es lo mejor
tambien la tequila blanco
con su sal le da sabor

ay, ay, ay, ay


ay, ay mi amor
ay mi morena,
de mi corazon

ay, ay, ay, ay


ay, ay mi amor
ay mi morena,
de mi corazon

-12-12-12-12-12-12-12-12-..... rápidamente
--------------------------
--------------------------
--------------------------
--------------------------
--------------------------

Centres d'intérêt liés