Vous êtes sur la page 1sur 2

Welcome to Paradise

Intro
G|---------------------------------------------------------|
D|-------------------6---------------------------6---------|
A|-4s-6-6-6-6--6-6-4-----------4s-6-6-6-6--6-6-4-----------|
E|---------------------4-4-4-4---------------------4-4-4-4-|

[Verse 1]
G|--------------------------------------------------------------------------------------------|
D|----------------------------------------------4s3-------3-4-3-4-----------------------------|
A|-6-6-6-6-4-4-4--4-4-4-4-6--6-6--6-6-6-6---6-6-----4-4-4-------------------------------------|
E|----------------------------------------------------------------2--2-2-2-4--6-6-6-6-6-6-6-6-|

G|--------------------------------------------------------------------------------------------|
D|-----4s3--------3-4-3-4-----------------------4s3-------3-4-3-4-----------------------------|
A|-6-6-----4-4-4----------6--6-6--6-6-6-6---6-6-----4-4-4-------------------------------------|
E|----------------------------------------------------------------2--2-2-2-4--6-6-6-6-6-6-6-6-|

G|---------------------------------------------|
D|---------------------------------------------|
A|-----------1-1-1-1-1-1-1-1-1-1-1-1-1-1-1-1-1-|
E|-2-2-2-2-4-----------------------------------|

[Chorus]

G|----------------------------------------------------------------------------------------------------------|
D|-1-1-1s4---------------------------------------------1-1-1s4------------------------------------3---3-4-3-|
A|---------------------------------------2--2-2-2-2h42---------------------------1--1--1-1-1-1--1---4-------|
E|---------2--2-2-2-2-2-2-2--4--4--4-4-4-----------------------2--2--2-2-2-2-2-2----------------------------|

G|----------------------------------------------------------------------|
D|-1-1-1s4---------------------------------------------1--1-1--1-1-1----|
A|---------------------------------------2--2-2-2-2h42----------------1-|
E|---------2--2-2-2-2-2-2-2--4--4--4-4-4--------------------------------|

[Instrumental]

G|---------------------------------------------------------|
D|-------------------6---------------------------6---------|
A|-4s-6-6-6-6--6-6-4-----------4s-6-6-6-6--6-6-4-----------|
E|---------------------4-4-4-4---------------------4-4-4-4-|(x2)
[Verse 2]

G|--------------------------------------------------------------------------------------------|
D|----------------------------------------------4s3-------3-4-3-4-----------------------------|
A|-6-6-6-6-4-4-4--4-4-4-4-6--6-6--6-6-6-6---6-6-----4-4-4-------------------------------------|
E|----------------------------------------------------------------2--2-2-2-4--6-6-6-6-6-6-6-6-|

G|--------------------------------------------------------------------------------------------|
D|-----4s3--------3-4-3-4-----------------------4s3-------3-4-3-4-----------------------------|
A|-6-6-----4-4-4----------6--6-6--6-6-6-6---6-6-----4-4-4-------------------------------------|
E|----------------------------------------------------------------2--2-2-2-4--6-6-6-6-6-6-6-6-|

G|---------------------------------------------|
D|---------------------------------------------|
A|-----------1-1-1-1-1-1-1-1-1-1-1-1-1-1-1-1-1-|
E|-2-2-2-2-4-----------------------------------|

[Chorus]

[Instrumental]

G|---------------------------------------------------------|
D|-------------------6---------------------------6---------|
A|-4s-6-6-6-6--6-6-4-----------4s-6-6-6-6--6-6-4-----------|
E|---------------------4-4-4-4---------------------4-4-4-4-|(x2)

[Interlude]

G|------------------------------------|
D|-----6s8------8--------7--------6s8-|
A|-6-6-----h9-9---h9s8-8---h8s7-7-----| Play this 20 times
E|------------------------------------|