Vous êtes sur la page 1sur 6

-------------------------------------------------------------------------------

Talk - Coldplay
-------------------------------------------------------------------------------
Tabbed by:newcuts

Tuning:EADGBe (Standard)

[Intro]
=====

light dist. + echo

e|-------15-13------------------------------------------------------------------|
B|---11---------15-13---11/13--15-----------------------------------------------|
G|--------------------------------12--------------------------------------------|
D|------------------------------------------------------------------------------|x3
A|------------------------------------------------------------------------------|
E|------------------------------------------------------------------------------|

e|-------15-13------------------------------------------------------------------|
B|---11---------15-13---11/13--15-------15-------15-15-15-15/13-10--------------|
G|--------------------------------12-------12-----------------------10----------|
D|------------------------------------------------------------------------------|
A|------------------------------------------------------------------------------|
E|------------------------------------------------------------------------------|

[Verse 1]
=======
0:36
piano arranged for guitar
(starting of the verse then guitar joins)

****************
e|------------------------------------------------------------------------------|
B|--8----------3---6----------4------1-1----------------------------------------|
G|--8----------3---8----------3------3-2----------------------------------------|
D|--6----------5---7----------5------3-3----------------------------------------|piano
A|--6---------------------------------------------------------------------------|
E|------------------------------------------------------------------------------|
**************** play 3 times

guitar joins 0:50 (not sure of the time)


e|------------------------------------------------------------------------------|
B|--8-------------3-----6------8------------3-----6-----------------------------|
G|--8-------------3-----8------8------------3-----8-----------------------------|
D|--6-------------5-----7------6------------5-----7-----------------------------|piano
A|--6--------------------------8------------------------------------------------|
E|------------------------------------------------------------------------------|
|
|
e|------------------------------------------------------------------------------|
B|------------------------------------------------------------------------------|
G|--0--0--0-0--0--0-0---0---0--0--0--0--0---0-0---0---0-------------------------|
D|--1--1--1-1--1--0-0-----0----1--1--1--1---0-0-----0---------------------------|guitar
A|------------------------------------------------------------------------------|
E|------------------------------------------------------------------------------|

e|------------------------------------------------------------------------------|
B|--8-------------3-----6------4------------1-----1-----------------------------|
G|--8-------------3-----8------3------------3-----2-----------------------------|
D|--6-------------5-----7------5------------3-----3-----------------------------|piano
A|--6---------------------------------------------------------------------------|
E|------------------------------------------------------------------------------|
|
|
e|------------------------------------------------------------------------------|
B|------------------------------------------------------------------------------|
G|--0--0--0-0--0--0-0---0---0--0--0--0--0---0-0---0---0-------------------------|
D|--1--1--1-1--1--0-0-----0----1--1--1--1---3-3-----3---------------------------|guitar
A|------------------------------------------------------------------------------|
E|------------------------------------------------------------------------------|
e|------------------------------------------------------------------------------|
B|--4-------------1-1-----------------------------------------------------------|
G|--3-------------3-3-----------------------------------------------------------|
D|--5-------------3-3-----------------------------------------------------------|piano
A|------------------------------------------------------------------------------|
E|------------------------------------------------------------------------------|
|
|
e|------------------------------------------------------------------------------|
B|------------------------------------------------------------------------------|
G|--0--0--0-0--0--0-0---0---0---------------------------------------------------|
D|--1--1--1-1--1--3-3-----3-----------------------------------------------------|guitar
A|------------------------------------------------------------------------------|
E|------------------------------------------------------------------------------|

[Pre-Chorus]
==========
1:12

e|--3---------------------------------------------------------------------------|
B|--3---------------------------------------------------------------------------|
G|--3---------------------------------------------------------------------------|
D|--5---------------------------------------------------------------------------|piano
A|------------------------------------------------------------------------------|
E|------------------------------------------------------------------------------|
|
|
e|------------------------------------------------------------------------------|
B|------------------------------------------------------------------------------|
G|------------------------------------------------------------------------------|
D|------------------------------------------------------------------------------|guitar
A|------------------------------------------------------------------------------|
E|--3---------------------------------------------------------------------------|

e|-11-11-11-11--11-11-11-11--10-10-10-10----10-10-----15-13----------------------|
B|-11-11-11-11--11-11-11-11--11-11-11-11----11-11-11--------15-13---11/13-15-----|
G|---------------------------------------------------------------------------12--|
D|-------------------------------------------------------------------------------|guitar
A|-------------------------------------------------------------------------------|
E|-------------------------------------------------------------------------------|

e|-11-11-11-11--11-11-11-11--10-10-10-13-13-13-13------15-13---------------------|
B|-11-11-11-11--11-11-11-11--11-11-11-11-11-11-11-11--------15-13--11/13-15------|
G|--------------------------------------------------------------------------12---|
D|-------------------------------------------------------------------------------|guitar
A|-------------------------------------------------------------------------------|
E|-------------------------------------------------------------------------------|

e|-11-11-11-11--11-11-11-11--10-10-10-10----10-10-----15-13----------------------|
B|-11-11-11-11--11-11-11-11--11-11-11-11----11-11-11--------15-13---11/13-15-----|
G|---------------------------------------------------------------------------12--|
D|-------------------------------------------------------------------------------|guitar
A|-------------------------------------------------------------------------------|
E|-------------------------------------------------------------------------------|

e|-11-11-11-11--11-11-11-11--10-10-10-10----10-10---------------------------------|
B|-11-11-11-11--11-11-11-11--11-11-11-11----11-11---15----15-15-15--*15\13-10------|
G|-----------------------------------------------------12--------------------10---|
D|--------------------------------------------------------------------------------
|guitar
A|--------------------------------------------------------------------------------|
E|-----------------------------------------------------------------------------3-3|

* this part will change the second time (3:13)

[Verse 2]
=======

2:00 (not sure of the time)


e|-----------------------------------------------------------------------|*
B|--8-------------3-----6------8------------3-----6----------------------|*
G|--8-------------3-----8------8------------3-----8----------------------|*
D|--6-------------5-----7------6------------5-----7----------------------|*
A|--6--------------------------8-----------------------------------------|*
E|-----------------------------------------------------------------------|*
| *
| *
e|-----------------------------------------------------------------------|*
B|-----------------------------------------------------------------------|*
G|--0--0--0-0--0--0-0---0---0--0--0--0--0---0-0---0---0------------------|*
D|--1--1--1-1--1--0-0-----0----1--1--1--1---0-0-----0--------------------|*
A|-----------------------------------------------------------------------|*
E|-----------------------------------------------------------------------|*
*
*
e|-----------------------------------------------------------------------|*
B|--8-------------3-----6------4------------1-----1----------------------|*
G|--8-------------3-----8------3------------3-----2----------------------|*
D|--6-------------5-----7------5------------3-----3----------------------|*
A|--6--------------------------------------------------------------------|*
E|-----------------------------------------------------------------------|*
| *
| *
e|-----------------------------------------------------------------------|*
B|-----------------------------------------------------------------------|*
G|--0--0--0-0--0--0-0---0---0--0--0--0--0---0-0---0---0------------------|*
D|--1--1--1-1--1--0-0-----0----1--1--1--1---3-3-----3--------------------|*
A|-----------------------------------------------------------------------|*
E|-----------------------------------------------------------------------|*
*
*
e|-----------------------------------------------------------------------|*
B|--4-------------1-1----------------------------------------------------|*
G|--3-------------3-3----------------------------------------------------|*
D|--5-------------3-3----------------------------------------------------|*
A|-----------------------------------------------------------------------|*
E|-----------------------------------------------------------------------|***x2
|
e|-----------------------------------------------------------------------|
B|-----------------------------------------------------------------------|
G|--0--0--0-0--0--0-0---0---0--------------------------------------------|
D|--1--1--1-1--1--3-3-----3----------------------------------------------|guitar
A|-----------------------------------------------------------------------|
E|-----------------------------------------------------------------------|

[Pre-Chorus]
==========
2:36

e|--3---------------------------------------------------------------------------|
B|--3---------------------------------------------------------------------------|
G|--3---------------------------------------------------------------------------|
D|--5---------------------------------------------------------------------------|piano
A|------------------------------------------------------------------------------|
E|------------------------------------------------------------------------------|
|
|
e|------------------------------------------------------------------------------|
B|------------------------------------------------------------------------------|
G|------------------------------------------------------------------------------|
D|------------------------------------------------------------------------------|guitar
A|------------------------------------------------------------------------------|
E|--3---------------------------------------------------------------------------|

e|-11-11-11-11--11-11-11-11--10-10-10-10----10-10-----15-13----------------------|
B|-11-11-11-11--11-11-11-11--11-11-11-11----11-11-11--------15-13---11/13-15-----|
G|---------------------------------------------------------------------------12--|
D|-------------------------------------------------------------------------------|guitar
A|-------------------------------------------------------------------------------|
E|-------------------------------------------------------------------------------|
e|-11-11-11-11--11-11-11-11--10-10-10-13-13-13-13------15-13---------------------|
B|-11-11-11-11--11-11-11-11--11-11-11-11-11-11-11-11--------15-13--11/13-15------|
G|--------------------------------------------------------------------------12---|
D|-------------------------------------------------------------------------------|guitar
A|-------------------------------------------------------------------------------|
E|-------------------------------------------------------------------------------|

e|-11-11-11-11--11-11-11-11--10-10-10-10----10-10-----15-13----------------------|
B|-11-11-11-11--11-11-11-11--11-11-11-11----11-11-11--------15-13---11/13-15-----|
G|---------------------------------------------------------------------------12--|
D|-------------------------------------------------------------------------------|guitar
A|-------------------------------------------------------------------------------|
E|-------------------------------------------------------------------------------|

(3:13) |
e|-11-11-11-11--11-11-11-11--10-10-10-10----10-10---------------------------------------
|
B|-11-11-11-11--11-11-11-11--11-11-11-11----11-11---15----15-15-15--15\13-10------15----
|
G|-----------------------------------------------------12--------------------10------12-
|
D|--------------------------------------------------------------------------------------
|
A|--------------------------------------------------------------------------------------
|
E|--------------------------------------------------------------------------------------
|

--------------------------|
-15-15-15--15\13-10-------|
---------------------10---|
--------------------------|guitar
--------------------------|
--------------------------|

[Interlude]
=========
3:19

"3" is a whole note(US) or a semibreve(UK) (4 beat)

e|---------------------------------------------------------------------------|
B|---------------------------------------------------------------------------|
G|---------------------------------------------------------------------------|guitar
D|---------------------------------------------------------------------------|
A|--------*------*------*----------------------------------------------------|
E|-3------3------3------3----------------------------------------------------|
let ring.............................................
*dont pick let ring the first not you've played

[Bridge]
======
3:28
piano arranged for guitar

e|---------------------------------------------------------------------------|
B|---------------------------------------------3-----------------------------|
G|---5------0-------------2------5------0------------------------------------|
D|----------1------5--------------------1------0-----------------------------|piano
A|---3---------------------------3-------------------------------------------|
E|-----------------3------1--------------------3-----------------------------|

piano
e|--------------------------------------------------------------------------------------
------------------|
B|--------------------------------------------------------------------------------------
------------------|
G|-2------------------------------------------------------------------------------------
------------------|
D|--------------------------------------------------------------------------------------
------------------|
A|--------------------------------------------------------------------------------------
------------------|
E|-1------------------------------------------------------------------------------------
------------------|
| 3:43 guiatr
e|------||-11----11----11----11----11----11----11----11----10----10----10----10----10---
--------------------||
B|---12-||------------------------------------------------------------------------------
-11----10-11-10-----||
G|------||*---12----12----12----12----12----12----12----12----12----12----12----12----
12----12----------12-*||
D|------||*-----------------------------------------------------------------------------
-------------------*||
A|------||------------------------------------------------------------------------------
--------------------||
E|------||------------------------------------------------------------------------------
--------------------||

play twice

[Solo]
====
3:59

e|-----------------------------------------------------------------------------|
B|-----------------------------------------------------------------------------|
G|-----5hb-------5hb--------5-----5hb-------5hb--------5hb-------5-------5hb---|
D|-----------------------------------------------------------------------------|guitar
A|-----------------------------------------------------------------------------|
E|-6-6-----6-6-6------6-3-3--6--6-----6-6-6------6-6-6-----6-3-3---6---6-----6-|

e|-----------------------------------------------------------------------------|
B|-----------------------------------------------------------------------------|
G|-----5hb-------5hb-------5------5hb-------5hb--------5hb--------5----5/x-----|
D|-----------------------------------------------------------------------------|guitar
A|-----------------------------------------------------------------------------|
E|-6-6-----6-6-6-----6-3-3---6--6-----6-6-6------6-6-6------6-5-5---5----------|

[Chorus]
======
4:15

e|-11-11-11-11--11-11-11-11--10-10-10-10-10-10-10-----15-13----------------------|
B|-11-11-11-11--11-11-11-11--11-11-11-11-11-11-11-11--------15-13---11/13-15-----|
G|---------------------------------------------------------------------------12--|
D|-------------------------------------------------------------------------------|guitar
A|-------------------------------------------------------------------------------|
E|-------------------------------------------------------------------------------|

e|-11-11-11-11--11-11-11-11--10-10-10-13-13-13-13------15-13---------------------|
B|-11-11-11-11--11-11-11-11--11-11-11-11-11-11-11-11--------15-13--11/13-15------|
G|--------------------------------------------------------------------------12---|
D|-------------------------------------------------------------------------------|guitar
A|-------------------------------------------------------------------------------|
E|-------------------------------------------------------------------------------|

e|-11-11-11-11--11-11-11-11--10-10-10-10-10-10-10-----15-13----------------------|
B|-11-11-11-11--11-11-11-11--11-11-11-11-11-11-11-11--------15-13---11/13-15-----|
G|---------------------------------------------------------------------------12--|
D|-------------------------------------------------------------------------------|guitar
A|-------------------------------------------------------------------------------|
E|-------------------------------------------------------------------------------|
e|-11-11-11-11--11-11-11-11--10-10-10-10----10-10---------------------------------------
|
B|-11-11-11-11--11-11-11-11--11-11-11-11----11-11---15----15-15-15--15\13-10------15----
|
G|-----------------------------------------------------12--------------------10------12-
|
D|--------------------------------------------------------------------------------------
|
A|--------------------------------------------------------------------------------------
|
E|--------------------------------------------------------------------------------------
|

--------------------------|
-15-15-15--15\13-10-------|
---------------------10---|
--------------------------|guitar
--------------------------|
-------------------------3|

************************************

/ slide up
\ slide down
hb half bend (1/2)

************************************