Vous êtes sur la page 1sur 2

=====================================================================

| TABLATURAS Y ACORDES DE M�SICA EN ESPA�OL |


+------------------------ www.lacuerda.net -------------------------+
| ARTISTA: los Rodriguez |
| CANCION: MIL HORAS |
| AUTOR: Andres Calamaro |
| ALBUM: Grabaciones Encontradas Vol. I (ܿ�) |
+------------------------------------------------------TAB-rodr0282-+
| TRANS: brian david domingues |
| CORREO: coby_160@hotmail.com |
=====================================================================

ACORDES:> Gm Cm7 Dm7

bueno esto es lo q hace el saxo despues del estribillo:

e|---------------------------------------------
B|---------------------------------------------
G|---------------------------------------------
D|---------------------------------------------
A|-------------3-5-6-6-5-----3-3---------------
E|-3-5-6-6-5-3-----------5-6-----6--3-5-6-5-3--

e|---------------------------------------------------
B|---------------------------------------------------
G|---------------------------------------------------
D|---------------------------------------------------
A|-------------3-5-6-6-5------3-3--------------------
E|-3-5-6-6-5-3-----------5-6-----6--3-5-6-6-5--6-5-3-

La guitarra acompa�a en Gm; Cm7 y Dm7

despues repite lo mismo antes del final.


lo termina en: Gm, Dm7, Gm,
Gm, Dm7, D#, Gm

y al ultimo hace un peque�o punteo q es asi:

e|----------------
B|----------------
G|--------5-7-7---
D|----5-7---------
A|----------------
E|----------------

--------------------------------------------------------

Brian---- La Ruidosa----
en honor a julio

========================= www.lacuerda.net ==========================


Este fichero es trabajo propio de su transcriptor y representa su
interpretaci�n personal de la canci�n. El material contenido en
esta p�gina es para exclusivo uso privado, por lo que se prohibe su
reproducci�n o retransmisi�n, as� como su uso para fines comerciales.
========================= www.lacuerda.net ==========================
1188218561