Vous êtes sur la page 1sur 2

STRIKES TWICE INTRO TAB by Larry Carlton @ Ultimate-Guitar.

Com

') no-repeat;width:20px;height:52px;background-size:20px 20px;top:16px;right:-4px}._10Yld{margin-top:12px}._400J5 button{width:260px;margin:0


auto}._21nzB{padding:20px 20px 4px}._1NzdL{margin:20px auto;font-size:24px;line-height:24px}._1NzdL,.bOLSF{text-align:center;text-
PRO
transform:uppercase;font-weight:700}.bOLSF{font-size:36px;line-height:36px;margin:30px auto 20px}.lFMtS{display:-webkit-box;display:-ms-
flexbox;display:flex;width:460px;margin:auto;background-color:#f5f5f5;border-radius:4px;padding:14px 30px 16px}.lFMtS>*{width:50%}.lFMtS
span{display:inline-block;position:relative;padding-left:24px;font-size:13px;margin-top:2px}.lFMtS
PLAY THIS TAB span:after{content:"";background:url(https://tabs.ultimate-
guitar.com/static/public/ug_react/mark.3a6f88b2.svg) no-repeat;position:absolute;left:0;top:2px;width:16px;height:12px;background-
size:contain}.FMnjP{text-align:center}
Vocal S M

ULTIMATE
GUITAR Tabs Articles Forums Wiki + Publish tab Pro Enter artist name or song Tabs
title SEARCH
COMGuitar
Rhythm S M

Welcome home, Stranger


SoloRegister
Please Guitar or SignS in M

FACEBOOK
Drums S M

GOOGLE Strikes Twice intro tab by Larry Carlton EDIT ADD TO PLAYLIST FAVORITE

View all instruments 4 views, added to favorites 0 times


Difficulty: advanced
MORE VERSIONS Tuning: E A D G B E

Author blackxfuture 7,155. Last edit by blackxfuture 7,155 on Jun 10, 2018.
Ver 1

This is only the main guitar riff, sorry. It is too good not to tab out though.

e|-----------------------------------------8------8----------------|
B|----------------------------8-9-10-11-12----11-----9-------------|
G|--------------------8-10-11--------------------------------------|
D|------------8-10-11----------------------------------6-8-9-10-11-|
A|-11--8-9-11------------------------------------------------------|
E|-----------------------------------------------------------------|

e|-11-8-9-11-8------8----------------------------------------------|
B|-------------9-11---9-------9------------------------------------|
G|----------------------10-11---10--8-10-7-----7-------------------|
D|------------------------------------------9-----9--10-9-8-7------|
A|-----------------------------------------------------------------|
E|-----------------------------------------------------------------|

e|-----------------------------------------8-------8----------------|
B|----------------------------8-9-10-11-12---9-11-----9-------------|
G|--------------------8-10-11---------------------------------------|
D|------------8-10-11-----------------------------------6-8-9-10-11-| Notice the extra note
on the second time
A|-11--8-9-11-------------------------------------------------------|
E|------------------------------------------------------------------|

e|-11-8-9-11-8------8-----------------------------------------------|
B|-------------9-11---9-------9-------------------------------------|
G|----------------------10-11---10--8-10-7-----7--------------------|
D|------------------------------------------9-----9-----------------| Don't play chromatic
run on second time.
A|------------------------------------------------------------------|
E|------------------------------------------------------------------|

By helping UG you make the world better... and earn IQ

SUGGEST CORRECTION

Please rate this tab

3 more votes to show rating

https://tabs.ultimate-guitar.com/tab/larry_carlton/strikes_twice_tabs_2402241[2018/06/24 18:07:19]
STRIKES TWICE INTRO TAB by Larry Carlton @ Ultimate-Guitar.Com

HOW TO PLAY STRIKES TWICE ×

FONT −1 +1 AUTOSCROLL PRINT REPORT BAD TAB

NO COMMENTS

SEND COMMENT

All artists # A B C D E F G H I J K L M N O P Q R S T U V W X Y Z

About × Site rules × TOS × Privacy × Advertise × Support © 2018 Ultimate-Guitar.com. All rights reserved

https://tabs.ultimate-guitar.com/tab/larry_carlton/strikes_twice_tabs_2402241[2018/06/24 18:07:19]

Évaluer