Vous êtes sur la page 1sur 2

Blame - Collective Soul (Capo 1)

Intro Strums
E D5 Asus2/Db E
e------0----------------0-----------0----------------0------------------
B------0----------------0-----------0----------------0------------------
G------1----------------7-----------6----------------1------------------
D------2----------------7-----------7----------------2------------------
A------2----------------0-----------0----------------2------------------
E------0----------------X-----------X----------------0------------------

Intro Solo
E D5 D Asus2/Db E G G
e---4-4------------4-4-7v-----4-4----------------7------------7----X-X--
B-7-----7---5v---7----------7-----7---5v---5-0-0---0-0--5-0-0------X-X--
G------------------------------------------------------------------0-0--
D------------------------------------------------------------------0-0--
A------------------------------------------------------------------2-2--
E------------------------------------------------------------------3-3--

E D5 D Asus2/Db E G G
e---4-4------------4-4-7v---7--7-s9--7-----7--9--7--9-s12-12-12v---X-X--
B-7-----7---5v---7-------------------------------------------------X-X--
G------------------------------------------------------------------0-0--
D------------------------------------------------------------------0-0--
A------------------------------------------------------------------2-2--
E------------------------------------------------------------------3-3--

Chords used in verses


E D5 D Asus2/Db G Asus2
e------0--------0--------0--------0--------X--------0------
B------0--------0--------7--------0--------X--------0------
G------1--------7--------7--------6--------0--------2------
D------2--------7--------7--------7--------0--------2------
A------2--------0--------0--------0--------2--------0------
E------0--------X--------X--------X--------3--------X------

Mini solo
E D5 D Asus2/Db E G G
e------------------------------------------------------------------X-X--
B-------10p-9------------10p-9------------10p-9--------------------X-X--
G-------------9v---------------9v---------------9v---9-------------0-0--
D-11p-9------------11p-9------------11p-9---------------9--11--9v--0-0--
A------------------------------------------------------------------2-2--
E------------------------------------------------------------------3-3--

E D5 D Asus2/Db E
You pushed me down for all the world to see
E D5 D Asus2/Db E
I guess that's your price for my loyalty
Asus2 E
So while you're tastin' sin and swallowing the pain
Asus2 E
Don't look at me to take your blame

CHORUS
E D5 D
When you're willing to render to the guilt you concede
Asus2/Db E G
When truth is your reason then lay the blame on me
E D5 D
When you unveil a conscience and with peace you agree
Asus2/Db E G
When the love is your constant then lay the blame on me

REPEAT INTRO SOLO

E D5 D Asus2/Db E
You lay me out in hopes that I'd wilt away
E D5 d Asus2/Db E
But strength rained down and love provided shade
Asus2 E
So while the pageant of lies still glow from your tongue
Asus2 E
Don't blame me for your Kingdom Come

CHORUS (REPEAT TWICE)

MINI SOLO (REPEAT TWICE)

FINALE (REPEAT TWICE)


E D5 D Asus2/Db E G
Question your answers the truth has no anger
E D5 D Asus2/Db E G
Gather up your words redemption's now offered