Vous êtes sur la page 1sur 2

by MercyMe

+ --------------------------------------------------------------------- +
| Ultimate Guitar Tabs Archive - your #1 source for tabs! |
| http://www.ultimate-guitar.com/ |
| |
| Over 800,000 guitar, guitar pro and bass tabs! Also lessons, news, |
| columns and guitar forums! |
+ --------------------------------------------------------------------- +

chords used:
E Emaj7 B Asus2 C#
e-0-|-0-|-2-|-0-|-4-|
B-0-|-0-|-4-|-0-|-6-|
G-1-|-1-|-4-|-2-|-6-|
D-2-|-1-|-4-|-2-|-6-|
A-2-|-2-|-2-|-0-|-4-|
E-0-|-0-|-2-|-0-|-4-|

intro: (piano, but here's the guitar version anyway)

guitar 1 guitar 2
e-11-12-7~~-----7--7------------5-|----------------------------------->
B----------4-5---45--4-5-----4-5--|------7---------7----------------7->
G-----------------------6~~-------|----9--------9--------9--------9--->
D---------------------------------|-------------------7-9------7-9---->
A---------------------------------|-7-9------7-9---------------------->
E---------------------------------|----------------------------------->

verse 1: repeat intro riff a few times

I can only imagine what it will be like when I walk by Your side.
I can only imagine what my eyes will see when Your face is before me.
I can only imagine. yeah...

chorus: piano

Surrounded by Your glory, what will my heart feel?


Will I dance for you Jesus, or in awe of You be still?
Will I stand in your presence, or to my knees will I fall?
Will I sing "Hallelujah"? Will I be able to speak at all?
I can only imagine
I can only imagine

repeat first half of intro

verse 2:
E
I can only imagine
Emaj7
when that day comes
Asus2
when I find myself standing in the Son.
E
I can only imagine
Emaj7
when all I will do
Asus2
is forever, forever worship You.
E Emaj7
I can only imagine
Asus2
I can only imagine

chorus 2:
Asus2 B
Surrounded by Your glory, what will my heart feel?
E
Will I dance for you Jesus, or in awe of You be still?
Asus2 B
Will I stand in your presence, or to my knees will I fall?
E
Will I sing "Hallelujah"? Will I be able to speak at all?
Asus2 B
I can only imagine yeah,
E
I can only imagine

chorus 3:
Asus2 B
Surrounded by Your glory, what will my heart feel?
E
Will I dance for you Jesus, or in awe of You be still?
Asus2 B
Will I stand in your presence, or to my knees will I fall?
E
Will I sing "Hallelujah"? Will I be able to speak at all?
Asus2 B
I can only imagine yeah,
E
I can only imagine
Asus2 B
I can only imagine yeah,
E
I can only imagine
Asus2 B
I can only imagine
C#
I can only imagine

outro: piano

I can only imagine


when all I will do
is forever, forever worship You.
I can only imagine
I can only imagine