Vous êtes sur la page 1sur 10

Since I told You it's over

written by Kelly Jones


performed by the "Stereophonics"
from the album "You have to go there to come back"
transcribed by andrew_w_munro@hotmail.com

Capo at fret 1

Verse1
C E/B
I'm black and blue from the wind and the rain

Am C/G
I said I'm sorry for, the lies and the pain

Dm F
I never ever meant to make you cry

G
If I could take it back, you know I would

G7
I'd rather burn up and die

Chorus
G7 C E/B
So take a look at me now, since I told you it's over

Am C/G
You gotta hole in your heart; I found a four leafed clover

Dm F
You can't tell me this now, this far down the line

G G7
That you're never, ever gonna get over me.

Verse2

You send a cross, It's a cross I bare


You're drinking hard, you're up late without a hope or a care
You're making do to please who? I hope it makes you smile
You're not around for long, you gotta savour whats gone
And move your life right along

Chorus

Middle8

Dm E7
I'm lost and cold and getting old

E7/G# Am C/G F
My hand is full of lies I told

Dm
I been done, been around

E7
but I've fallen on my own two feet

E7/G# Am C/G F G7
I felt I left you out to drown, I never meant for that...

Verse3

I look around, sometimes I stare


I think back now and then, I hope you know I care
I walked away that day, time to treat you right
But you were on your track, It was me turning back,
I left you freezing outside,

Chorus

Verse ( Vocal Instrumental )

Chorus to fade.

Tabs too difficult? Try these easy step-by-step video lessons and learn fast!
A nice song and I think I got it right
Enjoy!!!

Capo 1st fret

Chords:
C: x32010
E7: 020100
Am: x02210
G* : 320000
Dm: xx0231
F: x33211
G: 320033

Verse:1

C E7
I'm black and blue from the wind and the rain
Am G*
I said I'm sorry for all the lies and the pain
Dm F
I never ever meant to make you cry
G
If I could take it back you know i would I'd rather burn up and die
Chorus
C
So take a look at me now
E7
Since I told you it's over
Am
You gotta hole in your heart
G*
I found a four leaf clover
Dm
You can't tell me this now
F
this far down the line
G
That you're never ever gonna get over me

Verse 2 (Same as verse 1)

you send a cross, it's a cross I bare


Your drinking hard, your up late without a hope or a care
your making do, to please who hope it makes you smile
your not round for long
you gotta savour what's gone
and make your life right along

Chorus

Bridge

Dm
I'm lost and cold
E7
I'm getting old
Am G F
my head is full of lies I've told

Dm
I've been down

I've been around


E7
But I've fallen on my own two feet
Am
And I've left you out to drown
G F
I never meant for that

Verse 3 ( Same as the two other verses )

I look around sometimes i stare


I think back now and then i hope you know i care
I walked away that day time to treat you right
but you were here on track
it was me turning back
I left you freezing outside

Chorus

Hope you like it...


Sam Matte thibault
This is the amazing new song by Stereophonics on their amazing new album(it
rocks!!)...EnJoy!;)
any probs or questions you know where to e-mail me!
----------------------------------------------------------------------------
STEREOPHONICS-Dakota
ALBUM:Language.Sex.Violence.Other
Tabbed by Tom Woo(strato32) Help from:Dewi Roberts

Standard Tuning

Intro (Just plays one note.The effect used plays another 15 notes.)
|-----------------------------------------------------------------|
|-----------------------------------------------------------------|
|-----------------------------------------------------------------|
|-9---------------6---------------2---------------9---------------|
|-----------------------------------------------------------------|
|-----------------------------------------------------------------|

This is then played at (0:12)

|----12--------11-------7---------7---------7------------------|
|-12----12--12------5--------5---------5-----------------------|
|--------------------------------------------------------------|
|--------------------------------------------------------------|
|--------------------------------------------------------------|
|--------------------------------------------------------------|
(Th first part of verse 1 is also played behind this)

Verse 1
|-7-4-7-4-7-4-7-4-7-4-7-4-7-4-7-4-9--9--9--9--9--9--9--9--9-----------------7-
4-7-4-7-4-7-4-7-4-7-4-7-4-7-4--|
|-----------------------------------------------------------------------------
-------------------------------|
|-----------------------------------------------------------------------------
-------------------------------|
|-----------------------------------------------------------------------------
-------------------------------|
|-----------------------------------------------------------------------------
-------------------------------|
|-----------------------------------------------------------------------------
-------------------------------|

|-7-4-7-4-7-4-7-4-7-4-7-4-7-4-7-4-9--9--9--9--9--9--9--9--9-0-0-0-0-0-0-0-0-0-
0-0-0-0-0-0-0-0-0-0-0-0-0-0-0--|
|-----------------------------------------------------------------------------
-----------------------------x-|
|-----------------------------------------------------------------------------
-----------------------------x-|
|-----------------------------------------------------------------------------
-----------------------------x-|
|-----------------------------------------------------------------------------
-----------------------------x-|
|-----------------------------------------------------------------------------
-------------------------------|

Chorus
|-----------------------------------------------------------------|
|-----------------------------------------------------------------|
|--6-6-6-6-6-6-6-6--------1-1-1-1-1-1-1-1-------------------------|
|--7-7-7-7-7-7-7-7--------2-2-2-2-2-2-2-2-------------------------|
|--7-7-7-7-7-7-7-7--------2-2-2-2-2-2-2-2-------------------------|
|--5-5-5-5-5-5-5-5--------0-0-0-0-0-0-0-0-------------------------|
x4 x4
This is played over the chords
|-12-11------12-11-----4-(5)-(4)-(5)-(4)-(5)-(4)-(5)-(4)-(5)-(4)-5-4-(5)-(4)-
(5)-(4)-(5)-(4)-(5)-(4)-(5)-(4)-(5)-|
|-------12-9-------12-
9-----------------------------------------------------------------------------
-------------|
|-----------------------------------------------------------------------------
-----------------------------------|
|-----------------------------------------------------------------------------
-----------------------------------|
|-----------------------------------------------------------------------------
-----------------------------------|
|-----------------------------------------------------------------------------
-----------------------------------|

(Bend the 4\'s to sound as 5\'s and then bend back to sound 4).Play the chorus
2 times.
The second time, play this;
|-----------------------------------------------------------------|
|-----------------------------------------------------------------|
|--6-6-6-6-6-6-6-6--------1-1-1-1-1-1-1-1-------------------------|
|--7-7-7-7-7-7-7-7--------2-2-2-2-2-2-2-2-------------------------|
|--7-7-7-7-7-7-7-7--------2-2-2-2-2-2-2-2-------------------------|
|--5-5-5-5-5-5-5-5--------0-0-0-0-0-0-0-0-------------------------|
x4 x4
This is played over the chords
|-12-11------12-11-----4-(5)-(4)-(5)-(4)-(5)-(4)-(5)-(4)-(5)-(4)-5-4-(5)-(4)-
(5)-(4)-(5)-(4)-(5)-(4)-------------|
|-------12-9-------12-
9-----------------------------------------------------------------------------
-------------|
|-----------------------------------------------------------------------------
--------------------------slide----|
|-----------------------------------------------------------------------------
--------------------------plec up--|
|-----------------------------------------------------------------------------
-----------------------------------|
|-----------------------------------------------------------------------------
-----------------------------------|

Verse 2
|-7-4-7-4-7-4-7-4-7-4-7-4-7-4-7-4-9--9--9--9--9--9--9--9--9-----------------7-
4-7-4-7-4-7-4-7-4-7-4-7-4-7-4--|
|-----------------------------------------------------------------------------
-------------------------------|
|-----------------------------------------------------------------------------
-------------------------------|
|-----------------------------------------------------------------------------
-------------------------------|
|-----------------------------------------------------------------------------
-------------------------------|
|-----------------------------------------------------------------------------
-------------------------------|

|-7-4-7-4-7-4-7-4-7-4-7-4-7-4-7-4-9--9--9--9--9--9--9--9--9-0-0-0-0-0-0-0-0-0-
0-0-0-0-0-0-0-0-0-0-0-0-0-0-0--|
|-----------------------------------------------------------------------------
-----------------------------x-|
|-----------------------------------------------------------------------------
-----------------------------x-|
|-----------------------------------------------------------------------------
-----------------------------x-|
|-----------------------------------------------------------------------------
-----------------------------x-|
|-----------------------------------------------------------------------------
-------------------------------|

Over this repeat this section two times:


|----12--------11-------7---------7---------7------------------|
|-12------12----------5--------5---------5---------------------|
|--------------------------------------------------------------|
|--------------------------------------------------------------|
|--------------------------------------------------------------|
|--------------------------------------------------------------|

Chorus 2
|-----------------------------------------------------------------|
|-----------------------------------------------------------------|
|--6-6-6-6-6-6-6-6--------1-1-1-1-1-1-1-1-------------------------|
|--7-7-7-7-7-7-7-7--------2-2-2-2-2-2-2-2-------------------------|
|--7-7-7-7-7-7-7-7--------2-2-2-2-2-2-2-2-------------------------|
|--5-5-5-5-5-5-5-5--------0-0-0-0-0-0-0-0-------------------------|
x4 x4
This is played over the chords
|-12-11------12-11-----4-(5)-(4)-(5)-(4)-(5)-(4)-(5)-(4)-(5)-(4)-5-4-(5)-(4)-
(5)-(4)-(5)-(4)-(5)-(4)-(5)-(4)-(5)-|
|-------12-9-------12-
9-----------------------------------------------------------------------------
-------------|
|-----------------------------------------------------------------------------
-----------------------------------|
|-----------------------------------------------------------------------------
-----------------------------------|
|-----------------------------------------------------------------------------
-----------------------------------|
|-----------------------------------------------------------------------------
-----------------------------------|

|-----------------------------------------------------------------|
|-----------------------------------------------------------------|
|--6-6-6-6-6-6-6-6--------1-1-1-1-1-1-1-1-------------------------|
|--7-7-7-7-7-7-7-7--------2-2-2-2-2-2-2-2-------------------------|
|--7-7-7-7-7-7-7-7--------2-2-2-2-2-2-2-2-------------------------|
|--5-5-5-5-5-5-5-5--------0-0-0-0-0-0-0-0-------------------------|
x4 x4
This is played over the chords
|-12-11------12-11-----4-(5)-(4)-(5)-(4)-(5)-(4)-(5)-(4)-(5)-(4)-5-4-(5)-(4)-
(5)-(4)-(5)-(4)-(5)-(4)-------------|
|-------12-9-------12-
9-----------------------------------------------------------------------------
-------------|
|-----------------------------------------------------------------------------
--------------------------slide----|
|-----------------------------------------------------------------------------
--------------------------plec up--|
|-----------------------------------------------------------------------------
-----------------------------------|
|-----------------------------------------------------------------------------
-----------------------------------|

Bridge
|-----------------------------------------------------------------------------
--------------------|
|-----------------------------------------------------------------------------
--------------------|
|-1-1-1-1-1-1-1-1-1-1-1-
1-------------------------------------------------------------------------|
|-2-2-2-2-2-2-2-2-2-2-2-2-6-6-6-6-6-6-6-6-6-6-6-6-7-7-7-7-7-7-7-7-7-7-7-7-7-7-
7-7-7-7-7-7-7-7-7-7-|
|-2-2-2-2-2-2-2-2-2-2-2-2-6-6-6-6-6-6-6-6-6-6-6-6-7-7-7-7-7-7-7-7-7-7-7-7-7-7-
7-7-7-7-7-7-7-7-7-7-|
|-0-0-0-0-0-0-0-0-0-0-0-0-4-4-4-4-4-4-4-4-4-4-4-4-5-5-5-5-5-5-5-5-5-5-5-5-5-5-
5-5-5-5-5-5-5-5-5-5-|

Also this is played over the A chord 4 times.

|----------------------|
|------------5----7----|
|--4----6--------------|
|----------------------|
|----------------------|
|----------------------|
This whole Bridge is played 2 times.

Verse 3
|-7-4-7-4-7-4-7-4-7-4-7-4-7-4-7-4-9--9--9--9--9--9--9--9--9-----------------7-
4-7-4-7-4-7-4-7-4-7-4-7-4-7-4--|
|-----------------------------------------------------------------------------
-------------------------------|
|-----------------------------------------------------------------------------
-------------------------------|
|-----------------------------------------------------------------------------
-------------------------------|
|-----------------------------------------------------------------------------
-------------------------------|
|-----------------------------------------------------------------------------
-------------------------------|

|-7-4-7-4-7-4-7-4-7-4-7-4-7-4-7-4-9--9--9--9--9--9--9--9--9-0-0-0-0-0-0-0-0-0-
0-0-0-0-0-0-0-0-0-0-0-0-0-0-0--|
|-----------------------------------------------------------------------------
-----------------------------x-|
|-----------------------------------------------------------------------------
-----------------------------x-|
|-----------------------------------------------------------------------------
-----------------------------x-|
|-----------------------------------------------------------------------------
-----------------------------x-|
|-----------------------------------------------------------------------------
-------------------------------|

Over the second time this is played again;

|----12--------11-------7---------7---------7------------------|
|-12----12--12----12--5--------5---------5---------------------|
|--------------------------------------------------------------|
|--------------------------------------------------------------|
|--------------------------------------------------------------|
|--------------------------------------------------------------|

Then there is another Chorus.


Chorus 3
|-----------------------------------------------------------------|
|-----------------------------------------------------------------|
|--6-6-6-6-6-6-6-6--------1-1-1-1-1-1-1-1-------------------------|
|--7-7-7-7-7-7-7-7--------2-2-2-2-2-2-2-2-------------------------|
|--7-7-7-7-7-7-7-7--------2-2-2-2-2-2-2-2-------------------------|
|--5-5-5-5-5-5-5-5--------0-0-0-0-0-0-0-0-------------------------|
x4 x4
This is played over the chords
|-12-11------12-11-----4-(5)-(4)-(5)-(4)-(5)-(4)-(5)-(4)-(5)-(4)-5-4-(5)-(4)-
(5)-(4)-(5)-(4)-(5)-(4)-(5)-(4)-(5)-|
|-------12-9-------12-
9-----------------------------------------------------------------------------
-------------|
|-----------------------------------------------------------------------------
-----------------------------------|
|-----------------------------------------------------------------------------
-----------------------------------|
|-----------------------------------------------------------------------------
-----------------------------------|
|-----------------------------------------------------------------------------
-----------------------------------|

|-----------------------------------------------------------------|
|-----------------------------------------------------------------|
|--6-6-6-6-6-6-6-6--------1-1-1-1-1-1-1-1-------------------------|
|--7-7-7-7-7-7-7-7--------2-2-2-2-2-2-2-2-------------------------|
|--7-7-7-7-7-7-7-7--------2-2-2-2-2-2-2-2-------------------------|
|--5-5-5-5-5-5-5-5--------0-0-0-0-0-0-0-0-------------------------|
x4 x4
This is played over the chords
|-12-11------12-11-----4-(5)-(4)-(5)-(4)-(5)-(4)-(5)-(4)-(5)-(4)-5-4-(5)-(4)-
(5)-(4)-(5)-(4)-(5)-(4)-------------|
|-------12-9-------12-
9-----------------------------------------------------------------------------
-------------|
|-----------------------------------------------------------------------------
--------------------------slide----|
|-----------------------------------------------------------------------------
--------------------------plec up--|
|-----------------------------------------------------------------------------
-----------------------------------|
|-----------------------------------------------------------------------------
-----------------------------------|

Bridge 2
|-----------------------------------------------------------------------------
--------------------|
|-----------------------------------------------------------------------------
--------------------|
|-1-1-1-1-1-1-1-1-1-1-1-
1-------------------------------------------------------------------------|
|-2-2-2-2-2-2-2-2-2-2-2-2-6-6-6-6-6-6-6-6-6-6-6-6-7-7-7-7-7-7-7-7-7-7-7-7-7-7-
7-7-7-7-7-7-7-7-7-7-|
|-2-2-2-2-2-2-2-2-2-2-2-2-6-6-6-6-6-6-6-6-6-6-6-6-7-7-7-7-7-7-7-7-7-7-7-7-7-7-
7-7-7-7-7-7-7-7-7-7-|
|-0-0-0-0-0-0-0-0-0-0-0-0-4-4-4-4-4-4-4-4-4-4-4-4-5-5-5-5-5-5-5-5-5-5-5-5-5-5-
5-5-5-5-5-5-5-5-5-5-|

Also this is played over the A chord 4 times.

|----------------------|
|------------5----7----|
|--4----6--------------|
|----------------------|
|----------------------|
|----------------------|

This whole Bridge is played 4 times.

Outro
(Effect used at beginning)
|----------------------------------------------------|
|----------------------------------------------------|
|----------------------------------------------------|
|----------------------------------------------------|
|--9---------------13-----------14-------------------|
|----------------------------------------------------|

Play this two times then end on

|--------------------|
|--------------------|
|--------------------|
|----9---------------|
|--------------------|
|--------------------|

LYRICS (Order)

INTRO

VERSE 1
Thinking back, thinking of you,
Summer time think it was June,
Yeah I think it was June.
Laying back head on the grass,
Chewing gum, having some laughs,
Yeah having some laughs

CHORUS
You made me feel like the one,
You made me feel like the one,
The one
X2

VERSE 2
Drinking back drinking for two,
Drinking with you,
When drinking was new.
Sleeping in the back of my car,
We never went far,
We wouldn\'t need to go far

CHORUS 2
You made me feel like the one,
You made me feel like the one,
The one

You made me feel like the one,


You made me feel like the one,
The one

BRIDGE 1
I don\'t know where we are going now,
I don\'t know where we are going now

VERSE 3
Wake up, cold coffee and juice,
Remembering you, what happened to you.
I wonder if we\'ll meet again,
And talk about life since then,
And talk about why did it end

CHORUS 3
You made me feel like the one,
You made me feel like the one,
The one

You made me feel like the one,


You made me feel like the one,
The one

BRIDGE 2
I don\'t know where we are going now,
I don\'t know where we are going now

So take a look at me now,


So take a look at me now,
So take a look at me now,
So take a look at me now,
So take a look at me now,
So take a look at me now,
So take a look at me now,
So take a look at me now,
So take a look at me now,

OUTRO
So take a look at me now,
So take a look at me now,
So take a look at me now,
So take a look at me now,
So take a look at me now,
So take a look at me now,
So take a look at me now,
So take a look at me now,
So take a look at me now,