Vous êtes sur la page 1sur 2

The Cranberries - Zombie

Chords:
Em: 022000
C: x32010
G: 320033
D/F#: 2x0232

Verse:

e -7--h8--p7---5--h7-------3--h5---|p3---2--h3--p2-------------------|---|
B ---------------------------------|-----------------3-------3-------|-0-|
G ---------------------------------|---------------------------------|---|
D ---------------------------------|---------------------------------|---|
A ---------------------------------|---------------------------------|---|
E ---------------------------------|---------------------------------|---|

Em C G D/F#
Another head hangs lowly child is slowly taken
Em C G D/F#
And the violence caused such silence who are we mistaken
Em C
But you see it's not me, it's not my family,
G D/F#
In your head, in your head, they are fighting
Em C G D/F#
With their tanks and their bombs in your head, in your head, the are crying.

Chorus:

Em C G D/F#
In your head, in your head, zombie, zombie, zombie
Em C G D/F#
What's in your head, in your head, zombie, zombie, zombie

Verse:

e -7--h8--p7---5--h7-------3--h5---|p3---2--h3--p2-------------------|---|
B ---------------------------------|-----------------3-------3-------|-0-|
G ---------------------------------|---------------------------------|---|
D ---------------------------------|---------------------------------|---|
A ---------------------------------|---------------------------------|---|
E ---------------------------------|---------------------------------|---|

Em C G D/F#
Anothers mother's breaking, heart is taking over.
Em C G D/F#
When the violence caused silence, we must be mistaken.
Em C
It's the same old theme since 1916,
G D/F#
in your head, in your head, they're still fighting
Em C
With their tanks and their bombs en' their guns,
G D/F#
In your head, in your head, they're dying.

Chorus:
Em C G D/F#
In your head, in your head, zombie, zombie, zombie
Em C G D/F#
What's in your head, in your head, zombie, zombie, zombie
Em C G D/F# (repeat to fade..)

Guitar Solo:
------------

e -7/8----5/7--------------|-7/8----5/7---7---7---7--|-7/8-----5/7---7---7---7--|
B -------------------------|-------------------------|--------------------------|
G -------------------------|-------------------------|--------------------------|
D -------------------------|-------------------------|--------------------------|
A -------------------------|-------------------------|--------------------------|
E -------------------------|-------------------------|--------------------------|

e -7/8-----5/7--7-7-7-7-7-7|-7/8-----5/7--7---7---7-7|-7/8-----5/7--7---7---7-7|
B --------------7-7-7-7-7-7|-7/8-----5/7--7---7---7-7|-7/8-----5/7--7---7---7-7|
G -------------------------|-------------------------|-------------------------|
D -------------------------|-------------------------|-------------------------|
A -------------------------|-------------------------|-------------------------|
E -------------------------|-------------------------|-------------------------|

e -7/8-----5/7-------------|-7\5-----5------7-----10-|-10/12--12\10-10---10--10|
B -7/8-----5/7-------------|-7\5-----5------7-----10-|-10/12--12\10-10---10--10|
G -------------------------|-------------------------|-------------------------|
D -------------------------|-------------------------|-------------------------|
A -------------------------|-------------------------|-------------------------|
E -------------------------|-------------------------|-------------------------|

e -10/12--12\10--10---10-10|-10\7----7---------------|-7\5----5/7----7------7-7|
B -10/12--12\10--10---10-10|-10\7----7---------------|-7\5----5/7----7------7-7|
G -------------------------|-------------------------|-------------------------|
D -------------------------|-------------------------|-------------------------|
A -------------------------|-------------------------|-------------------------|
E -------------------------|-------------------------|-------------------------|

e -7/8-----5/7----7-----7-7|-7/8-----5/7----7-----7-7|-7/8----5/7--------------|
B -7/8-----5/7----7-----7-7|-7/8-----5/7----7-----7-7|-7/8----5/7--------------|
G -------------------------|-------------------------|-------------------------|
D -------------------------|-------------------------|-------------------------|
A -------------------------|-------------------------|-------------------------|
E -------------------------|-------------------------|-------------------------|

e -7\5------5------------5-|-7-----------------------|
B -7\5------5------------5-|-7-----------------------|
G -------------------------|-9-----------------------|
D -------------------------|-9-----------------------|
A -------------------------|-7-----------------------|
E -------------------------|-0-----------------------|