Vous êtes sur la page 1sur 2

Buscando un señal

1--6-7----------------6-7--------------------------
2------4-7-----4---2------4-7-5-4------------------
3-----------4---------------------6-4-6------------
4----------------4---------------------------------
5--------------------------------------------------
6--------------------------------------------------

SOL#m MI SI
Buscando una señal en emdio de la nada
Am FA# SOL#m
Agote mis recursos u no funciono
MI SI
Sin saber que hacer, siniendo asi
FA#
Que mi mundo termino

SOL#m
Tanto dolor sentía mi alma
Sin saber que hacer me inundaba el temor
Y se escucho una voz que mi nombre llamaba
Devolviéndome la calma

MI FA#
Y me dice que todo estará bien
MI FA#
Y me infunde aliento y fe
SOL#m MI SI FA#
Y aprendi a dormir en la tempestad
SOL#m MI SI . FA#
Tu amor me enseño a decansaaa..r
SOL#m MI SI . FA#
Y me convenci que no hay nadie mas
SOLm MI SI
Que me pueda brindar esa paz
FA# SOL#m
Que solo tu das

1--6-7----------------6-7--------------------------
2------4-7-----4---2------4-7-5-4------------------
3-----------4---------------------6-4-6------------
4----------------4---------------------------------
5--------------------------------------------------
6--------------------------------------------------

Cuando el viento me arrastro y todo se llevo


Me sentí tan vacia tan falta de amor
Mas escuche una voz que mi nombre llamaba
Devolviéndome la calma

Y me diceque todo estará bien


Y me infunde aliento y fe
Y aprendi a dormir en la tempestad
Tu amor me enseño a descansar
Y me convenci que no hay nadie mas
Que me pueda brindar esa paz
Que solo tu das

Llename de tu, yo quiero mas, mas de tu paz

Y aprendi a dormir en la tempestad


Tu amor me enseño a descansar
Y me convenci que no hay nadie mas
Que me pueda brimdar esa paz
Que solo tu das

Hooooo……solo tu das
Tu me das la paz, tu me das la paz
Hooo…….oooooo…….
Tu me das libertad,tu me das liberrtad