Vous êtes sur la page 1sur 17

Band: Papa Roach

Song: To Be Loved
Album: The Paramour Sessions
Tabber: Scream at a kid

Guitar I Drop C ( C G C F A D) - Electric, Distortion


Guitar II Drop C ( C G C F A D) - Electric, Distortion

Intro
Guitar I
|-----------------|-----------------|-----------------|------------------|
|-----------------|-----------------|-----------------|------------------|
|-----------------|-----------------|-----------------|------------------|
|-0-----7-----0---|-3-----5-----3---|-0-----7-----0---|-3-----5-----3----|
|-0-----7-----0---|-3-----5-----3---|-0-----7-----0---|-3-----5-----3----|
|-0-----7-----0---|-3-----5-----3---|-0-----7-----0---|-3-----5-----3----|

Verse (Play the Verse twice)


Guitar I
|-----------------|-----------------|
|-----------------|-----------------|
|-----------------|-----------------|
|-0-----7-----0---|-3-----5-----3---|
|-0-----7-----0---|-3-----5-----3---|
|-0-----7-----0---|-3-----5-----3---|
Guitar II
|-----------------|-----------------|
|-8-8-8-8-8-8-8-8-|-8-8-8-8-8-8-8-8-|
|-----------------|-----------------|
|-5-5-5-5-5-5-5-5-|-5-5-5-5-5-5-5-5-|
|-----------------|-----------------|
|-----------------|-----------------|

Guitar I
|-----------------|-----------------|
|-----------------|-----------------|
|-----------------|-----------------|
|-0-----7-----0---|-3-----5-----3---|
|-0-----7-----0---|-3-----5-----3---|
|-0-----7-----0---|-3-----5-----3---|
Guitar II
|-------------------------|-------------------------|
|-11-11-11-11-11-11-11-11-|-11-11-11-11-11-11-11-11-|
|-------------------------|-------------------------|
|--8--8--8--8--8--8--8--8-|--8--8--8--8--8--8--8--8-|
|-------------------------|-------------------------|
|-------------------------|-------------------------|

Guitar I
|-----------------|-----------------|
|-----------------|-----------------|
|-----------------|-----------------|
|-0-----7-----0---|-3-----5-----3---|
|-0-----7-----0---|-3-----5-----3---|
|-0-----7-----0---|-3-----5-----3---|
Guitar II
|-----------------|-----------------|
|-9-9-9-9-9-9-9-9-|-9-9-9-9-9-9-9-9-|
|-----------------|-----------------|
|-6-6-6-6-6-6-6-6-|-6-6-6-6-6-6-6-6-|
|-----------------|-----------------|
|-----------------|-----------------|

Guitar I
|-----------------|-----------------|
|-----------------|-----------------|
|-----------------|-----------------|
|-0-----7-----0---|-3-----5-----3---|
|-0-----7-----0---|-3-----5-----3---|
|-0-----7-----0---|-3-----5-----3---|
Guitar II
|-----------------|-----------------|
|-----------------|-----------------|
|-8-8-8-8-8-8-8-8-|-8-8-8-8-8-8-8-8-|
|-5-5-5-5-5-5-5-5-|-5-5-5-5-5-5-5-5-|
|-----------------|-----------------|
|-----------------|-----------------|

Pre-Chorus Guitar I
|-----------------|-----------------|-----------------|------------------|
|-----------------|-----------------|-----------------|------------------|
|-----------------|-----------------|-----------------|------------------|
|-0-----7-----0---|-3-----5-----3---|-0-----7-----0---|-3-----5----------|
|-0-----7-----0---|-3-----5-----3---|-0-----7-----0---|-3-----5----------|
|-0-----7-----0---|-3-----5-----3---|-0-----7-----0---|-3-----5----------|

Chorus
Guitar I
|---------------------|---------------------|
|---------------------|---------------------|
|---------------------|---------------------|
|-10---10---10---10---|-10---10---10---10---|
|-10---10---10---10---|-10---10---10---10---|
|-10---10---10---10---|-10---10---10---10---|

|-----------------|-----------------|
|-----------------|-----------------|
|-----------------|-----------------|
|-8---8---8---8---|-8---8---8---8---|
|-8---8---8---8---|-8---8---8---8---|
|-8---8---8---8---|-8---8---8---8---|

|-----------------|-----------------|
|-----------------|-----------------|
|-----------------|-----------------|
|-6---6---6---6---|-6---6---6---6---|
|-6---6---6---6---|-6---6---6---6---|
|-6---6---6---6---|-6---6---6---6---|
|-----------------|-----------------|
|-----------------|-----------------|
|-----------------|-----------------|
|-3---3---3---3---|-3---3---3---3---|
|-3---3---3---3---|-3---3---3---3---|
|-3---3---3---3---|-3---3---3---3---|

|---------------------|---------------------|
|---------------------|---------------------|
|---------------------|---------------------|
|-10---10---10---10---|-10---10---10---10---|
|-10---10---10---10---|-10---10---10---10---|
|-10---10---10---10---|-10---10---10---10---|

|-----------------|-----------------|
|-----------------|-----------------|
|-----------------|-----------------|
|-8---8---8---8---|-8---8---8---8---|
|-8---8---8---8---|-8---8---8---8---|
|-8---8---8---8---|-8---8---8---8---|

|-----------------|-----------------|
|-----------------|-----------------|
|-6---6---6---6---|-6---6---6---6---|
|-6---6---6---6---|-6---6---6---6---|
|-6---6---6---6---|-6---6---6---6---|
|-6---6---6---6---|-6---6---6---6---|

|-----------------|-----------------|
|-----------------|-----------------|
|-----------------|-----------------|
|-3---3---3---3---|-1---1---1---1---|
|-3---3---3---3---|-1---1---1---1---|
|-3---3---3---3---|-1---1---1---1---|

Verse II Part I
Guitar I
|-------------------------|-------------------------|
|-------------------------|-------------------------|
|-------------------------|-------------------------|
|-12----12-12-----12-12---|-12----12-12-----12-12---|
|-12----12-12-----12-12---|-12----12-12-----12-12---|
|-12----12-12-----12-12---|-12----12-12-----12-12---|
Guitar II
|-------------------------|-------------------------|
|-------------------------|-------------------------|
|----------14-14-14-------|-------12-12-12-12-------|
|-12-12-12----------12-12-|-15-15-------------15-15-|
|-------------------------|-------------------------|
|-------------------------|-------------------------|

Guitar I
|-------------------------|-------------------------|
|-------------------------|-------------------------|
|-------------------------|-------------------------|
|-8-------8-8------8-8----|-8-------8-8------8-8----|
|-8-------8-8------8-8----|-8-------8-8------8-8----|
|-8-------8-8------8-8----|-8-------8-8------8-8----|
Guitar II
|-------------------------|-------------------------|
|-------------------------|-------------------------|
|----------14-14-14-------|-------12-12-12-12-------|
|-------------------------|-15-15-------------15-15-|
|-13-13-13----------13-13-|-------------------------|
|-------------------------|-------------------------|

Guitar I
|-------------------------|-------------------------|
|-------------------------|-------------------------|
|-------------------------|-------------------------|
|-5-------5-5------5-5----|-5-------5-5------5-5----|
|-5-------5-5------5-5----|-5-------5-5------5-5----|
|-5-------5-5------5-5----|-5-------5-5------5-5----|
Guitar II
|-------------------------|-------------------------|
|-------------------------|-------------------------|
|----------14-14-14-------|-------12-12-12-12-------|
|-------------------------|-15-15-------------15-15-|
|-10-10-10----------10-10-|-------------------------|
|-------------------------|-------------------------|

Guitar I
|-------------------------|-------------------------|
|-------------------------|-------------------------|
|-------------------------|-------------------------|
|-7-------7-7------7-7----|-7-------7-7------7-7----|
|-7-------7-7------7-7----|-7-------7-7------7-7----|
|-7-------7-7------7-7----|-7-------7-7------7-7----|
Guitar II
|-------------------------|---------------------|
|-------------------------|---------------------|
|----------12-12-12-------|-8-8-10-10-8-8-10-10-|
|-------------------------|---------------------|
|-12-12-12----------12-12-|---------------------|
|-------------------------|---------------------|

Part II
Guitar I
|-------------------------|-------------------------|
|-------------------------|-------------------------|
|-------------------------|-------------------------|
|-12----12-12-----12-12---|-12----12-12-----12-12---|
|-12----12-12-----12-12---|-12----12-12-----12-12---|
|-12----12-12-----12-12---|-12----12-12-----12-12---|
Guitar II
|-------------------------|-------------------------|
|-------------------------|-------------------------|
|----------14-14-14-------|-------12-12-12-12-------|
|-12-12-12----------12-12-|-15-15-------------15-15-|
|-------------------------|-------------------------|
|-------------------------|-------------------------|

Guitar I
|-------------------------|-------------------------|
|-------------------------|-------------------------|
|-------------------------|-------------------------|
|-8-------8-8------8-8----|-8-------8-8------8-8----|
|-8-------8-8------8-8----|-8-------8-8------8-8----|
|-8-------8-8------8-8----|-8-------8-8------8-8----|
Guitar II
|-------------------------|-------------------------|
|-------------------------|-------------------------|
|----------14-14-14-------|-------12-12-12-12-------|
|-------------------------|-15-15-------------15-15-|
|-13-13-13----------13-13-|-------------------------|
|-------------------------|-------------------------|

Guitar I
|-------------------------|-------------------------|
|-------------------------|-------------------------|
|-------------------------|-------------------------|
|-5-------5-5------5-5----|-5-------5-5------5-5----|
|-5-------5-5------5-5----|-5-------5-5------5-5----|
|-5-------5-5------5-5----|-5-------5-5------5-5----|
Guitar II
|-------------------------|-------------------------|
|-------------------------|-------------------------|
|----------14-14-14-------|-------12-12-12-12-------|
|-------------------------|-15-15-------------15-15-|
|-10-10-10----------10-10-|-------------------------|
|-------------------------|-------------------------|

Guitar I
|-------------------------|-------------------------|
|-------------------------|-------------------------|
|-------------------------|-------------------------|
|-3-------3-3------3-3----|-1-------1-1------1-1----|
|-3-------3-3------3-3----|-1-------1-1------1-1----|
|-3-------3-3------3-3----|-1-------1-1------1-1----|
Guitar II
|-------------------------|---------------------|
|-------------------------|-------------X-X-X-X-|
|----------12-12-12-------|-------12-12-X-X-X-X-|
|-------------------------|-15-15-------X-X-X-X-|
|-12-12-12----------12-12-|---------------------|
|-------------------------|---------------------|
Chorus

Verse III Part I


Guitar I
|-------------------------|-------------------------|
|-------------------------|-------------------------|
|-------------------------|-------------------------|
|-12----12-12-----12-12---|-12----12-12-----12-12---|
|-12----12-12-----12-12---|-12----12-12-----12-12---|
|-12----12-12-----12-12---|-12----12-12-----12-12---|

|-------------------------|-------------------------|
|-------------------------|-------------------------|
|-------------------------|-------------------------|
|-8-------8-8------8-8----|-8-------8-8------8-8----|
|-8-------8-8------8-8----|-8-------8-8------8-8----|
|-8-------8-8------8-8----|-8-------8-8------8-8----|

|-------------------------|-------------------------|
|-------------------------|-------------------------|
|-------------------------|-------------------------|
|-5-------5-5------5-5----|-5-------5-5------5-5----|
|-5-------5-5------5-5----|-5-------5-5------5-5----|
|-5-------5-5------5-5----|-5-------5-5------5-5----|

|-------------------------|-------------------------|
|-------------------------|-------------------------|
|-------------------------|-------------------------|
|-7-------7-7------7-7----|-7-------7-7------7-7----|
|-7-------7-7------7-7----|-7-------7-7------7-7----|
|-7-------7-7------7-7----|-7-------7-7------7-7----|
Part II
Guitar I
|-------------------------|-------------------------|
|-------------------------|-------------------------|
|-------------------------|-------------------------|
|-12----12-12-----12-12---|-12----12-12-----12-12---|
|-12----12-12-----12-12---|-12----12-12-----12-12---|
|-12----12-12-----12-12---|-12----12-12-----12-12---|
Guitar II
|-------------------------|-------------------------|
|-------------------------|-------------------------|
|----------14-14-14-------|-------12-12-12-12-------|
|-12-12-12----------12-12-|-15-15-------------15-15-|
|-------------------------|-------------------------|
|-------------------------|-------------------------|

Guitar I
|-------------------------|-------------------------|
|-------------------------|-------------------------|
|-------------------------|-------------------------|
|-8-------8-8------8-8----|-8-------8-8------8-8----|
|-8-------8-8------8-8----|-8-------8-8------8-8----|
|-8-------8-8------8-8----|-8-------8-8------8-8----|
Guitar II
|-------------------------|-------------------------|
|-------------------------|-------------------------|
|----------14-14-14-------|-------12-12-12-12-------|
|-------------------------|-15-15-------------15-15-|
|-13-13-13----------13-13-|-------------------------|
|-------------------------|-------------------------|

Guitar I
|-------------------------|-------------------------|
|-------------------------|-------------------------|
|-------------------------|-------------------------|
|-5-------5-5------5-5----|-5-------5-5------5-5----|
|-5-------5-5------5-5----|-5-------5-5------5-5----|
|-5-------5-5------5-5----|-5-------5-5------5-5----|
Guitar II
|-------------------------|-------------------------|
|-------------------------|-------------------------|
|----------14-14-14-------|-------12-12-12-12-------|
|-------------------------|-15-15-------------15-15-|
|-10-10-10----------10-10-|-------------------------|
|-------------------------|-------------------------|

Guitar I
|-------------------------|-------------------------|
|-------------------------|-------------------------|
|-------------------------|-------------------------|
|-3-------3-3------3-3----|-1-------1-1------1-1----|
|-3-------3-3------3-3----|-1-------1-1------1-1----|
|-3-------3-3------3-3----|-1-------1-1------1-1----|
Guitar II
|-------------------------|---------------------|
|-------------------------|-------------X-X-X-X-|
|----------12-12-12-------|-------12-12-X-X-X-X-|
|-------------------------|-15-15-------X-X-X-X-|
|-12-12-12----------12-12-|---------------------|
|-------------------------|---------------------|

Chorus

Bridge Part I
Guitar I
|-----------------|-----------------|
|-----------------|-----------------|
|-7-7-7-7-7-7-7-7-|-7-7-7-7-7-7-7-7-|
|-7-7-7-7-7-7-7-7-|-7-7-7-7-7-7-7-7-|
|-5-5-5-5-5-5-5-5-|-5-5-5-5-5-5-5-5-|
|-----------------|-----------------|
Guitar II
|-------------------------|-------------------------|
|-10-10-10-10-10-10-10-10-|-10-10-10-10-10-10-10-10-|
|-------------------------|-------------------------|
|--7--7--7--7--7--7--7--7-|--7--7--7--7--7--7--7--7-|
|-------------------------|-------------------------|
|-------------------------|-------------------------|

Guitar I
|-----------------|-----------------|
|-----------------|-----------------|
|-5-5-5-5-5-5-5-5-|-5-5-5-5-5-5-5-5-|
|-5-5-5-5-5-5-5-5-|-5-5-5-5-5-5-5-5-|
|-3-3-3-3-3-3-3-3-|-3-3-3-3-3-3-3-3-|
|-----------------|-----------------|
Guitar II
|-------------------------|-------------------------|
|-13-13-13-13-13-13-13-13-|-13-13-13-13-13-13-13-13-|
|-------------------------|-------------------------|
|-10-10-10-10-10-10-10-10-|-10-10-10-10-10-10-10-10-|
|-------------------------|-------------------------|
|-------------------------|-------------------------|

Guitar I
|-----------------|-----------------|
|-----------------|-----------------|
|-----------------|-----------------|
|-8-8-8-8-8-8-8-8-|-8-8-8-8-8-8-8-8-|
|-8-8-8-8-8-8-8-8-|-8-8-8-8-8-8-8-8-|
|-8-8-8-8-8-8-8-8-|-8-8-8-8-8-8-8-8-|
Guitar II
|-------------------------|-------------------------|
|-11-11-11-11-11-11-11-11-|-11-11-11-11-11-11-11-11-|
|-------------------------|-------------------------|
|--8--8--8--8--8--8--8--8-|--8--8--8--8--8--8--8--8-|
|-------------------------|-------------------------|
|-------------------------|-------------------------|
Guitar I
|-----------------|-----------------|
|-----------------|-----------------|
|-----------------|-----------------|
|-5-5-5-5-5-5-5-5-|-5-5-5-5-5-5-5-5-|
|-5-5-5-5-5-5-5-5-|-5-5-5-5-5-5-5-5-|
|-5-5-5-5-5-5-5-5-|-5-5-5-5-5-5-5-5-|
Guitar II
|-----------------|-----------------|
|-8-8-8-8-8-8-8-8-|-8-8-8-8-8-8-8-8-|
|-----------------|-----------------|
|-5-5-5-5-5-5-5-5-|-5-5-5-5-5-5-5-5-|
|-----------------|-----------------|
|-----------------|-----------------|

Bridge Part II
Guitar I
e|-----------------|-----------------|
B|-----------------|-----------------|
G|-7-7-7-7-7-7-7-7-|-7-7-7-7-7-7-7-7-|
D|-7-7-7-7-7-7-7-7-|-7-7-7-7-7-7-7-7-|
A|-5-5-5-5-5-5-5-5-|-5-5-5-5-5-5-5-5-|
E|-----------------|-----------------|
Guitar II
e|-------------------------|-------------------------|
B|-10-10-10-10-10-10-10-10-|-10-10-10-10-10-10-10-10-|
G|-------------------------|-------------------------|
D|--7--7--7--7--7--7--7--7-|--7--7--7--7--7--7--7--7-|
A|-------------------------|-------------------------|
E|-------------------------|-------------------------|

Guitar I
e|-----------------|-----------------|
B|-----------------|-----------------|
G|-5-5-5-5-5-5-5-5-|-5-5-5-5-5-5-5-5-|
D|-5-5-5-5-5-5-5-5-|-5-5-5-5-5-5-5-5-|
A|-3-3-3-3-3-3-3-3-|-3-3-3-3-3-3-3-3-|
E|-----------------|-----------------|
Guitar II
e|-------------------------|-------------------------|
B|-13-13-13-13-13-13-13-13-|-13-13-13-13-13-13-13-13-|
G|-------------------------|-------------------------|
D|-10-10-10-10-10-10-10-10-|-10-10-10-10-10-10-10-10-|
A|-------------------------|-------------------------|
E|-------------------------|-------------------------|

Guitar I
e|-----------------|-----------------|
B|-----------------|-----------------|
G|-----------------|-----------------|
D|-8-8-8-8-8-8-8-8-|-8-8-8-8-8-8-8-8-|
A|-8-8-8-8-8-8-8-8-|-8-8-8-8-8-8-8-8-|
E|-8-8-8-8-8-8-8-8-|-8-8-8-8-8-8-8-8-|
Guitar II
e|-------------------------|-------------------------|
B|-11-11-11-11-11-11-11-11-|-11-11-11-11-11-11-11-11-|
G|-------------------------|-------------------------|
D|--8--8--8--8--8--8--8--8-|--8--8--8--8--8--8--8--8-|
A|-------------------------|-------------------------|
E|-------------------------|-------------------------|

Guitar I
e|-----------------|-----------------|
B|-----------------|-----------------|
G|-----------------|-----------------|
D|-3---------------|-1---------------|
A|-3---------------|-1---------------|
E|-3---------------|-1---------------|
Guitar II
e|-----------------|-----------------|
B|-8-8-8-8-8-8-8-8-|-8-8-8-8-8-8-8-8-|
G|-----------------|-----------------|
D|-5-5-5-5-5-5-5-5-|-5-5-5-5-5-5-5-5-|
A|-----------------|-----------------|
E|-----------------|-----------------|

Interlude
x7
|------------|------------|
|------------|------------|
|------------|------------|
|------------|--------\---|
|------------|--------\---|
|------------|--------\---|

Outro Chorus
Guitar I Part I
e|---------------------|---------------------|
B|---------------------|---------------------|
G|---------------------|---------------------|
D|-10---10---10---10---|-10---10---10---10---|
A|-10---10---10---10---|-10---10---10---10---|
E|-10---10---10---10---|-10---10---10---10---|

e|-----------------|-----------------|
B|-----------------|-----------------|
G|-----------------|-----------------|
D|-8---8---8---8---|-8---8---8---8---|
A|-8---8---8---8---|-8---8---8---8---|
E|-8---8---8---8---|-8---8---8---8---|

e|-----------------|-----------------|
B|-----------------|-----------------|
G|-----------------|-----------------|
D|-6---6---6---6---|-6---6---6---6---|
A|-6---6---6---6---|-6---6---6---6---|
E|-6---6---6---6---|-6---6---6---6---|

e|-----------------|-----------------|
B|-----------------|-----------------|
G|-----------------|-----------------|
D|-3---3---3---3---|-1-------0-------|
A|-3---3---3---3---|-1-------0-------|
E|-3---3---3---3---|-1-------0-------|

Guitar I Part II
e|---------------------|---------------------|
B|---------------------|---------------------|
G|---------------------|---------------------|
D|-10---10---10---10---|-10---10---10---10---|
A|-10---10---10---10---|-10---10---10---10---|
E|-10---10---10---10---|-10---10---10---10---|

e|-----------------|-----------------|
B|-----------------|-----------------|
G|-----------------|-----------------|
D|-8---8---8---8---|-8---8---8---8---|
A|-8---8---8---8---|-8---8---8---8---|
E|-8---8---8---8---|-8---8---8---8---|

e|-----------------|-----------------|
B|-----------------|-----------------|
G|-----------------|-----------------|
D|-6---6---6---6---|-6---6---6---6---|
A|-6---6---6---6---|-6---6---6---6---|
E|-6---6---6---6---|-6---6---6---6---|

e|-----------------|-----------------|
B|-----------------|-----------------|
G|-----------------|-----------------|
D|-5---5---5---5---|-----------------|
A|-5---5---5---5---|-----------------|
E|-5---5---5---5---|-----------------|
Guitar II Part II
e|-----------------|-----------------|
B|-----------------|-----------------|
G|-7-7-7-7-7-7-7-7-|-7-7-7-7-7-7-7-7-|
D|-----------------|-----------------|
A|-5-5-5-5-5-5-5-5-|-5-5-5-5-5-5-5-5-|
E|-----------------|-----------------|

e|-----------------|-----------------|
B|-----------------|-----------------|
G|-5-5-5-5-5-5-5-5-|-5-5-5-5-5-5-5-5-|
D|-----------------|-----------------|
A|-3-3-3-3-3-3-3-3-|-3-3-3-3-3-3-3-3-|
E|-----------------|-----------------|

e|-----------------|-----------------|
B|-----------------|-----------------|
G|-3-3-3-3-3-3-3-3-|-3-3-3-3-3-3-3-3-|
D|-----------------|-----------------|
A|-1-1-1-1-1-1-1-1-|-1-1-1-1-1-1-1-1-|
E|-----------------|-----------------|

e|-----------------|-----------------|
B|-----------------|-----------------|
G|-----------------|-----------------|
D|-5-5-5-5-5-5-5-5-|-----------------|
A|-5-5-5-5-5-5-5-5-|-----------------|
E|-5-5-5-5-5-5-5-5-|-----------------|

| / slide up
| \ slide down
| h hammer-on
| p pull-off
| ~ vibrato
| + harmonic
| x Mute note