Vous êtes sur la page 1sur 4

Distance Chords by Secondhand Serenade

+ --------------------------------------------------------------------- +
| Ultimate Guitar Tabs Archive - your #1 source for tabs! |
| http://www.ultimate-guitar.com/ |
| |
| Over 300,000 guitar, guitar pro and bass tabs! Also lessons, news, |
| columns and guitar forums! |
+ --------------------------------------------------------------------- +
Artist: Secondhand Serenade
Song: Distance
Secondhand Serenade - Distance
as you can see..i like playing with the B and E strings open i find it sounding
nicer if you know what i mean..and im not going to complain abt people ripping
tabs and putting on other websites without consent or even crediting the origina
l
tabber..tabbers might just stop tabbing because of people without integrity :(

Tuning: Half-step Down


E - 022100 or 779997 or 079900
C#m - 446654 or x46650
A - 002200 or 577655 or 577600
B - 224442 or 799877 or 799800
F#m - 244222
B/Eb - 7698xx or 769800

[Intro] E - C#m - A - A

[Verse]
E
I'm driving down the highway
C#m
Cold and dark, dead
A
(It's deceiving)
A
It's deceiving
E
And miles and miles pass by
C#m
And I'm alone
A
My eyes feel like they're bleeding
A
But I'm just crying
B - C#m - A
Is this what I ask for?
B - C#m - A
Is this what I ask for?
[Chorus]
E C#m
I hate myself when I'm away from you
A
I swear I'm sorry
B
Please don't hate me too
E C#m
And I don't know if my heart will make it through
A
I swear I'm sorry
B C#m - B - A
Please don't hate me too

[Verse]
E
I don't suppose you heard me
C#m
Call your name, girl
A
If you say louder,
A
Then I'll scream louder
E C#m
The cities in between us block the way
A
They make it harder
A
But I'll scream louder
B - C#m - A
Is this what I ask for?
B - C#m - A
Is this what I ask for?

[Chorus]
E C#m
I hate myself when I'm away from you
A
I swear I'm sorry
B
Please don't hate me too
E C#m
And I don't know if my heart will make it through
A
I swear I'm sorry
B C#m - B - A - Am
Please don't hate me too

[Bridge]
Am
(Don't hate me)
F#m
Don't fail now
B
Hold on to hope
E
Cause I'm yours
B/D# C#m
I'm coming home to you soon (I'm coming home)
F#m
Cause the road is very worn
B (pause) E
And it's begging me to come back (To You)

[Chorus/Outro]
E C#m
I hate myself when I'm away from you
A
I swear I'm sorry (I'm sorry)
B E C#m
Please don't hate me too (I'm coming home)
A
Don't hate me too
B C#m - B - A
Please don't hate me too

End on A
END
+--------------------------------------------------------------------------+
| This file is the author's own work and represents their interpretation |
| of the song. You may only use this file for private study, scholarship, |
| or research. |
+--------------------------------------------------------------------------+
Ultimate-Guitar.Com © 2010
Show/hide chords diagrams

Add more chord diagrams to the list:


B/D#AmEbF#mBAC#mE

B/D#x
D#|---|---|---|---|---| o
A#|-1-|---|---|---|---| o
F#|---|---|---|---|---| o
C#|---|-2-|---|---|---| o
G#|---|---|-3-|---|---| o
D#|---|---|---|---|---| x
Variation
Amx
D#|-1-|---|---|---|---| o
A#|-1-|-2-|---|---|---| o
F#|-1-|---|-4-|---|---| o
C#|-1-|---|-3-|---|---| o
G#|-1-|---|---|---|---| o
D#|---|---|---|---|---| x
1 fr.
Variation
Ebx
D#|---|---|---|---|---| o
A#|---|---|---|---|---| o
F#|-1-|---|---|---|---| o
C#|---|-3-|---|---|---| o
G#|---|-2-|---|---|---| o
D#|---|---|---|---|---| o
Variation
F#mx
D#|---|---|-4-|---|---| o
A#|---|---|-3-|---|---| o
F#|---|---|---|---|---| o
C#|---|---|---|---|---| o
G#|-1-|---|---|---|---| o
D#|---|---|-2-|---|---| o

Variation
Bx
D#|---|---|---|---|---| o
A#|-1-|---|---|---|---| o
F#|---|---|---|---|---| o
C#|---|-2-|---|---|---| o
G#|---|---|-3-|---|---| o
D#|---|---|---|---|---| x
Variation
Ax
D#|-1-|---|---|---|---| o
A#|-1-|---|-4-|---|---| o
F#|-1-|---|-3-|---|---| o
C#|-1-|---|-2-|---|---| o
G#|-1-|---|---|---|---| o
D#|---|---|---|---|---| x
1 fr.
Variation
C#mx
D#|-1-|---|---|---|---| o
A#|---|---|-3-|---|---| o
F#|---|-2-|---|---|---| o
C#|---|---|---|---|---| o
G#|---|---|---|---|---| x
D#|---|---|---|---|---| x
Variation
Ex
D#|-1-|---|---|---|---| o
A#|-1-|---|---|---|---| o
F#|-1-|-2-|---|---|---| o
C#|-1-|---|-4-|---|---| o
G#|-1-|---|-3-|---|---| o
D#|-1-|---|---|---|---| o
1 fr.
Variation