Vous êtes sur la page 1sur 1

Joji - Slow dancing in the dark

[Intro/Verse 1]
0:20
G|--------------------------------------------|--------------------------------------------|
D|--------------------------------------------|--------------------------------------------|
A|----6--------6------------------------------|----8--------8----------10--------10--------|
E|------------------------8--------8----------|--------------------------------------------|

[Pre-Chorus]
0:42
G|--------------------------------------------|--------------------------------------------|
D|--------------------------------------------|--------------------------------------------|
A|----6--------6------------------------------|----8--------8----------10--------10--------|
E|------------------------8--------8----------|--------------------------------------------|

[Chorus]
1:03
G|--------------------------------------------|--------------------------------------------|
D|--------------------------------------------|--------------------------------------------|
A|----6--------6------------------------------|----6--------6------------------------------|
E|------------------------4--------4----------|------------------------4--------4----------|

G|--------------------------------------------|--------------------------------------------|
D|--------------------------------------------|--------------------------------------------|
A|----6--------6------------------------------|----6--------6------------------------------|
E|------------------------4--------4----------|------------------------4--------4----------|

[Verse 2]
1:47
G|--------------------------------------------|--------------------------------------------|
D|--------------------------------------------|--------------------------------------------|
A|----6--------6------------------------------|----8--------8----------10------------------|
E|------------------------8--------8----------|--------------------------------------------|

[Pre-Chorus 2]
2:08
G|--------------------------------------------|--------------------------------------------|
D|--------------------------------------------|--------------------------------------------|
A|--------------------------------------------|----8--------8----------10------------------|
E|----8---------8-----------8--------8--------|--------------------------------------------|

[Chorus]
2:30
G|--------------------------------------------|--------------------------------------------|
D|--------------------------------------------|--------------------------------------------|
A|----6--------6------------------------------|----6--------6------------------------------|
E|------------------------4--------4----------|------------------------4--------4----------|

G|--------------------------------------------|--------------------------------------------|
D|--------------------------------------------|--------------------------------------------|
A|----6--------6------------------------------|----6--------6------------------------------|
E|------------------------4--------4----------|------------------------4--------4----------|

[Outro]
3:13
G|--------------------------------------------|
D|--------------------------------------------|
A|----6-6-6-6-----6---------------------------|
E|------------------------4-4-4-4-----4-------|