Vous êtes sur la page 1sur 3

1.Este es un carnaval ayacuchano que esta en DO.

INTRO:
E | --------------------7--8-7-8--10--10/12-
B |--3/5-5---5/10---------------------------
G | ----------------------------------------
D | ----------------------------------------

E |--12/15--15-12-12-12-12-10-12/--10-7/8
B |--------------------------------------
G |--------------------------------------

ESCALA O INTERMEDIO (1)

E |--------------------------------------
B |10-9-7--------------------------------
G |------10-9-7----------------------------
D |------------10-9-10-7-7-7--7-7-7--7-7-7-
A |-------------------------7------7------7-

Aqui es donde empieza a cantar

LA CANCION

E |-12/15--15-15--12-12-12--10/8--
B |-------------------------------------
G |-------------------------------------
D |-------------------------------------

E |--10------------------------------------
B |10--10-10-10--10/8--8-8-8--10/8---------
G |-------------------------------9-9/7--9-

OTRA ESCALA O INTERMEDIO

E |---------------7-8-10-11-12-12-12-12-
B |-----------9-10----------------------
G |----7-9-10---------------------------
D |9-10---------------------------------

DO
Aqui ya venimos
FA
aqui ya llegamos
DO
linda Huamanguina

e|-----------------------------
B|-----------------------------
G|-----------------------------
D|---------------0-2-0---------
A|-----0-2-3-2-3-------3-2-3---
E|---3------------------------- Repite todo
DO
Bailando cantando
FA
Cantando bailando
DO
hasta el amanecer

Segunda parte de la estrofa

E|--------------10-12-15-12-12-12--10/8-10/12-12-10-10
B|---10-10-10/8---------------------------------------
G|9-9----------9--------------------------------------
D|---------------------------------------------------

DO
Ayacuchana
FA
Huamanguinita
DO
Entregame tu amor

e|-----------------------------
B|-----------------------------
G|-----------------------------
D|---------------0-2-0---------
A|-----0-2-3-2-3-------3-2-3---
E|---3-------------------------

DO
Perua amahua jaspa
FA
perua amahua jispa
DO
hasta el amanecer

MI LAm LAm LAm


e|----0--------0---0---0----
B|----0--------1---1---1----
G|----1--------2---2---2----
D|----2--------2---2---2----
A|----2--------0---0---0----
E|----0--------0---0---0----

Repite todo.

Luego de eso comienza en versión Huayno.


FUGA EN RITMO DE HUAYNO

E |8-10--8-8-8-10-10/8-|-----------12/15/12-
B |----10--------------|10-10-8-8-8---------
G |--------------------|-------------------
E |12-10/8--8-8-8-810--10-8---
B |-------10------------------
G |---------------------------

E |10-----------10/8---|8-8-10-------10/8--
B |--10-10-8-8-8----10-|------10-10-8----10-
G |--------------------|-------------------

DO
Quisiera tener molino
FA
molino de cal y piedra
DO
urra y mirras runapa
MI LAm
simillay chapchachinayay (BIs)