Vous êtes sur la page 1sur 11

Angra - Nothing to Say

Hi folks. My name is Eduardo Kepczynski and this is my 3rd tab ever.


I had expend many hours listening to this song and trying to play it.
I´m sure it´s not perfect, but it was the most i could do.
It will help everyone who wants to play this awesome song.
Feel free to add some hammer on, pull off and palm mute. Improvisation
rules.
Sorry, the solo is missing.
If you want to play this song just like Kiko and Rafael, pal, you
should be sooooo patience.
But keep on trying.
Any doubt or corrections, please send me an e-mail at

I´ll apreciate.
Special thanks to Guilhem FERRIER and Ronaldo J. Jappe.

Tabs Explainations

PM = Palm Mute
~ = Vibrato
h = Hammer on

p = Pull off
\ = Slide down
/ = Slide up
b = Bend
rb = Release Bend

Intro
PM |---------------------------| |-------------| |-----|
e|---------|-------------------------|----------------------------------------|
B|---------|-------------------------|----------------------------------------|
G|---------|-------------------------|----------------------------------------|
D|---------|-----Keep doing this-----|----------------------------------------|
A|---------|-------------------------|------------------2---------------------|
E|----0-0--|----0--0--0--0--0--0-----|---0--0--0--0--0--0----------0--0-------|

PM |-----------------------| |--| |----| |--------------|


|-----------------|
E|---------------------------------------------------------------------------------
--------------------|
B|---------------------------------------------------------------------------------
--------------------|
G|---------------------------------------------------------------------------------
--------------------|
D|---------------------------------------------------------------------------------
--------------------|
A|----7--7--9--7--7--10--7--7--9h10p9--7--10--7--7--9-10~-9--7--7--10--7--7--9h10--
7--9--5--7--2--5----|
E|---------------------------------------------------------------------------------
--------------------|

PM |----| |----| |----| |--| |-----| |-----------------| |----|


|--|
E|---------------------------------------------------------------------------------
--------------------|
B|---------------------------------------------------------------------------------
--------------------|
G|---------------------------------------------------------------------------------
--------------------|
D|----------4--------5--------4h5p4-----5--------
4/5~--------------------------------------------------|
A|----3--3-----3--3-----3--3---------3-----3--3--------7--5--------------5--------
7p5-----5h7----------|
E|-----------------------------------------------------------7--6--5--6-----7--
5-------7---------------|

Verse
PM |----------------|
e|----------------------|-------------|
B|----------------------|-------------|
G|----------------------|-------------|
D|-----Keep doing this--|--5----2--4--|
A|----------------------|--3----0--2--|
E|----0--0--0--0--0--0--|-------------|

Pre-Chorus
PM |--| |--| |--| |--|
|-----|
e|---------------------------------------------------------------------------------
--------|
B|---------------------------------------------------------------------------------
--------|
G|---------------------------------------------------------------------------------
--------|
D|---5---------5---------5--4--2---------2---------2--2---------------0h2-2~---2-
0---------|
A|---3-----3-3-3-----3-3-3--2--0-----0-0-0-----0-0-0--0---5---5---2----------------
2-------|
E|--------------------------------------------------------3---2---
0------------------3-----|

PM |--| |--| |--| |--|


|-------------------------------|
e|---------------------------------------------------------------------------------
-----------------|
B|---------------------------------------------------------------------------------
-----------------|
G|---------------------------------------------------------------------------------
-----------------|
D|---5---------5---------5--4--2---------2---------2--2---5---
7-------------------------------------|
A|---3-----3-3-3-----3-3-3--2--0-----0-0-0-----0-0-0--0---5---5---2-2-2-2-2-2-2-2-
2-2-2-2-2-2-2-2---|
E|--------------------------------------------------------
3-----------------------------------------|
PM |--| |--| |--| |--|
e|---------------------------------------------------------------------------------
-----------|
B|---------------------------------------------------------------------------------
-----------|
G|---------------------------------------------------------------------------------
-----------|
D|---5---------5---------5--4--2---------2---------2--2-----------
3---------------------------|
A|---3-----3-3-3-----3-3-3--2--0-----0-0-0-----0-0-0--0---5---5---
3---------------------------|
E|--------------------------------------------------------3---2---
1---------------------------|

Chorus
PM |-----------------------| |--| |----| |--------------|
|-----------------|
E|---------------------------------------------------------------------------------
--------------------|
B|---------------------------------------------------------------------------------
--------------------|
G|---------------------------------------------------------------------------------
--------------------|
D|---------------------------------------------------------------------------------
--------------------|
A|----7--7--9--7--7--10--7--7--9h10p9--7--10--7--7--9-10~-9--7--7--10--7--7--9h10--
7--9--5--7--2--5----|
E|---------------------------------------------------------------------------------
--------------------|

PM |----| |----| |----| |--| |-----| |-----------------| |----|


|--|
E|---------------------------------------------------------------------------------
--------------------|
B|---------------------------------------------------------------------------------
--------------------|
G|---------------------------------------------------------------------------------
--------------------|
D|----------4--------5--------4h5p4-----5--------
4/5~--------------------------------------------------|
A|----3--3-----3--3-----3--3---------3-----3--3--------7--5--------------5--------
7p5-----5h7----------|
E|-----------------------------------------------------------7--6--5--6-----7--
5-------7---------------|

PM |-----------------------| |--| |----| |--------------|


|-----------------|
E|---------------------------------------------------------------------------------
--------------------|
B|---------------------------------------------------------------------------------
--------------------|
G|---------------------------------------------------------------------------------
--------------------|
D|---------------------------------------------------------------------------------
--------------------|
A|----7--7--9--7--7--10--7--7--9h10p9--7--10--7--7--9-10~-9--7--7--10--7--7--9h10--
7--9--5--7--2--5----|
E|---------------------------------------------------------------------------------
--------------------|

PM |----| |----| |----| |-| |----|


|--------|
e|---------------------------------------------------------------------------------
-----------|
B|---------------------------------------------------------------------------------
-----------|
G|---------------------------------------------------------------------------------
-----------|
D|----------4--------5--------4h5p4-----5--------4-5--7p5p4-7p5p4-7p5p4-
4h5p4-----------------|
A|----3--3-----3--3-----3--3---------3-----3--3-------------------------------7-
5-------------|
E|--------------------------------------------------------------------------------
7-6-5-0-----|

Verse again

Pre-Chorus (a little different now)


PM |--| |--| |--| |--|
|-----|
e|---------------------------------------------------------------------------------
--------|
B|---------------------------------------------------------------------------------
--------|
G|---------------------------------------------------------------------------------
--------|
D|---5---------5---------5--4--2---------2---------2--2-------7-------0h2-2~---2-
0---------|
A|---3-----3-3-3-----3-3-3--2--0-----0-0-0-----0-0-0--0---5---5---2----------------
2-------|
E|--------------------------------------------------------3-------
0------------------3-----|

PM |--| |--| |--| |--|


|-------------------------------|
e|---------------------------------------------------------------------------------
-----------------|
B|---------------------------------------------------------------------------------
-----------------|
G|---------------------------------------------------------------------------------
-----------------|
D|---5---------5---------5--4--2---------2---------2--2---5---
7-------------------------------------|
A|---3-----3-3-3-----3-3-3--2--0-----0-0-0-----0-0-0--0---5---5---2-2-2-2-2-2-2-2-
2-2-2-2-2-2-2-2---|
E|--------------------------------------------------------
3-----------------------------------------|
PM |--| |--| |--| |--|
e|---------------------------------------------------------------------------------
-----------|
B|---------------------------------------------------------------------------------
-----------|
G|---------------------------------------------------------------------------------
-----------|
D|---5---------5---------5--4--2---------2---------2--2-------7---
3---------------------------|
A|---3-----3-3-3-----3-3-3--2--0-----0-0-0-----0-0-0--0---5---5---
3---------------------------|
E|--------------------------------------------------------3-------
1---------------------------|

Chorus (there´s a difference in the last note)


PM |-----------------------| |--| |----| |--------------|
|-----------------|
E|---------------------------------------------------------------------------------
--------------------|
B|---------------------------------------------------------------------------------
--------------------|
G|---------------------------------------------------------------------------------
--------------------|
D|---------------------------------------------------------------------------------
--------------------|
A|----7--7--9--7--7--10--7--7--9h10p9--7--10--7--7--9-10~-9--7--7--10--7--7--9h10--
7--9--5--7--2--5----|
E|---------------------------------------------------------------------------------
--------------------|

PM |----| |----| |----| |--| |-----| |-----------------| |----|


|--|
E|---------------------------------------------------------------------------------
--------------------|
B|---------------------------------------------------------------------------------
--------------------|
G|---------------------------------------------------------------------------------
--------------------|
D|----------4--------5--------4h5p4-----5--------
4/5~--------------------------------------------------|
A|----3--3-----3--3-----3--3---------3-----3--3--------7--5--------------5--------
7p5-----5h7----------|
E|-----------------------------------------------------------7--6--5--6-----7--
5-------7---------------|

PM |-----------------------| |--| |----| |--------------|


|-----------------|
E|---------------------------------------------------------------------------------
--------------------|
B|---------------------------------------------------------------------------------
--------------------|
G|---------------------------------------------------------------------------------
--------------------|
D|---------------------------------------------------------------------------------
--------------------|
A|----7--7--9--7--7--10--7--7--9h10p9--7--10--7--7--9-10~-9--7--7--10--7--7--9h10--
7--9--5--7--2--5----|
E|---------------------------------------------------------------------------------
--------------------|

PM |----| |----| |----| |-| |----|


|--------|
e|---------------------------------------------------------------------------------
-----------|
B|---------------------------------------------------------------------------------
-----------|
G|---------------------------------------------------------------------------------
-----------|
D|----------4--------5--------4h5p4-----5--------4-5--7p5p4-7p5p4-7p5p4-
4h5p4-----------5-----|
A|----3--3-----3--3-----3--3---------3-----3--3-------------------------------7-
5-------------|
E|--------------------------------------------------------------------------------
7-6-5-------|

Riff before the solo


PM |---| |---| |---| |---| |---| |---| |---| |---| |-----------|
e|-----------------------------------------------------------------------|
B|-----------------------------------------------------------------------|
G|*----------------------------------------------------------------------|
D|*-------------------5-----3-------------------------3h5---3------------|
A|--------5-----6-----------------5h6-----5-----6---------6---5-6-3-5----| Repeat
once
E|----3-3---3-3---3-3---3-3---3-3-----3-3---3-3---3-3--------------------|

PM |---| |---| |---| |---| |---| |---| |---| |---|


e|----------------------------------------------------------------------|
B|----------------------------------------------------------------------|
G|----------------------------------------------------------------------|
D|--------------------6-----5-------------------------5h6p5p3-5p3---3---|
A|--------6-----7-----------------6h7-----6-----7-----------------6-----|
E|----4-4---4-4---4-4---4-4---4-4-----4-4---4-4---4-4-------------------|

PM |---| |---| |---| |---| |---| |---| |---| |---------------------|


e|--------------------------------------------------------------------------|
B|--------------------------------------------------------------------------|
G|-------------------------------------------------------------------------*|
D|--------------------5-----3----------------------------------------------*|
A|--------5-----6-----------------5h6-----5-----6---------------------------|
E|----3-3---3-3---3-3---3-3---3-3-----3-3---3-3---3-3-0-1-1-1-1-1-1-1-1-----|

PM |----------------------------------|
|-------------------------------------------|
e|---------------------------------------|------|----------------------------------
-------------|------------|
B|---------------------------------------|-
0--/-|-----------------------------------------------|--In this---|
G|---------------------------------------|---/--|----------------------------------
-------------|--measure---|
D|---------------------------------------|--/---|----------------------------------
-------------|-come back--|
A|----5-5-5-5----5--5----5---5-5-5-5---5-|-/--0-|---6-6-6-6----6--6----6---6-6-6-
6----6--6----6-|---to G5----|
E|----3-3-3-3----3--3----3---3-3-3-3---3-|------|---4-4-4-4----4--4----4---4-4-4-
4----4--4----4-|------------|

Solo

1ère partie du solo de Nothing To Say (Cover Guitarra Magazine #17)

|---------------------------6------8-----10------11p8--15--|
|------------------------8------8-----8-------8------------|
|------------7----8--10------------------------------------|
|---------8------------------------------------------------|
|--6--10---------------------------------------------------|
|----------------------------------------------------------|

____________6_____________ _________6__________
T T T T T
|--11--------------------------11-13-15--18--20--18---
|------13------13--15--18--20-------------------------
|----------12-----------------------------------------
|-----------------------------------------------------
|-----------------------------------------------------
|-----------------------------------------------------

____________8____________ ___________6__________
T T T T T
---15-13-11-13---15-18-20-23---20--18--15--13--11--13------|
-----------------------------------------------------------|
-----------------------------------------------------------|
-----------------------------------------------------------|
-----------------------------------------------------------|
-----------------------------------------------------------|

_________6_________
|--10-----------------------------------13---
|------11---------------------------11-------
|----------10/7--8--10----8--7--10-----------
|--------------------------------------------
|--------------------------------------------
|--------------------------------------------

________6________ ______________9____________
|---------------------------------------------------|-----|
|---------------------------------------------------|-----|
|--7--8--10--8--7-----------------------------------|-----|
|------------------8--------------------------------|-----|
|-----------------------10--8--6/5--6--8--6--5/4~~~-|-(4)-|
|---------------------------------------------------|-----|
Part after the solo

e|-------------|-------------------------------------------------------------------
-----|
B|-------------|-------------------------------------------------------------------
-----|
G|-------------|-------------------------------------------------------------------
-----|
D|-------------|-----
8------------------------------------------------------------------|
A|--6----/10---|-----6-----8-----6-----9--10---9--6--9--10----9--6--9--10----9--6--
9----|
E|--4----/8----|-----------6-----4-----7--8----7--4--7--8-----7--4--7--8-----7--4--
7----|

Pre-Chorus again. Use the "Pre-Chorus (a little different now)" part. See above.

Chorus (different in the end)


PM |-----------------------| |--| |----| |--------------|
|-----------------|
E|---------------------------------------------------------------------------------
--------------------|
B|---------------------------------------------------------------------------------
--------------------|
G|
*----------------------------------------------------------------------------------
------------------|
D|
*----------------------------------------------------------------------------------
------------------|
A|----7--7--9--7--7--10--7--7--9h10p9--7--10--7--7--9-10~-9--7--7--10--7--7--9h10--
7--9--5--7--2--5----|
E|---------------------------------------------------------------------------------
--------------------|

PM |----| |----| |----| |--| |-----| |-----------------| |----|


|--|
E|---------------------------------------------------------------------------------
--------------------|
B|---------------------------------------------------------------------------------
--------------------|
G|---------------------------------------------------------------------------------
--------------------|
D|----------4--------5--------4h5p4-----5--------
4/5~--------------------------------------------------|
A|----3--3-----3--3-----3--3---------3-----3--3--------7--5--------------5--------
7p5-----5h7----------|
E|-----------------------------------------------------------7--6--5--6-----7--
5-------7---------------|

PM |-----------------------| |--| |----| |--------------|


|-----------------|
E|---------------------------------------------------------------------------------
--------------------|
B|---------------------------------------------------------------------------------
--------------------|
G|---------------------------------------------------------------------------------
--------------------|
D|---------------------------------------------------------------------------------
--------------------|
A|----7--7--9--7--7--10--7--7--9h10p9--7--10--7--7--9-10~-9--7--7--10--7--7--9h10--
7--9--5--7--2--5----|
E|---------------------------------------------------------------------------------
--------------------|

PM |----| |----| |----| |-| |----|


|--------|
e|---------------------------------------------------------------------------------
-----------|
B|---------------------------------------------------------------------------------
-----------|
G|---------------------------------------------------------------------------------
----------*|
D|----------4--------5--------4h5p4-----5--------4-5--7p5p4-7p5p4-
7p5p4----------------------*|
A|----3--3-----3--3-----3--3---------3-----3--3-------------------------9p7p5-
9p7p5-9p7p5-----|
E|---------------------------------------------------------------------------------
-----------|

In the second time, use this measure instead of the measure above.
PM |----| |----| |----| |-| |----|
|--------|
e|---------------------------------------------------------------------------------
-----------|
B|---------------------------------------------------------------------------------
-----------|
G|---------------------------------------------------------------------------------
-----------|
D|----------4--------5--------4h5p4-----5--------4-5--7p5p4-7p5p4-7p5p4-
4h5p4-----------------|
A|----3--3-----3--3-----3--3---------3-----3--3-------------------------------7-
5-------------|
E|--------------------------------------------------------------------------------
7-6-5-0-----|

PM |-----------------------| |--| |-----| |-------------|


|--------------|
E|---------------------------------------------------------------------------------
--------------------|
B|---------------------------------------------------------------------------------
--------------------|
G|
*----------------------------------------------------------------------------------
------------------|
D|
*----------------------------------------------------------------------------------
------------------|
A|----10-10-12-10-10-13-10-10-12h13p12-10-13-10-10-12-13~-12-10-10-13-10-10-12h13-
10-12-8-10-5-8-------|
E|---------------------------------------------------------------------------------
--------------------|

PM |----| |----| |----| |--| |-----| |-------------------|


|-----| |--|
E|---------------------------------------------------------------------------------
--------------------|
B|---------------------------------------------------------------------------------
--------------------|
G|---------------------------------------------------------------------------------
--------------------|
D|----------7--------8--------7h8p7-----8--------
7/8~--------------------------------------------------|
A|----6--6-----6--6-----6--6---------6-----6--6--------10--8---------------
8---------10p8------8h10----|
E|------------------------------------------------------------10--9--8--9-----10--
8--------10----------|

PM |-----------------------| |--| |-----| |-------------|


|--------------|
E|---------------------------------------------------------------------------------
--------------------|
B|---------------------------------------------------------------------------------
--------------------|
G|---------------------------------------------------------------------------------
--------------------|
D|---------------------------------------------------------------------------------
--------------------|
A|----10-10-12-10-10-13-10-10-12h13p12-10-13-10-10-12-13~-12-10-10-13-10-10-12h13-
10-12-8-10-5-8-------|
E|---------------------------------------------------------------------------------
--------------------|

PM |----| |----| |----| |--| |-----|


E|---------------------------------------------------------------------------------
--------------------|
B|---------------------------------------------------------------------------------
--------------------|
G|---------------------------------------------------------------------------------
-------------------*|
D|----------7--------8--------7h8p7-----8--------7-8--10p8p7-10p8p7-
10p8p7----------------------------*|
A|----6--6-----6--6-----6--6---------6-----6--6----------------------------12p10p8-
12p10p8-12p10p8-----|
E|---------------------------------------------------------------------------------
--------------------|

In the second time, use this measure instead of the measure above.
PM |----| |----| |----| |--| |-----|
E|---------------------------------------------------------------------------------
--------------------|
B|---------------------------------------------------------------------------------
--------------------|
G|---------------------------------------------------------------------------------
--------------------|
D|----------7--------8--------7h8p7-----8--------7-8--10p8p7-10p8p7-10p8p7-
7h8p7-----------------------|
A|----6--6-----6--6-----6--6---------6-----6--6----------------------------------
10-8------------------|
E|---------------------------------------------------------------------------------
---10-9-8-0---------|

End of the song


PM |-----------------|
e|-----------------------|---------------------------------------------------------
---------------------|
B|-----------------------|---------------------------------------------------------
---------------------|
G|-----------------------|---------------------------------------------------------
---------------------|
D|-----Keep doing
this---|---------------------------------------------------------------------------
---|
A|-----------------------|-------------------/8-------------------------/10--------
---------------------|
E|----0--0--0--0--0--0---|----0--0--0--0--0--/6--0-------0--0--0--0--0--/8---
0--------------------------|

----------------- Acordes -----------------