Vous êtes sur la page 1sur 6

PINK FLOYD - MONEY

1 + 2 + 3 + 4 + is played like 1 + 2 + 3 + 4 +

[0:12]

G|------4---------------------------4------------------------|
D|o-------4-----------------0---------4-----------------0---o|
A|o-2-------2-r-----0---2-r-----2-------2-r-----0---2-r-----o|
x4
E|--------------2---------------------------2----------------|
1 + 2 + 3 + 4 + 5 + 6 + 7 + 1 + 2 + 3 + 4 + 5 + 6 + 7 +

[Verse 0:39]

G|o|------4---------------------------4-----------------------|
D|-|o-------4-----------------0---------4-----------------0---|
A|-|o-2-------2-r-----0---2-r-----2-------2-r-----0---2-r-----|
E|o|--------------2---------------------------2---------------|
1 + 2 + 3 + 4 + 5 + 6 + 7 + 1 + 2 + 3 + 4 + 5 + 6 + 7 +

G|---------------------------------4------------------------|
D|-----0-------------------0---------4-----------------0---o|
A|-2-r-----2-r-----0---2-r-----2-------2-r-----0---2-r-----o|
E|-------------2---------------------------2----------------|
1 + 2 + 3 + 4 + 5 + 6 + 7 + 1 + 2 + 3 + 4 + 5 + 6 + 7 +

G|---------------------------------------------------------|
D|-4-------4r--------------4---3---2r------------------0---|
A|-----------4-----0---4-r-----------2---------0---2-r-----|
E|-------------2-----------------------0---3---------------|
1 + 2 + 3 + 4 + 5 + 6 + 7 + 8 + 1 + 2 + 3 + 4 + 5 + 6 +

G|-----4---------------------------4-----------------------o|
D|-------4-----------------0---------4-----------------0----|
A|-2-------2-r-----0---2-r-----2-------2-r-----0---2-r------|
E|-------------2---------------------------2---------------o|
1 + 2 + 3 + 4 + 5 + 6 + 7 + 1 + 2 + 3 + 4 + 5 + 6 + 7 +

[Sax Solo 2:01]

G|------4---------------------------4------------------------|
D|o-------4-----------------0---------4-----------------0---o|
A|o-2-------2-r-----0---2-r-----2-------2-r-----0---2-r-----o|
x4
E|--------------2---------------------------2----------------|
1 + 2 + 3 + 4 + 5 + 6 + 7 + 1 + 2 + 3 + 4 + 5 + 6 + 7 +

G|------9---------------------------9------------------------|
D|o-------9-----------------5---------9-----------------5---o|
A|o-7-------7-r-----5---7-r-----7-------7-r-----5---7-r-----o|
E|--------------7---------------------------7----------------|
1 + 2 + 3 + 4 + 5 + 6 + 7 + 1 + 2 + 3 + 4 + 5 + 6 + 7 +

G|------4---------------------------4------------------------|
D|o-------4-----------------0---------4-----------------0---o|
A|o-2-------2-r-----0---2-r-----2-------2-r-----0---2-r-----o|
E|--------------2---------------------------2----------------|
1 + 2 + 3 + 4 + 5 + 6 + 7 + 1 + 2 + 3 + 4 + 5 + 6 + 7 +

G|---------------------------------------------------------|
D|-4-------4r--------------4---3---2r------------------0---|
A|-----------4-----0---4-r-----------2---------0---2-r-----|
E|-------------2-----------------------0---3---------------|
1 + 2 + 3 + 4 + 5 + 6 + 7 + 8 + 1 + 2 + 3 + 4 + 5 + 6 +

G|---------------------------------------------------|
D|o-------------------------------------------------o|
A|o-2-2-2-2-2-2-2-2-2-2-2-2-2-2-2-2-2-2-2-2-2-2-2-2-o|
E|---------------------------------------------------|
Tripl Tripl Tripl Tripl Tripl Tripl Tripl Tripl

[Guitar Solo 3:04 ]

G|-------------------------------------------------------------
----|
D|-----0---------------0---------------0---------------0-------
----|
A|-2-
r-----4---3-0h2-2-----4---3-0h2-2-----4---3-0h2-2-----4---3-0h|
E|-------------------------------------------------------------
----|
1 + 2 + 3 + 4 + 1 + 2 + 3 + 4 + 1 + 2 + 3 + 4 + 1 + 2 + 3 +
4 +

G|-------------------------------------------------------------
----|
D|-----0---------------0---------------0---------------0-------
----|
A|-2-2-----4---3-0h2-2-----4---3-0h2-2-----4---3-0h2-2-----4---
3---|
E|-------------------------------------------------------------
----|
1 + 2 + 3 + 4 + 1 + 2 + 3 + 4 + 1 + 2 + 3 + 4 + 1 + 2 + 3 +
4 +

G|-------------------------------------------------------------
----|
D|-2-r-1-r-0-r-----2-r-1-r-0--r----2-r-1-r-0-r-----2-r-1-r-0-
r-----|
A|-------------4-r-------------4-r-------------4-
r-------------4-r-|
E|-------------------------------------------------------------
----|
1 + 2 + 3 + 4 + 1 + 2 + 3 + 4 + 1 + 2 + 3 + 4 + 1 + 2 + 3 +
4 +

G|-------------------------------------------------------------
----|
D|-----0-
r-------------0---------------0---------------0-----------|
A|-2-r-----4-
r-3-0h2-2-----4---3-0h2-2-----4---3-0h2-2-----4---3---|
E|-------------------------------------------------------------
----|
1 + 2 + 3 + 4 + 1 + 2 + 3 + 4 + 1 + 2 + 3 + 4 + 1 + 2 + 3 +
4 +

G|---------------------------------4---2---0-------------------
----|
D|-----4---3---2-------4---3---2---------------4---2---0-------
----|
A|---------------------------------------------------------4---
3---|
E|-2---------------2-2-----------------------------------------
----|
1 + 2 + 3 + 4 + 1 + 2 + 3 + 4 + 1 + 2 + 3 + 4 + 1 + 2 + 3 +
4 +

G|-------------------------------------------------------------
-----|
D|-----0---------------0---------------0---------------0-------
-----|
A|-2-
r-----4---3-0h2-2-----4---3-0h2-2-----4---3-0h2-2-----4---3-0h-
|
E|-------------------------------------------------------------
-----|
1 + 2 + 3 + 4 + 1 + 2 + 3 + 4 + 1 + 2 + 3 + 4 + 1 + 2 + 3 +
4 +

[3:47]

G|-------------------------------------------------------------
----|
D|-----0-r-------------0-r-------------0-r-------------0-
r---------|
A|-2-r-----4-r-3-0h2-r-----4-r-3-0h2-r-----4-r-3-0h2-r-----4-
r-3-0h|
E|-------------------------------------------------------------
----|
1 + 2 + 3 + 4 + 1 + 2 + 3 + 4 + 1 + 2 + 3 + 4 + 1 + 2 + 3 +
4 +

G|-------------------------------------------------------------
----|
D|-----0-r-------------0-r-------------0-r-------------0-
r---------|
A|-2-r-----4-r-3-0h2-r-----4-r-3-0h2-r-----4-r-3-0h2-r-----4-
r-3-r-|
E|-------------------------------------------------------------
----|
1 + 2 + 3 + 4 + 1 + 2 + 3 + 4 + 1 + 2 + 3 + 4 + 1 + 2 + 3 +
4 +

G|-------------------------------------------------------------
----|
D|-2-r-1-r-0-r-----2-r-1-r-0--r----2-r-1-r-0-r-----2-r-1-r-0-
r-----|
A|-------------4-r-------------4-r-------------4-
r-------------4-r-|
E|-------------------------------------------------------------
----|
1 + 2 + 3 + 4 + 1 + 2 + 3 + 4 + 1 + 2 + 3 + 4 + 1 + 2 + 3 +
4 +

G|-------------------------------------------------------------
----|
D|-----0-r-------------0-r-------------0-r-------------0-
r---------|
A|-2-r-----4-r-3-0h2-r-----4-r-3-0h2-r-----4-r-3-0h2-r-----4-
r-3-r-|
E|-------------------------------------------------------------
----|

1 + 2 + 3 + 4 + 1 + 2 + 3 + 4 + 1 + 2 + 3 + 4 + 1 + 2 + 3 + 4
+
G|---------------------------------4---2---0-------------------
----|
D|-----4-r-3-r-2-r-----4-r-3-r-2-
r-------------4---2---0-----------|
A|---------------------------------------------------------4---
3---|
E|-2-
r-------------2-2---------------------------------------------|
1 + 2 + 3 + 4 + 1 + 2 + 3 + 4 + 1 + 2 + 3 + 4 + 1 + 2 + 3 +
4 +

G|-------------------------------------------------------------
-----|
D|-----0-
r-------------0---------------0---------------0------------|
A|-2-r-----4-
r-3-0h2-2-----4---3-0h2-2-----4---3-0h2-2-----4---3-0h-|
E|-------------------------------------------------------------
-----|
1 + 2 + 3 + 4 + 1 + 2 + 3 + 4 + 1 + 2 + 3 + 4 + 1 + 2 + 3 +
4 +

[4:29]

G|-------------------------------------------------------------
----|
D|-----0---------------0---------------0---------------0-------
----|
A|-2-
r-----4---3-0h2-2-----4---3-0h2-2-----4---3-0h2-2-----4---3-0h|
E|-------------------------------------------------------------
----|
1 + 2 + 3 + 4 + 1 + 2 + 3 + 4 + 1 + 2 + 3 + 4 + 1 + 2 + 3 +
4 +

G|-------------------------------------------------------------
----|
D|-----0---------------0---------------0---------------0-------
----|
A|-2-2-----4---3-0h2-2-----4---3-0h2-2-----4---3-0h2-2-----4---
3---|
E|-------------------------------------------------------------
----|
1 + 2 + 3 + 4 + 1 + 2 + 3 + 4 + 1 + 2 + 3 + 4 + 1 + 2 + 3 +
4 +

G|-------------------------------------------------------------
----|
D|-2-r-1-r-0-r-----2-r-1-r-0--r----2-r-1-r-0-r-----2-r-1-r-0-
r-----|
A|-------------4-r-------------4-r-------------4-
r-------------4-r-|
E|-------------------------------------------------------------
----|
1 + 2 + 3 + 4 + 1 + 2 + 3 + 4 + 1 + 2 + 3 + 4 + 1 + 2 + 3 +
4 +

G|-------------------------------------------------------------
----|
D|-----0-
r-------------0---------------0---------------0-----------|
A|-2-r-----4-
r-3-0h2-2-----4---3-0h2-2-----4---3-0h2-2-----4---3---|
E|-------------------------------------------------------------
----|
1 + 2 + 3 + 4 + 1 + 2 + 3 + 4 + 1 + 2 + 3 + 4 + 1 + 2 + 3 +
4 +

G|---------------------------------4---2---0-------------------
----|
D|-----4---3---2-------4---3---2---------------4---2---0-------
----|
A|---------------------------------------------------------4---
3---|
E|-2---------------2-2-----------------------------------------
----|
1 + 2 + 3 + 4 + 1 + 2 + 3 + 4 + 1 + 2 + 3 + 4 + 1 + 2 + 3 +
4 +

G|-----4---------------------------4-----------------------|
D|-------4-----------------0---------4-----------------0---|
A|-2-------2-r-----0---2-r-----2-------2-r-----0---2-r-----|
E|-------------2---------------------------2---------------|
1 + 2 + 3 + 4 + 5 + 6 + 7 + 1 + 2 + 3 + 4 + 5 + 6 + 7 +

[Verse 5:10]

G|------4---------------------------4-----------------------|
D|o-------4-----------------0---------4-----------------0---|
A|o-2-------2-r-----0---2-r-----2-------2-r-----0---2-r-----|
E|--------------2---------------------------2---------------|
1 + 2 + 3 + 4 + 5 + 6 + 7 + 1 + 2 + 3 + 4 + 5 + 6 + 7 +

G|---------------------------------4------------------------|
D|-----0-------------------0---------4-----------------0---o|
A|-2-r-----2-r-----0---2-r-----2-------2-r-----0---2-r-----o|
E|-------------2---------------------------2----------------|
1 + 2 + 3 + 4 + 5 + 6 + 7 + 1 + 2 + 3 + 4 + 5 + 6 + 7 +

G|---------------------------------------------------------|
D|-4-------4r--------------4---3---2r------------------0---|
A|-----------4-----0---4-r-----------2---------0---2-r-----|
E|-------------2-----------------------0---3---------------|
1 + 2 + 3 + 4 + 5 + 6 + 7 + 8 + 1 + 2 + 3 + 4 + 5 + 6 +

[Outro 5:42]

Repeat till end

1 + 2 + 3 + 4 + 1 + 2 + 3 + 4 + 1 + 2 + 3 + 4 + 1 + 2 + 3 +
4 +
G|-------------------------------------------------------------
-----|
D|
o-----0-------0-------0-------0-------0-------0-------0-------0
--o|
A|o-2-r-----2-r-----2-r-----2-r-----2-r-----2-r-----2-r-----2-
r----o|
E|-------------------------------------------------------------
-----|

**************************
|r Rest
|h Hammer-on
**************************