Vous êtes sur la page 1sur 4

Mahaleo

Rafahafahana*

Title : Rafahafahana
Artist : Mahaleo
Tabed by: Nanou RANDRIAMANANTENA
From www.serasera.org by NEO
E-mail : nanourand@hotmail.com (for purpose)
---------------------------------------------

CAPOT : 1ere CASE

Accords:
-------
D : "x54232" F#m : "244222"
A : "x02220" C# : "x43232"
A*: "577655" C#* : "x46664"
E : "022100"

Intro :
-----
D A E[riff0] F#m E[riff1]
e|2----------0--------|--------------------|------0----------|
B|----3----------2----|----0-2-------------|0-2-3----2-----2-|
G|--2---[2]-|--2---[2]|1-2-----|2-----2----|1-2-4---|----2---|
D|----4-----|---------|--------|--4^6---[4]|--------|--2-----|
A|5----------0--------|----2---------------|---------0-------|
E|--------------------|0--------2----------|0-2-4------------|

D* A* C#* C#* F#m couplet


e|2---55-4---5--------|4--------4----------|-----------------|
B|-----3-----------5--|------6-|6----------|-----------------|
G|--2-------|----6----|----6---|6----------|-----------------|
D|0---------|--7------|--6-----|6----------|-----------------|
A|--------------------|4-------|4----------|-----------------|
E|-----------5--------|--------|-----------|-----------------|

[Riff2] :
E D
e|------0-2-|
B|0-2-3---3-|
G|1-2-4-----|
D|----------|
A|----------|
E|----------|

[Riff3] :

D C#m Bm A E
e|------------------|
B|7--5---3--2-------|
G|7---------2--1----|
D|-------------2----|
A|5--4---2--0-------|
E|-------------0----|

couplet (debut)

http://www.easyzic.com/partitions-tablatures/partition-mahaleo,a1426.html Page 1/4


Mahaleo
Rafahafahana*

-------

F#m E D A
Tiako,tiako
C# F#m
ary tena faniriako
D E
raha ialahy,no mba namana,
D E
Mety handray,ireto,
C# F#m
Ireto tanana

couplet
-------

F#m E [riff2] D A (basse A B C#)


Indrisy, indrisy,
C# F#m
Toa mitady ny tsy misy
D E
Fa ialahy,Rafahafahana
D E
Toa mandà,tsy mety,
C# F#m
Mety ho namana...

[Riff3]

Refrain:
-------

D A E F#m
Teto aho,dia nipitrapitra,
E [riff1] A
Sy nitsiriritra,
D [riff3] E
Ny tsy natao ho ahy
D A E F#m
Nefa,fitia tsy mety ritra,
E A
Mikiry sy maditra,
D* A* C#*
Natokako an'ialahy.....

couplet
-------

Indraindray,indraindray,

Variana aho mijery an'ialahy

Manantona,ireo zay tsy mitady,

Fa miavona,anay,

Zay mandadilady....

Inona,inona,

No anaovan'ialahy ahy tsinontsinona,

Manavaka trano hidirana,

Sa ve ialahy,mifidy,

http://www.easyzic.com/partitions-tablatures/partition-mahaleo,a1426.html Page 2/4


Mahaleo
Rafahafahana*

Fihodirana....... [Riff3]

Ref:
---
Zahay ety,

Mijinja ny mafaitra,

Mitaty ny tsy laitra,

Tsy afaka manoatra

Iandrasana,hitondra takaitra,

Zay ngamba ialahy vao taitra,

Sao dia mba tara loatra....

couplet:
-------

Potika,potika,

Fo sy saina rotidrotika,

Miantomboka,ny faharavana

Ka eo ilay,ry,ry figadrana..

Foiko,foiko,

Raha ny foko no henoiko

Hanome ny Aiko,

Mba ho sorona,

Ka ny fanahiko,hitovy

Amin'ny vorona...... [Riff3]

Ref:
---
Aoka aho,

Mba ho tompon-tsafidy,

Mba tsy havela hihidy,

Ty vavako miteny

Ampy ho ahy izay,

Nitondra mangidy,

Tsy tiako ho tadidy,

Reny rehetra ireny...

F'izaho sy ialahy,

http://www.easyzic.com/partitions-tablatures/partition-mahaleo,a1426.html Page 3/4


Mahaleo
Rafahafahana*

Hamafy hafaliana,

Hanome fanampiana,

Ny mitovy amiko,

Raha eo ialahy,

Hiteny ireo nangiana

FAHAFAHANA no iriana,

Ho an'ny Taniko..........

Outro :
------

(c) RANDRIAMANANTENA Ony Patrick

http://www.easyzic.com/partitions-tablatures/partition-mahaleo,a1426.html Page 4/4