Vous êtes sur la page 1sur 16

Daily Routine for Euphonium (Bass Clef), Level 3

Note: This routine should be preceded by breathing and mouthpiece buzzing exercises.

1. Long Tones q= 60-120


? 44 bw w bw bw bw w bw bw bw w

? w w w bw w w w bw w w w w w bw

? bw bw bw bw bw bw
w bw w bw w w

?
bw bw bw bw bw bw bw
w bw w w bw

2. Separated Quarter Notes q = 60-120


? 44 œ Œ œ Œ œ Œ œ Œ œ Œ œ Œ œ Œ œ Œ bœ Œ œ Œ bœ Œ œ Œ œ Œ œ Œ œ Œ œ Œ

? bœ Œ œ Œ bœ Œ bœ Œ œ Œ œ Œ œ Œ œ Œ œ Œ œ Œ œ Œ œ Œ bœ Œ œ Œ bœ Œ œ Œ

?
œ Œ œ Œ œ Œ œ Œ bœ Œ œ Œ bœ Œ œ Œ œ Œ œ Œ œ Œ œ Œ bœ Œ œ Œ bœ Œ œ Œ

? Œ Œ Œ Œ Œ Œ Œ Œ Œ Œ Œ Œ Œ Œ Œ Œ
œ œ œ œ œ œ œ œ bœ œ bœ œ œ œ œ œ

? Œ Œ Œ Œ Œ Œ Œ Œ Œ Œ Œ Œ Œ Œ Œ Œ
bœ œ bœ œ œ œ œ œ œ œ œ œ bœ œ bœ œ
Daily Routine for Euphonium (Bass Clef), Level 3 (Everett)
2

3. Legato Tonguing q = 100-120

? 44 bœ œœœœœœœ œJ‰ œœœœœœœœ œJ‰ bœ œœœœœœœœJ‰ œœœœœœœœ œJ‰ bœ œœœœœœœ œJ‰ œœœœœœœœœ‰
J

? œœœœœœœœ œ‰ bœ œœœœœœœ œ‰ œœœœœœœœ œ‰ bœ œœœœœœœ œ‰ œœœœœœœœ œj ‰ œœœœœœœœ œj ‰


J J J J

? bœ œœœœœœœ œj ‰ j j
œ œœœœœœœ œ ‰ bœ œœœœœœœ œ ‰ œ œœœœœœœ œj ‰ bœ œœœœœœœ œj ‰

? j‰ j‰ j‰ j‰
œ œœœœœœœ œ œ œ œ œ œ œ œ œ œ bœ œ œ œ œ œ œ œ œ œ œœœœœœœ œ

? j‰ j‰ j‰ j‰
bœ œ œ œ œ œ œ œ œ œ œ œ œ œ œ œ œ œ œ œ œ œ œ œ œ œ œ bœ œ œ œ œ œ œ œ œ

4. Lip Slurs q = 60-120


? 44 b˙ ˙ b˙ ˙ ˙ ˙ ˙ b˙ b˙ b˙
b˙ Ó ˙ ˙ Ó b˙ b˙ Ó
0------------------------------------ 2------------------------------------ 1------------------------------------

? ˙ ˙ ˙ Ó b ˙ b˙ b˙ ˙ ˙ ˙ ˙
˙ ˙ b˙ b˙ Ó ˙ ˙ ˙
Ó
˙ ˙ ˙
Ó
1-2-------------------------- 2-3-------------------------- 4-------------------------- 2-4--------------------------

5. Lip Slurs q = 100-120+


œ œ œ œ œ œ œ œ œ œ
? 44 bœ œ œJ ‰ œ œ œJ ‰ bœ œ œ œ œ œ œJ ‰ œ# œ œ œ œJ ‰ œ œ œ œ œJ ‰ œ# œ œ œ œ œ œ œ œ œ œ œ œJ ‰
0-------------------------------------------------------------------- 2----------------------------------------------------------------------

? bœ œ œ œ œJ ‰ œ œ œ œ œJ ‰ bœ œ œ œ œ œ œ œ œ œ œ œ œJ ‰ œ œ œ œ œJ ‰ œ œ œ œ œJ ‰ œ œ œ œ œ œ œ œ œ œ œ œ œJ ‰
1-------------------------------------------------------------------- 1-2----------------------------------------------------------------------

? bœbœ œ œ œJ ‰ œ œ œ œ œJ ‰ bœbœ œ œ œ œ œ œ œ œ œ œ œJ ‰ œ œ œ œ œ ‰ œ œ œ œ œ ‰ œ œ œ œ œ œ œ œ œ œ œ œ œ ‰
J J J
2-3-------------------------------------------------------------------- 4-----------------------------------------------------------------------

? œ #œ œ œ œ ‰ œ œ œ œ œ ‰ œ #œ œ œ œ œ œ œ œ œ œ œ œ ‰
J J J
2-4--------------------------------------------------------------------------------------------------------------------------------------------
Daily Routine for Euphonium (Bass Clef), Level 3 (Everett)
3
q = 100-120+
, ,
6. Lip Slurs
, œœœœœœœœœ œ ,
? 44 bœ œ œ œ œ œ œ œ œ œbœ œ œ œ œ œ œ œ œ œ œ bœbœ œ œ œ œ œ œ œ œ
œ bœ œ
0-------------------------------- 2-------------------------------- 1-------------------------------- 1-2-------------------------------
, ,
? bœ bœ œ œ œ œ œ œ œ œ œœœœœœœœœ œ œœœœœœœœœ œ
bœ œ œ
2-3------------------------------------------- 4---------------------------------------------- 2-4----------------------------------------------

7. Fingering Exercise q = 120-180+

? 44 bœœ#œœœœœœœœœœœJ‰ œœ#œœœœœœœœœœœ‰ bœ œ œ œ
j ‰ œbœœœnœbœœœnœbœœœnœJ ‰
J œ#œœ œœœ œœœ

? œbœœœnœbœœœnœbœœœnœ‰ j ‰ bœœ#œœœœœœœœœœœJ‰ bœœ#œœœœœœœœœœœ‰


J œbœœœnœbœœœnœbœœœnœ J

? j œbœœœnœbœœœnœbœœœnœJ‰ œbœœœnœbœœœnœbœœœnœ‰ j‰
bœœ#œœœœœœœœœœœ ‰ J œbœœœnœbœœœnœbœœœnœ

? bœ œ œ œ œ œ œ œ œ œ œ œ œJ ‰ bœ œ œ œ œ œ œ œ œ œ œ œ œ ‰ j‰
J bœ œ œ œ œ œ œ œ œ œ œ œ œ

? œ œ#œ œ œ œ œ œ œ œ œ œ œ ‰ œ œ œ œ œ œ œ œ œ œj ‰ j‰
J #œ œ œ œ œ #œ œ œ œ œ œ œ œ œ œ œ

8. Lip Slurs q = 100-120+


b œ œ œ œ œ œ œ œ œ œ b œ œ œ œ œ œ œ œ œ œ œ œ œ œ# œ œ œ œ œ œ œ œ œ œ# œ œ œ œ œ œ œ œ œ œ œ œ
? 44 J‰ J‰ J‰ J‰ J‰ J‰
0------------------------------------------------------------------ 2------------------------------------------------------------------------

b œ œ œ œ œ œ œ œ bœ œ b œ œ œ œ œ œ œ œ œ œ œ œ œ œœ œœ œ œœ œœ œ œœœ œ œœœ œ œœ
? bœ œ J ‰ J ‰ J ‰ œ
J‰ J‰ J‰
1------------------------------------------------------------------------ 1-2-----------------------------------------------------------------

bœ œ bœ œ œ
? bœbœ œ œJ ‰ œ œ œ œJ ‰ bœbœ œ œ œ œ œ œ œ œJ ‰ œ œ œ œ œ ‰ œ œ œ œ œ ‰ œ œ œ œ œ œ œ œ œ œ œ œ œ ‰
J J J
2-3--------------------------------------------------------------------- 4---------------------------------------------------------------------

? œ #œ œ œ œ ‰ œ œ œ œ œ ‰ œ #œ œ œ œ œ œ œ œ œ œ œ œ ‰
J J J
2-4--------------------------------------------------------------------------------------------------------------------------------------------
Daily Routine for Euphonium (Bass Clef), Level 3 (Everett)
4 Note: You may play either the "a" or "b" versions of exercises 9 and 11, or both versions.
9a. Fingering Exercise q = 120-180+
? 44 j ‰ œœœœœœœœœœœœœj ‰ bœbœbœœœœœœœœœœœj ‰ œœœœœœœœœœœœœj ‰
œ #œ #œ œ œ œ
œ œ œœ œ œ œ

? bœ œ œ œ œ œ œ œ œ j ‰ œ#œ œ œ œ œ œ œ œ j ‰ bœ œ œ œ œ œ œ œ œ œ œ œ œj ‰
bœ œ œ œ œ œ œ œ

9b. Fingering Exercise q ™ = 60-90+


? 12 ‰ ‰
8
œ #œ#œ œ œ œ œ œ œ œ œ œ œ œ œ œ œ œ œ œœœœœœœœœœœœœœœœœœœ

?
bœ bœ bœ bœ œ œ œ œ œ œ œ œ œ œ œ œ œ œ œ ‰ œ œ œ œ œ œ œ œ œ œ œ œ œ œ œ œ œ œ œ ‰

?
bœ bœ œ bœ œ œ œ œ œ œ œ œ œ œ œ œ œ œ œ ‰ œ œ#œ œ œ œ œ œ œ œ œ œ œ œ œ œ œ œ œ ‰

? bœ œ œ œ œ œ œ œ œ œ œ œ œ œ œ œ œ œ œ ‰

10. Lip Slurs q = 100-120+


œ œ œ œ œ œ œ œ œ œ œ bœ œ œ œ œ œ œ œ œ
b
? 44 œ œ œ œœ œ œ œbœ‰ ™œ œœ# œ œ œ œœœœ œ œ œ œœ œœ# œ œ œ œœ ‰ ™ bœ
R R œ R
0---------------------------------------------------------------- 2------------------------------------------------------------------- 1---

bœ œ bœ œ œ œ
? bœbœ œ œ œ œœœœ œ œ œ œœ bœbœ œ œ œ œœ ‰ ™œ œœœœ œœœœœœœ œœœ œœœœ œœœ ‰ b™ œ
bœ R œ R
1--------------------------------------------------------------------- 1-2-------------------------------------------------------------- 2-3-

bœ œ bœ
? bœbœbœœ œœœœœœœ œœœ bœbœbœœ œœœ ‰ ™œ œœœœ œ œœœœœœœ œ œœœ œœœœ œ œœœ ‰ ™œ
bœ R œ R
2-3----------------------------------------------------------------- 4---------------------------------------------------------------- 2-4-

? œ œ #œ œ œ œ œ œ œ œ œ œ œ œ œ œ œ œ #œ œ œ œ œ œ Œ
œ
2-4-----------------------------------------------------------------------------------------------------------------------------------------
Daily Routine for Euphonium (Bass Clef), Level 3 (Everett)
5
11a. Fingering Exercise q = 120-180+

b œ œ œ b œ œ œ œ œ œ œ œ œ œ œ œ œ bœ œ œ b œ œ œ œ œ œ
? 44 Œ

œ œ #œ œ œ œ œ œ œ œ œ œ œ œ œ œ œ œ #œ œ œ œ œ œ œ
? Œ

b œ b œ œ b œ b œ œ œ œ œ œ œ œ œ œ œ œ bœ bœ œ b œ b œ œ œ œ œ
? Œ

œ œ œ œ œ œ œ œ œ œ œ œ
? œ œ œ œ œ œ œ œ œ œ œ œ œ Œ

bœ œ œ œ œ œ œ œ bœ œ œ œ
? bœ bœ bœ b œ œ œ œ œ bœ bœ bœ b œ œ Œ

? œ œ œ bœ œ œ œ œ œ œ œ œ œ œ œ œ œ œ œ bœ œ œ œ œ œ Œ

? œ #œ #œ œ œ œ œ œ œ œ œ œ œ œ œ œ œ #œ #œ œ œ œ œ œ œ Œ

? bœ œ œ bœ bœ œ œ œ œ œ œ œ œ œ œ œ bœ œ œ bœ bœ œ œ œ œ Œ

? œ œ #œ œ œ œ œ œ œ œ œ œ œ œ œ œ œ œ #œ œ œ œ œ œ œ Œ

? bœ bœ œ bœ bœ œ œ œ œ œ œ œ œ œ œ œ bœ bœ œ bœ bœ œ œ œ œ Œ

? œ œ œ œ œ œ œ œ œ œ œ œ œ œ œ œ œ œ œ œ œ œ œ œ œ Œ

? œ #œ #œ œ #œ œ œ œ œ œ œ œ œ œ œ œ œ #œ #œ œ #œ œ œ œ œ Œ

? bœ œ œ bœ œ œ œ œ œ œ œ œ œ œ œ œ bœ œ œ bœ œ œ œ œ œ Œ
Daily Routine for Euphonium (Bass Clef), Level 3 (Everett)
6 11b. Fingering Exercise q = 120-180+

b œ œ œ b œ œ œ œ œ œ œ œ œ œ œ œ œ bœ œ œ b œ œ œ œ œ œ œ œ œ œ œ œ œ bœ œ œ b œ œ œ œ œ œ œ œ œ œ œ œ œ b˙
? 44 Ó

œ œ œ œ œ œ œ œ œ œ œ œ œ œœ# œ œ œ œ œ œ œ œ œ œ œ œ œ œ œœ# œ œ œ œ œ œ œ œ œ œ œ œ œ œ ˙
? œœ# œ Ó

b œb œ œ œ œ œ œ œ œ œ œ œœ bœbœ œb œb œ œ œ œ œ œ œ œ œ œ œ œ bœbœ œb œb œ œ œ œ œ œ œ œ œ œ œ œ b˙
? bœbœ œ Ó

œ œ œ œ œ œ œ œ œ
? œœœ œ œ œ œ œ œ œ œ œœ œœœ œ œ œ œ œ œ œ œ œœ œœœ œ œ œ œ œ œ œ œ œœ ˙ Ó

bœ œ œ bœ œ œ bœ œ œ
? bœbœbœb œ œ œ œ œ œ œ œ œœ bœbœbœb œ œ œ œ œ œ œ œ œœ bœbœbœb œ œ œ œ œ œ œ œ œœ b˙Ó

? œ œ œ bœ œ œ œ œ œ œ œ œ œ œ œ œ œ œ œ bœ œ œ œ œ œ œ œ œ œ œ œ œ œ œ œ bœ œ œ œ œ œ œ œ œ œ œ œ œ ˙ Ó

? œ#œ#œ œ œ œ œ œ œ œ œ œ œ œ œ œ œ#œ#œ œ œ œ œ œ œ œ œ œ œ œ œ œ œ#œ#œ œ œ œ œ œ œ œ œ œ œ œ œ œ ˙ Ó

? bœ œ œ bœ bœ œ œ œ œ œ œ œ œ œ œ œ bœ œ œ bœ bœ œ œ œ œ œ œ œ œ œ œ œ bœ œ œ bœ bœ œ œ œ œ œ œ œ œ œ œ œ b˙ Ó

? œ œ#œ œ œ œ œ œ œ œ œ œ œ œ œ œ œ œ#œ œ œ œ œ œ œ œ œ œ œ œ œ œ œ œ#œ œ œ œ œ œ œ œ œ œ œ œ œ œ ˙ Ó

? bœ bœ œ bœ bœ œ œ œ œ œ œ œ œ œ œ œ bœ bœ œ bœ bœ œ œ œ œ œ œ œ œ œ œ œ bœ bœ œ bœ bœ œ œ œ œ œ œ œ œ œ œ œ b˙ Ó

? œœœœœœœœœœœœœœœœ œœœœœœœœœœœœœœœœ œœœœœœœœœœœœœœœœ ˙ Ó

? œ#œ#œ œ#œ œ œ œ œ œ œ œ œ œ œ œ œ#œ#œ œ#œ œ œ œ œ œ œ œ œ œ œ œ œ#œ#œ œ#œ œ œ œ œ œ œ œ œ œ œ œ ˙ Ó

? bœ œ œ bœ œ œ œ œ œ œ œ œ œ œ œ œ bœ œ œ bœ œ œ œ œ œ œ œ œ œ œ œ œ bœ œ œ bœ œ œ œ œ œ œ œ œ œ œ œ œ b˙ Ó
Daily Routine for Euphonium (Bass Clef), Level 3 (Everett)
7
12. Fingering Exercise q = 120-180+

? 44 œ œ œ œ œ œ œ 3œ œ œ 3œ œ œ œ œ œ œ œ œ œ œ œ œ6œ œ œ œ œ œ6œ œ œ œ Œ
1-2 3 1-2 3...

? œ œ œ œ œ œ œ 3œ œ œ 3œ œ œ œ œ œ œ œ œ œ œ œ œ6 œ œ œ œ œ œ6 œ œ œ œ Œ
1-2 3 1-2 3...

?
œ œ œ œ œ œ œ œ œ œ œ œ œ œ œ œ œ œ œ œ œœœœœœœœœœœœœ Œ
1-2 3 1-2 3... 3 3 6 6

Note: It is recommended that exercises 13-19 be played in a different key each day, and in different octaves. F Major is used here only as an example.

13. Breath Extension/Volume Control q = 60-120


? 44 bw bw bw bw
w w w w w w w w w w w w
ppp fff ppp ppp fff ppp ppp fff ppp ppp fff ppp

? w w w w w w w w w w w w w w w w
ppp fff ppp ppp fff ppp ppp fff ppp ppp fff ppp

14. Breath Extension q = 60-120


? 44 Ó Ó Ó
˙ ˙ ˙ ˙ ˙ ˙ ˙ ˙ ˙ ˙ ˙ b˙ ˙ ˙ ˙

? ˙ b˙ Ó ˙ ˙ ˙ b˙ Ó
˙ ˙ ˙ b˙ ˙ ˙ ˙ ˙ ˙ ˙ b˙ ˙ ˙ ˙

? b˙ ˙ ˙ ˙ ˙ ˙ b˙ Ó
˙ ˙ ˙ ˙ ˙ ˙

? ˙ ˙ ˙ ˙ ˙ ˙ ˙ b˙ Ó
˙ ˙ ˙ b˙ ˙ ˙ ˙

15. Breath Extension q = 60-120


? 43 j
Ϫ
j œ œ bœ œ™
œ œ œ œ œ œ œ œ œ œ ˙™

? œ œ œ œ™ bœj œ bœ œ œ bœ ™ œj œ b œ
œ œ œ œ œ™ b œ
jœ œ bœ œ œ
˙™
Daily Routine for Euphonium (Bass Clef), Level 3 (Everett)
8
16. Tonguing Speed: Single Tonguing q = 100-150+
? 44 Œ œ œ œ œ œœœœœœ œœœœœœœœœ Œ
3 3 3 3

œ œ œ œ œœœœœœ œœœœœœœœœ
ta ta ta ta ta ta ta ta ta ta ta ta ta ta ta ta ta ta ta (sim.)

?
3 3

œ œ œ œ œ œ œ œ œ œ œ œ œ œ œ œ œ œ œ Œ bœ œ œ œ œ œ œ œ œ œ bœ œ œ œ œ œ œ œ œ Œ
3 3

? œ œ œ œ œœœœœœ œœœœœœœœœ Œ
3 3 3 3
œ œ œ œ œœœœœœ œœœœœœœœœ Œ

? œ œ œ œ œ 3œ œ œ 3œ œ œ œ œ œ œ œ œ œ œ Œ œ œ œ œ œ 3œ œ œ 3œ œ œ œ œ œ œ œ œ œ œ Œ

3
? œ œ œ œ bœ œ œ œ œ œ
3

œ œ œ œ œ œ œ œ œ œ œ Œ

17. Tonguing Speed: Doodle Tonguing q = 120-185+


3 3
? 44 œ œ œ œ œ œ œ œ œ œ œ œ œ œ œ œ œ œ œ Œ œ œ œ œ œœœœœœ œœœœœœœœœ Œ
3 3

du du du du du dul la dudul la dudulduduldudul duduldu


(sim.)

3 3
? œ œ œ œ œœœœœœ œœœœœœœœœ Œ
3 3
œ œ œ œ œœœœœœ œœœœœœœœœ Œ

? bœ œ œ œ œ œ œ œ œ œ bœ œ œ œ œ œ œ œ œ Œ
3 3

œ œ œ œ œœœœœœ œœœœœœœœœ Œ
3 3

?
œ œ œ œ œœœœœœ œœœœœœœœœ Œ
Œ
3 3 3 3

œ œ œ œ œœœœœœ œœœœœœœœœ

3
? œ œ œ œ œ bœ œ œ œ
3

œ œ bœ œ œ œ œ œ œ Œ
œ œ œ
Daily Routine for Euphonium (Bass Clef), Level 3 (Everett)
9

18. Tonguing Speed: Multiple Tonguing 1 q = 140-250+


? 44 Œ œ œ œ œ œœœœœœ œœœœœœœœœ Œ
3 3 3 3

œ œ œ œ œœœœœœ œœœœœœœœœ
ta ta ta ta ta ta ka ta ta ka ta ka ta ka ta ka ta ka ta (sim.)

?
3 3
Œ Œ
3 3
œ œ œ œ œœœ œœœ œœœœœœœœœ bœ œ œ œ œ œ œ œ œ œ bœ œ œ œ œ œ œ œ œ

? œ œ œ œ œœœ œœœ œœœœœœœœœ


3 3 3 3
Œ œ œ œ œ œœœ œœœ œœœœœœœœœ Œ

? œ œ œ œ œ 3œ œ œ 3œ œ œ œ œ œ œ œ œ œ œ Œ œ œ œ œ œ 3œ œ œ 3œ œ œ œ œ œ œ œ œ œ œ Œ

3
? œ œ œ œ bœ œ œ œ œ
3

œ œ œ œ œ œ œ œ œ œ œ œ Œ

19. Tonguing Speed: Multiple Tonguing 2 q = 140-250+


3 3
? 44 œ œ œ œ œ œ œ œ œ œ œ œ œ œ œ œ œ œ œ Œ œ œ œ œ œœœœœœ œœœœœœœœœ Œ
3 3

ta ta ta ta ta ka ta ta ka ta ta ka ta ka ta ka ta ka ta
(sim.)

3 3
? œ œ œ œ œœœœœœ œœœœœœœœœ Œ
3 3
œ œ œ œ œœœœœœ œœœœœœœœœ Œ

? bœ œ œ œ œ œ œ œ œ œ bœ œ œ œ œ œ œ œ œ Œ
3 3

œ œ œ œ œœœœœœ œœœœœœœœœ Œ
3 3

?
œ œ œ œ œœœœœœ œœœœœœœœœ Œ Œ
3 3 3 3

œ œ œ œ œœœœœœ œœœœœœœœœ

3
? œ œ œ œ œ bœ œ œ œ
3

œ œ bœ œ œ œ œ œ œ Œ
œ œ œ
Daily Routine for Euphonium (Bass Clef), Level 3 (Everett)
10

20. Upper Range Extension: Harmonic Series Slurs q = 60-120


œ œ œ
? 44 œ #œ #œ œ Œ
œ œ
œ œ
2-4--------------------------------------------------------------------------------------------------------------------------------

œ œ œ
? œ œ œ œ
œ œ Œ
œ œ
4------------------------------------------------------------------------------------------------------------------------------------

bœ bœ œ
? bœ bœ bœ bœ
bœ bœ Œ
bœ bœ
2-3---------------------------------------------------------------------------------------------------------------------------------

œ œ œ
? œ œ œ œ
œ œ Œ
œ œ
1-2----------------------------------------------------------------------------------------------------------------------------------

bœ bœ œ
bœ œ œ bœ
? bœ bœ Œ
bœ bœ
1--------------------------------------------------------------------------------------------------------------------------------------

œ œ œ
œ #œ #œ œ
? œ œ Œ
œ œ
2------------------------------------------------------------------------------------------------------------------------------------

œ bœ œ
bœ œ œ bœ
? bœ œ œ bœ Œ
0----------------------------------------------------------------------------------------------------------------------------------------
Daily Routine for Euphonium (Bass Clef), Level 3 (Everett)
11
21. Upper Range Extension: Harmonic Series Slurs q = 60-120
#œ #œ œ
? 44 œ #œ œ œ œ # œ œ œ # œ œ œ œ œ œ œ #œ œ
œ œ œ Ó
œ
2-4----------------------------------------------------------------------------------------------------------------------------------------

œ œ œ
? œ œ œ œ œ œ œ œ œ œ œ œ œ œ œ œ
œ œ œ Ó B
œ œ
4------------------------------------------------------------------------------------------------------------------------------------------

B b œ b œ œ b œ b œ œ b œ b œ b œ œ œ œ œ œ b œ bœ
b œ bœ bœ bœ bœ
b œ
Ó
bœ bœ
2-3------------------------------------------------------------------------------------------------------------------------------------------

œ œ œ
B œ œ œ œ œ œ œ œ œ œ œ œ œ œ œ œ œ
œ œ œ œ Ó
1-2------------------------------------------------------------------------------------------------------------------------------------------

b œ b œ œ b œ œ œ b œ b œ œ œ œ œ œ œ b œ bœ
B bœ œ œ bœ Ó
bœ b œ b œ bœ
1------------------------------------------------------------------------------------------------------------------------------------------

#œ #œ œ
B œ œ œ œ œ œ œ œ œ œ œ œ œ #œ œ
œ œ #œ œ œ Ó
œ
2------------------------------------------------------------------------------------------------------------------------------------------

œ œ œ
œ b œ œ œ œ b œ œ œ œ œ œ b œ œ œ bœ
B œ bœ œ œ bœ Ó

0------------------------------------------------------------------------------------------------------------------------------------------
Daily Routine for Euphonium (Bass Clef), Level 3 (Everett)
12

22. Lip Trills q = 120-180+



B 44 œœœœœœ œœœœœœœœœœœœœœ œœœœœœ œ ŸœœŒ œbœœœœœ œbœœœœœœœœœœœœœ œbœœœœœ œ œœŒ
j

3 3 6 3 3 6
2-4-------------------------------------------------------------- 4-------------------------------------------------------------------------

jŸ œ œ œ œ œ œ œ œ œ œ œ œ œ œjŸ œ
B #œœœœœœ #œœœœœœœœœœœœœœ #œœœœœœ œ œœŒ œ œ œ œ œ œ œ œ œ œ œ œ œ œ Œ
3 3 6
2-3------------------------------------------------------------- 3 3 6
1-2------------------------------------------------------------------------------

b œb œœœ œœb œb œœ œœœœœœ œœœœœb œb œœœœ œœj Ÿœœ œœœœ œœ œœœ œœœœœ œœœœœ œ œœœœ œœœj Ÿœ œ
B Œ Œ
3 3 6 3 3 6
1----------------------------------------------------------------------- 2-----------------------------------------------------------------------

b œb œœœ œœb œb œœ œœœœœœ œœœœœb œb œœœœ œœj Ÿœœ œœœœ œœ œœœ œœœœœ œœœœœ œ œœœœ œœœj Ÿœ œ
B Œ Œ
3 3 6 3 3 6
1----------------------------------------------------------------------- 2-----------------------------------------------------------------------

œb œœœœœ œb œœœœœœœ œœœœœœ œb œœ œœœœj Ÿœ œ # œœœ œœœ# œœ œœœœœœœœ œœœœ# œ œœœœœœj Ÿœœ
B Œ Œ
3 3 6
0---------------------------------------------------------------------- 3 3 6
2-----------------------------------------------------------------------

œœœ œœœ œœœœ œœœœœ œœœœ œ œœœ œœœœj Ÿœœ b œb œœœ œœb œb œ œœœœœ œœœœ œœœb œb œœœœ œœj Ÿœ œ
B Œ Œ
3 3 6 3 3 6
0--------------------------------------------------------------------- 2---------------------------------------------------------------------------

œ# œœœœœ œ# œœœœœœœœœœœœœ œ# œœœœœ œj Ÿœœ œœœœœœ œœœœœœœœœœœœœœ œœœœœœ œjŸœœ


B Œ Œ
3 3 6 3 3 6
2----------------------------------------------------------------------- 0-----------------------------------------------------------------------
Daily Routine for Euphonium (Bass Clef), Level 3 (Everett)

23. Harmonic Series Slurs/Lip Trills q = 60-120


13

UU U UU U
Ÿ
œ Ÿ
œ #Ÿœ # œ œ bŸœ Ÿœ Ÿœ œ œ
B 44
œœ œ
#œ œ œ #œ œ Œ œœ œ Œ
œ œ œ œ œ
œ œ œ œ
2-4------------------------------------------------------------------- 4---------------------------------------------------------------------

UU U UU U
bŸœ bŸœ bŸœ b œ b œ Ÿ
œ Ÿœ Ÿœ œ œ
B b œ bœ bœ bœ bœ
bœ bœ Œ œ œ œ œœ
œœ Œ
bœ œ
bœ bœ œ œ
2-3---------------------------------------------------------------------- 1-2-------------------------------------------------------------------

UU Ÿ U UU U
Ÿœ # œ œ
b Ÿ
œ b œ bŸœ œ b œ Ÿ
œ Ÿ
œ
B bœ œ b œ bœ œ bœ Œ œ #œ œ œ #œ œ Œ
bœ b œ b œ bœ œ œ œ œ
1------------------------------------------------------------------------ 2---------------------------------------------------------------------

U U U
Ÿ
Ÿ œ bœ
B œ œ bœ bœ œ
Ÿ œ œ
œ bœ bœ œ Œ ?
bœ bœ
0----------------------------------------------------------------------------------------------------------------------------------------------

24. Lip Slurs q = 80-120+


3 6 6
? 44 bœœœœœœ bœœœœœœœœœœœœœœ bœœœœœœœœœœœœœŒ œ œ œ œ œ œ œ œ œ œ œ œ œ œ œ œ Œ
œœœ œœœœœœœ œœœœœœœ
3
3 3 6 6
0------------------------------------------------------------------ 2------------------------------------------------------------------------

3 6 6 3 6 6
? bœ œ œ bœ œ œ œ œ œ œ bœ œ œ œ œ œ Œ œ œ œ œ œ œ œ œ œ œ œ œ œ œ œ œ Œ
bœ œ œ bœ œ œ œ œ œ œ bœ œ œ œ œ œ œ œ œ œ œ œ œ œ œ œ œ œ œ œ œ œ œ œ
3 3
1-------------------------------------------------------------------------- 1-2--------------------------------------------------------------------

3 6 6
? bœ œ œ bœ œ œ œ œ œ œ bœ œ œ œ œ œ Œ œ œ œ 3œ œ œ œ œ œ œ œ œ œ œ œ œ Œ
3 6 6

bœ œ œ bœ œ œ œ œ œ œ bœ œ œ œ œ œ œ œ œ œ œ œ œ œ œ œ œ œ œ œ œ œ œ œ
3
2-3--------------------------------------------------------------------- 4----------------------------------------------------------------------

?
3 3 6 6
ΠB
œ œ œ œ œ œ œ œ œ œ œ œ œ œ œ œ œ œ œ œ œœœœœœœœœœœœœ
2-4------------------------------------------------------------------------------------------------------------------------------------------
Daily Routine for Euphonium (Bass Clef), Level 3 (Everett)
14
25. Upper Range Extension: "Rips" q = 60-80
Note: Try to have all of the partials sound as you "rip" from one note to the next in each group.
bœ bœ œ œ œ œ
B 44 œ œ œ Œ œ œ œ Œ bœ b œ œ Œ b œ bœ œ Œ œ œ œ Œ œ œ œ Œ bœ œ Œ bœ Œ œ œ Œ œ Œ

bœ bœ œ œ œ œ œ œ œ bœ bœ œ œ
B bœ œŒ bœ Œ œ œŒ œ Œ œ œŒ œ Œ bœ œŒ bœ Œ œ œŒ

œ œ bœ bœ œ œ œ œ œ œ œ
B œ bœ œ bœ œ œ œ œ œ œ
Œ Œ Œ Œ Œ Œ Œ

26. Upper Range Extension: Arpeggios q ™ = 60-90


™ ™ bœ ™ bœ
B 98 œ œ œ œ™ Œ ™ œ œ œ œ ™ Œ ™ bœbœ™ bœb œ Œ ™ b œ bœbœbœ ™ Œ ™ œ œ œ œ Œ ™ œ œ œ œ™ Œ ™ bœ œbœ Œ ™ bœ œbœ ™ Œ ™

bœ ™ bœ œ œ ™ œ #œ œ™ œ œ
œ œ™ œ œ
B œ#œ Œ ™ #œ œ ™ Œ ™ bœ œ œ
Œ™ œbœ ™ Œ ™ œ#œ #œ
Œ™ #œ œ™ Œ ™ œ œ œ
Œ™ œœ ™ Œ™

bœ ™ bœ bœ œ™ œœ bœ ™ bœ bœ
œ bœ ™
bœ œbœ ™ ™ œ#œ œ #œ œ™ ™ bœ œ b œ
B bœ œ Œ™ Œ Œ™ Œ Œ™ Œ™

œ œ™ œ œ œ™ œ œ
#œ œ ™ œ œ œ œ™
Ϊ Ϊ Ϊ Ϊ
B œ # œ œ

27. Upper Range Extension: Ascending Slursq = 60-120


˙
˙ b ˙ ˙ ˙ ˙ b˙ ˙ ˙ ˙ b˙ ˙ ˙ ˙ ˙ ˙ b˙ ˙ ˙ ˙ b˙ ˙ ˙ ˙
B 44 ?

◊ÿ
28. Upper Range Extension: Ascending "Rips" = 100-120

b œ œ œ bœ nœ bœ nœ œ
4
?4 œ b œ œ b œ œ q bœ nœ œ Ó
œ bœ œ œ bœ nœ
œ bœ œ bœ

29. Upper Range Extension: Arpeggio


“”
q = 100-120 ◊ÿ U
œ œ œ œ œ œ
? 43 bœ bœ bœ
Daily Routine for Euphonium (Bass Clef), Level 3 (Everett)
15
30. Upper/Lower Range Extension: Octave Slurs q = 60-90
œ œ bœ
œ œ œ œ bœ bœ
? 44 œ œ Ó œ œ Ó bœ bœ Ó
œ œ œ œ bœ bœ
œ ˙ œ ˙ bœ b˙
2-4---------------------------------------- 4------------------------------------------ 2-3----------------------------------------

œ bœ
œ œ bœ bœ
? œ œ bœ bœ
œ œ Ó bœ bœ Ó
œ ˙ bœ b˙
1-2-------------------------------------------------------------- 1----------------------------------------------------------------

œ bœ
œ œ bœ bœ
? œ œ bœ bœ
œ œ Ó bœ bœ Ó
œ ˙ bœ b˙
2---------------------------------------------------------------- 0----------------------------------------------------------------

31.Low Range/Chromatic Fingering Exercise q = 120-180+


? 44 bœ Œ 3
4 bœ œ bœ œ bœ œ œ bœ nœ bœ nœ
œ bœ œ bœ œ œ œ bœ nœ bœ nœ bœ œ

? bœ Œ
œ bœ œ bœ œ œ œ bœ nœ bœ nœ bœ œ bœ œ bœ œ œ œ bœ nœ bœ nœ b˙

32.Low Range/Chromatic Fingering Exercise q = 120-180+


? 44 bœ nœ œ#œ œ#œ nœ œ b˙ Ó bœnœ œ#œ œ#œnœ œbœnœ œ#œ œ#œnœ œ bœnœ œ#œ œ#œnœ œb˙
Daily Routine for Euphonium (Bass Clef), Level 3 (Everett)
16
33.Low Range/Fingering Exercise q = 120-180+
? 42 bœ œ œ bœ œ œ œ œ œ bœ œ œ œj ‰ j
œ œ œ œ œ œ œ œ œœœœœœœœ œœœœœ ‰

? j j
bœ bœ œ b œ bœ bœ œ b œ œ œ œ œ bœ bœ œ b œ œ ‰ œ œ œ œ œœœœœœœœ œœœœœ ‰

? j‰ j‰
bœ bœ œ b œ bœ bœ œ b œ œ œ œ œ bœ bœ œ b œ œ œ œ œ œ œœœœœœœœ œœœœœ

? j‰ j‰
œ #œ œ œ œ #œ œ œ œ œ œ œ œ #œ œ œ œ bœ œ œ bœ bœ œ œ bœ œ œ œ œ bœ œ œ bœ œ

34.Low Range Extension: Pedal Tones q = 60-90


? 44 Œ
bœ œ Œ bœ Œ œ Œ bœ Œ œ Œ œ Œ b œ Œ Œ
bœ bœ œ œ bœ bœ œ œ bœ bœ œ œ œ œ bœ bœ œ
œ œ

? bœ Œ œ Œ œ Œ bœ Œ Œ Œ Œ Œ Œ
b œ b œ œ œ œ œ b œ b œ œ œ œ b œ bœ b œ œ œ œ b œ bœ b œ œ
œ œ
“‘